  0
SECTION
  2
HEADER
  9
$ACADVER
  1
AC1024
  9
$ACADMAINTVER
 70
     6
  9
$DWGCODEPAGE
  3
UNDEFINED
  9
$INSBASE
 10
0.0
 20
0.0
 30
0.0
  9
$EXTMIN
 10
1.000000000000000E+20
 20
1.000000000000000E+20
 30
1.000000000000000E+20
  9
$EXTMAX
 10
-1.000000000000000E+20
 20
-1.000000000000000E+20
 30
-1.000000000000000E+20
  9
$LIMMIN
 10
0.0
 20
0.0
  9
$LIMMAX
 10
12.0
 20
9.0
  9
$ORTHOMODE
 70
     0
  9
$REGENMODE
 70
     1
  9
$FILLMODE
 70
     1
  9
$QTEXTMODE
 70
     0
  9
$MIRRTEXT
 70
     1
  9
$LTSCALE
 40
1.0
  9
$ATTMODE
 70
     1
  9
$TEXTSIZE
 40
0.2
  9
$TRACEWID
 40
0.05
  9
$TEXTSTYLE
  7
Standard
  9
$CLAYER
  8
0
  9
$CELTYPE
  6
ByLayer
  9
$CECOLOR
 62
   256
  9
$CELTSCALE
 40
1.0
  9
$DISPSILH
 70
     0
  9
$DIMSCALE
 40
1.0
  9
$DIMASZ
 40
0.18
  9
$DIMEXO
 40
0.0625
  9
$DIMDLI
 40
0.38
  9
$DIMRND
 40
0.0
  9
$DIMDLE
 40
0.0
  9
$DIMEXE
 40
0.18
  9
$DIMTP
 40
0.0
  9
$DIMTM
 40
0.0
  9
$DIMTXT
 40
0.18
  9
$DIMCEN
 40
0.09
  9
$DIMTSZ
 40
0.0
  9
$DIMTOL
 70
     0
  9
$DIMLIM
 70
     0
  9
$DIMTIH
 70
     1
  9
$DIMTOH
 70
     1
  9
$DIMSE1
 70
     0
  9
$DIMSE2
 70
     0
  9
$DIMTAD
 70
     0
  9
$DIMZIN
 70
     0
  9
$DIMBLK
  1

  9
$DIMASO
 70
     1
  9
$DIMSHO
 70
     1
  9
$DIMPOST
  1

  9
$DIMAPOST
  1

  9
$DIMALT
 70
     0
  9
$DIMALTD
 70
     2
  9
$DIMALTF
 40
25.4
  9
$DIMLFAC
 40
1.0
  9
$DIMTOFL
 70
     0
  9
$DIMTVP
 40
0.0
  9
$DIMTIX
 70
     0
  9
$DIMSOXD
 70
     0
  9
$DIMSAH
 70
     0
  9
$DIMBLK1
  1

  9
$DIMBLK2
  1

  9
$DIMSTYLE
  2
Standard
  9
$DIMCLRD
 70
     0
  9
$DIMCLRE
 70
     0
  9
$DIMCLRT
 70
     0
  9
$DIMTFAC
 40
1.0
  9
$DIMGAP
 40
0.09
  9
$DIMJUST
 70
     0
  9
$DIMSD1
 70
     0
  9
$DIMSD2
 70
     0
  9
$DIMTOLJ
 70
     1
  9
$DIMTZIN
 70
     0
  9
$DIMALTZ
 70
     0
  9
$DIMALTTZ
 70
     0
  9
$DIMUPT
 70
     0
  9
$DIMDEC
 70
     4
  9
$DIMTDEC
 70
     4
  9
$DIMALTU
 70
     2
  9
$DIMALTTD
 70
     2
  9
$DIMTXSTY
  7
Standard
  9
$DIMAUNIT
 70
     0
  9
$DIMADEC
 70
     0
  9
$DIMALTRND
 40
0.0
  9
$DIMAZIN
 70
     0
  9
$DIMDSEP
 70
    46
  9
$DIMATFIT
 70
     3
  9
$DIMFRAC
 70
     0
  9
$DIMLDRBLK
  1

  9
$DIMLUNIT
 70
     2
  9
$DIMLWD
 70
    -2
  9
$DIMLWE
 70
    -2
  9
$DIMTMOVE
 70
     0
  9
$DIMFXL
 40
1.0
  9
$DIMFXLON
 70
     0
  9
$DIMJOGANG
 40
0.7853981633974483
  9
$DIMTFILL
 70
     0
  9
$DIMTFILLCLR
 70
     0
  9
$DIMARCSYM
 70
     0
  9
$DIMLTYPE
  6

  9
$DIMLTEX1
  6

  9
$DIMLTEX2
  6

  9
$DIMTXTDIRECTION
 70
     0
  9
$LUNITS
 70
     2
  9
$LUPREC
 70
     4
  9
$SKETCHINC
 40
0.1
  9
$FILLETRAD
 40
0.5
  9
$AUNITS
 70
     0
  9
$AUPREC
 70
     0
  9
$MENU
  1
.
  9
$ELEVATION
 40
0.0
  9
$PELEVATION
 40
0.0
  9
$THICKNESS
 40
0.0
  9
$LIMCHECK
 70
     0
  9
$CHAMFERA
 40
0.5
  9
$CHAMFERB
 40
0.5
  9
$CHAMFERC
 40
1.0
  9
$CHAMFERD
 40
0.0
  9
$SKPOLY
 70
     0
  9
$TDCREATE
 40
2457900.659710636
  9
$TDUCREATE
 40
2457900.909710648
  9
$TDUPDATE
 40
2457900.659710636
  9
$TDUUPDATE
 40
2457900.909710648
  9
$TDINDWG
 40
0.0000000116
  9
$TDUSRTIMER
 40
0.0000000116
  9
$USRTIMER
 70
     1
  9
$ANGBASE
 50
0.0
  9
$ANGDIR
 70
     0
  9
$PDMODE
 70
     0
  9
$PDSIZE
 40
0.0
  9
$PLINEWID
 40
0.0
  9
$SPLFRAME
 70
     0
  9
$SPLINETYPE
 70
     6
  9
$SPLINESEGS
 70
     8
  9
$HANDSEED
  5
86
  9
$SURFTAB1
 70
     6
  9
$SURFTAB2
 70
     6
  9
$SURFTYPE
 70
     6
  9
$SURFU
 70
     6
  9
$SURFV
 70
     6
  9
$UCSBASE
  2

  9
$UCSNAME
  2

  9
$UCSORG
 10
0.0
 20
0.0
 30
0.0
  9
$UCSXDIR
 10
1.0
 20
0.0
 30
0.0
  9
$UCSYDIR
 10
0.0
 20
1.0
 30
0.0
  9
$UCSORTHOREF
  2

  9
$UCSORTHOVIEW
 70
     0
  9
$UCSORGTOP
 10
0.0
 20
0.0
 30
0.0
  9
$UCSORGBOTTOM
 10
0.0
 20
0.0
 30
0.0
  9
$UCSORGLEFT
 10
0.0
 20
0.0
 30
0.0
  9
$UCSORGRIGHT
 10
0.0
 20
0.0
 30
0.0
  9
$UCSORGFRONT
 10
0.0
 20
0.0
 30
0.0
  9
$UCSORGBACK
 10
0.0
 20
0.0
 30
0.0
  9
$PUCSBASE
  2

  9
$PUCSNAME
  2

  9
$PUCSORG
 10
0.0
 20
0.0
 30
0.0
  9
$PUCSXDIR
 10
1.0
 20
0.0
 30
0.0
  9
$PUCSYDIR
 10
0.0
 20
1.0
 30
0.0
  9
$PUCSORTHOREF
  2

  9
$PUCSORTHOVIEW
 70
     0
  9
$PUCSORGTOP
 10
0.0
 20
0.0
 30
0.0
  9
$PUCSORGBOTTOM
 10
0.0
 20
0.0
 30
0.0
  9
$PUCSORGLEFT
 10
0.0
 20
0.0
 30
0.0
  9
$PUCSORGRIGHT
 10
0.0
 20
0.0
 30
0.0
  9
$PUCSORGFRONT
 10
0.0
 20
0.0
 30
0.0
  9
$PUCSORGBACK
 10
0.0
 20
0.0
 30
0.0
  9
$USERI1
 70
     0
  9
$USERI2
 70
     0
  9
$USERI3
 70
     0
  9
$USERI4
 70
     0
  9
$USERI5
 70
     0
  9
$USERR1
 40
0.0
  9
$USERR2
 40
0.0
  9
$USERR3
 40
0.0
  9
$USERR4
 40
0.0
  9
$USERR5
 40
0.0
  9
$WORLDVIEW
 70
     1
  9
$SHADEDGE
 70
     3
  9
$SHADEDIF
 70
    70
  9
$TILEMODE
 70
     1
  9
$MAXACTVP
 70
    64
  9
$PINSBASE
 10
0.0
 20
0.0
 30
0.0
  9
$PLIMCHECK
 70
     0
  9
$PEXTMIN
 10
1.000000000000000E+20
 20
1.000000000000000E+20
 30
1.000000000000000E+20
  9
$PEXTMAX
 10
-1.000000000000000E+20
 20
-1.000000000000000E+20
 30
-1.000000000000000E+20
  9
$PLIMMIN
 10
0.0
 20
0.0
  9
$PLIMMAX
 10
12.0
 20
9.0
  9
$UNITMODE
 70
     0
  9
$VISRETAIN
 70
     1
  9
$PLINEGEN
 70
     0
  9
$PSLTSCALE
 70
     1
  9
$TREEDEPTH
 70
  3020
  9
$CMLSTYLE
  2
Standard
  9
$CMLJUST
 70
     0
  9
$CMLSCALE
 40
1.0
  9
$PROXYGRAPHICS
 70
     1
  9
$MEASUREMENT
 70
     0
  9
$CELWEIGHT
370
    -1
  9
$ENDCAPS
280
     0
  9
$JOINSTYLE
280
     0
  9
$LWDISPLAY
290
     1
  9
$INSUNITS
 70
     1
  9
$HYPERLINKBASE
  1

  9
$STYLESHEET
  1

  9
$XEDIT
290
     1
  9
$CEPSNTYPE
380
     0
  9
$PSTYLEMODE
290
     1
  9
$FINGERPRINTGUID
  2
{17676653-4122-1C5D-CADE-B5E83C57D827}
  9
$VERSIONGUID
  2
{FAEB1C32-E019-11D5-929B-00C0DF256EC4}
  9
$EXTNAMES
290
     1
  9
$PSVPSCALE
 40
0.0
  9
$OLESTARTUP
290
     0
  9
$SORTENTS
280
   127
  9
$INDEXCTL
280
     0
  9
$HIDETEXT
280
     1
  9
$XCLIPFRAME
280
     2
  9
$HALOGAP
280
     0
  9
$OBSCOLOR
 70
   257
  9
$OBSLTYPE
280
     0
  9
$INTERSECTIONDISPLAY
280
     0
  9
$INTERSECTIONCOLOR
 70
   257
  9
$DIMASSOC
280
     2
  9
$PROJECTNAME
  1

  9
$CAMERADISPLAY
290
     0
  9
$LENSLENGTH
 40
50.0
  9
$CAMERAHEIGHT
 40
0.0
  9
$STEPSPERSEC
 40
2.0
  9
$STEPSIZE
 40
6.0
  9
$3DDWFPREC
 40
2.0
  9
$PSOLWIDTH
 40
0.25
  9
$PSOLHEIGHT
 40
4.0
  9
$LOFTANG1
 40
1.570796326794897
  9
$LOFTANG2
 40
1.570796326794897
  9
$LOFTMAG1
 40
0.0
  9
$LOFTMAG2
 40
0.0
  9
$LOFTPARAM
 70
     7
  9
$LOFTNORMALS
280
     1
  9
$LATITUDE
 40
37.795
  9
$LONGITUDE
 40
-122.394
  9
$NORTHDIRECTION
 40
0.0
  9
$TIMEZONE
 70
 -8000
  9
$LIGHTGLYPHDISPLAY
280
     1
  9
$TILEMODELIGHTSYNCH
280
     1
  9
$CMATERIAL
347
3C
  9
$SOLIDHIST
280
     1
  9
$SHOWHIST
280
     1
  9
$DWFFRAME
280
     2
  9
$DGNFRAME
280
     2
  9
$REALWORLDSCALE
290
     1
  9
$INTERFERECOLOR
 62
   256
  9
$CSHADOW
280
     0
  9
$SHADOWPLANELOCATION
 40
0.0
  0
ENDSEC
  0
SECTION
  2
CLASSES
  0
CLASS
  1
ACDBDICTIONARYWDFLT
  2
AcDbDictionaryWithDefault
  3
ObjectDBX Classes
 90
        0
 91
        4
280
     0
281
     0
  0
CLASS
  1
VISUALSTYLE
  2
AcDbVisualStyle
  3
ObjectDBX Classes
 90
     4095
 91
        4
280
     0
281
     0
  0
CLASS
  1
MATERIAL
  2
AcDbMaterial
  3
ObjectDBX Classes
 90
     1153
 91
        4
280
     0
281
     0
  0
CLASS
  1
SUN
  2
AcDbSun
  3
SCENEOE
 90
     1024
 91
        4
280
     0
281
     0
  0
ENDSEC
  0
SECTION
  2
TABLES
  0
TABLE
  2
VPORT
  5
8
330
0
100
AcDbSymbolTable
 70
     1
  0
VPORT
  5
29
330
8
100
AcDbSymbolTableRecord
100
AcDbViewportTableRecord
  2
*Active
 70
     0
 10
0.0
 20
0.0
 11
1.0
 21
1.0
 12
0.0
 22
0.0
 13
0.0
 23
0.0
 14
0.5
 24
0.5
 15
0.5
 25
0.5
 16
0.0
 26
0.0
 36
1.0
 17
8.332112390561633
 27
-85.46421527777778
 37
0.0
 40
1.0
 41
8.0
 42
50.0
 43
0.0
 44
0.0
 50
0.0
 51
0.0
 71
     0
 72
   100
 73
     1
 74
     3
 75
     0
 76
     0
 77
     0
 78
     0
281
     0
 65
     1
110
0.0
120
0.0
130
0.0
111
1.0
121
0.0
131
0.0
112
0.0
122
1.0
132
0.0
 79
     0
146
0.0
 60
     3
 61
     5
292
     1
282
     1
141
0.0
142
0.0
 63
   250
361
3F
  0
ENDTAB
  0
TABLE
  2
LTYPE
  5
5
330
0
100
AcDbSymbolTable
 70
     1
  0
LTYPE
  5
14
330
5
100
AcDbSymbolTableRecord
100
AcDbLinetypeTableRecord
  2
ByBlock
 70
     0
  3

 72
    65
 73
     0
 40
0.0
  0
LTYPE
  5
15
330
5
100
AcDbSymbolTableRecord
100
AcDbLinetypeTableRecord
  2
ByLayer
 70
     0
  3

 72
    65
 73
     0
 40
0.0
  0
LTYPE
  5
16
330
5
100
AcDbSymbolTableRecord
100
AcDbLinetypeTableRecord
  2
Continuous
 70
     0
  3
Solid line
 72
    65
 73
     0
 40
0.0
  0
ENDTAB
  0
TABLE
  2
LAYER
  5
2
330
0
100
AcDbSymbolTable
 70
     3
  0
LAYER
  5
10
330
2
100
AcDbSymbolTableRecord
100
AcDbLayerTableRecord
  2
0
 70
     0
 62
     7
  6
Continuous
370
    -3
390
F
347
3E
  0
LAYER
  5
40
330
2
100
AcDbSymbolTableRecord
100
AcDbLayerTableRecord
  2
Layer 2
 70
     1
 62
     7
  6
Continuous
370
    -3
390
F
347
3E
  0
LAYER
  5
49
330
2
100
AcDbSymbolTableRecord
100
AcDbLayerTableRecord
  2
Layer 1
 70
     0
 62
     7
  6
Continuous
370
    -3
390
F
347
3E
  0
ENDTAB
  0
TABLE
  2
STYLE
  5
3
330
0
100
AcDbSymbolTable
 70
     1
  0
STYLE
  5
11
330
3
100
AcDbSymbolTableRecord
100
AcDbTextStyleTableRecord
  2
Standard
 70
     0
 40
0.0
 41
1.0
 50
0.0
 71
     0
 42
0.2
  3
txt
  4

  0
ENDTAB
  0
TABLE
  2
VIEW
  5
6
330
0
100
AcDbSymbolTable
 70
     0
  0
ENDTAB
  0
TABLE
  2
UCS
  5
7
330
0
100
AcDbSymbolTable
 70
     0
  0
ENDTAB
  0
TABLE
  2
APPID
  5
9
330
0
100
AcDbSymbolTable
 70
     1
  0
APPID
  5
12
330
9
100
AcDbSymbolTableRecord
100
AcDbRegAppTableRecord
  2
ACAD
 70
     0
  0
ENDTAB
  0
TABLE
  2
DIMSTYLE
  5
A
330
0
100
AcDbSymbolTable
 70
     1
100
AcDbDimStyleTable
  0
DIMSTYLE
105
27
330
A
100
AcDbSymbolTableRecord
100
AcDbDimStyleTableRecord
  2
Standard
 70
     0
178
     0
340
11
  0
ENDTAB
  0
TABLE
  2
BLOCK_RECORD
  5
1
330
0
100
AcDbSymbolTable
 70
    10
  0
BLOCK_RECORD
  5
1F
330
1
100
AcDbSymbolTableRecord
100
AcDbBlockTableRecord
  2
*Model_Space
340
22
 70
     0
280
     1
281
     0
  0
BLOCK_RECORD
  5
1B
330
1
100
AcDbSymbolTableRecord
100
AcDbBlockTableRecord
  2
*Paper_Space
340
1E
 70
     0
280
     1
281
     0
  0
BLOCK_RECORD
  5
23
330
1
100
AcDbSymbolTableRecord
100
AcDbBlockTableRecord
  2
*Paper_Space0
340
26
 70
     0
280
     1
281
     0
  0
BLOCK_RECORD
  5
4A
330
1
100
AcDbSymbolTableRecord
100
AcDbBlockTableRecord
  2
block 2
340
0
102
{BLKREFS
331
4B
102
}
 70
     0
280
     1
281
     0
  0
BLOCK_RECORD
  5
50
330
1
100
AcDbSymbolTableRecord
100
AcDbBlockTableRecord
  2
block 3
340
0
102
{BLKREFS
331
51
102
}
 70
     0
280
     1
281
     0
  0
BLOCK_RECORD
  5
54
330
1
100
AcDbSymbolTableRecord
100
AcDbBlockTableRecord
  2
block 4
340
0
102
{BLKREFS
331
55
102
}
 70
     0
280
     1
281
     0
  0
BLOCK_RECORD
  5
5A
330
1
100
AcDbSymbolTableRecord
100
AcDbBlockTableRecord
  2
block 5
340
0
102
{BLKREFS
331
5B
102
}
 70
     0
280
     1
281
     0
  0
BLOCK_RECORD
  5
60
330
1
100
AcDbSymbolTableRecord
100
AcDbBlockTableRecord
  2
block 6
340
0
102
{BLKREFS
331
61
102
}
 70
     0
280
     1
281
     0
  0
BLOCK_RECORD
  5
66
330
1
100
AcDbSymbolTableRecord
100
AcDbBlockTableRecord
  2
block 7
340
0
102
{BLKREFS
331
67
102
}
 70
     0
280
     1
281
     0
  0
BLOCK_RECORD
  5
6C
330
1
100
AcDbSymbolTableRecord
100
AcDbBlockTableRecord
  2
block 8
340
0
102
{BLKREFS
331
6D
102
}
 70
     0
280
     1
281
     0
  0
BLOCK_RECORD
  5
72
330
1
100
AcDbSymbolTableRecord
100
AcDbBlockTableRecord
  2
block 9
340
0
102
{BLKREFS
331
73
102
}
 70
     0
280
     1
281
     0
  0
BLOCK_RECORD
  5
7C
330
1
100
AcDbSymbolTableRecord
100
AcDbBlockTableRecord
  2
block 10
340
0
102
{BLKREFS
331
7D
102
}
 70
     0
280
     1
281
     0
  0
ENDTAB
  0
ENDSEC
  0
SECTION
  2
BLOCKS
  0
BLOCK
  5
20
330
1F
100
AcDbEntity
  8
0
100
AcDbBlockBegin
  2
*Model_Space
 70
     0
 10
0.0
 20
0.0
 30
0.0
  3
*Model_Space
  1

  0
ENDBLK
  5
21
330
1F
100
AcDbEntity
  8
0
100
AcDbBlockEnd
  0
BLOCK
  5
1C
330
1B
100
AcDbEntity
 67
     1
  8
0
100
AcDbBlockBegin
  2
*Paper_Space
 70
     0
 10
0.0
 20
0.0
 30
0.0
  3
*Paper_Space
  1

  0
ENDBLK
  5
1D
330
1B
100
AcDbEntity
 67
     1
  8
0
100
AcDbBlockEnd
  0
BLOCK
  5
24
330
23
100
AcDbEntity
  8
0
100
AcDbBlockBegin
  2
*Paper_Space0
 70
     0
 10
0.0
 20
0.0
 30
0.0
  3
*Paper_Space0
  1

  0
ENDBLK
  5
25
330
23
100
AcDbEntity
  8
0
100
AcDbBlockEnd
  0
BLOCK
  5
4C
330
4A
100
AcDbEntity
  8
0
100
AcDbBlockBegin
  2
block 2
 70
     0
 10
0.0
 20
0.0
 30
0.0
  3
block 2
  1

  0
SPLINE
  5
4E
330
4A
100
AcDbEntity
  8
Layer 1
370
     0
100
AcDbSpline
210
0.0
220
0.0
230
1.0
 70
    11
 71
     3
 72
    47
 73
    43
 74
     0
 42
0.0000000001
 43
0.0000000001
 12
1.0
 22
0.0
 32
0.0
 13
1.0
 23
0.0
 33
0.0
 40
0.0
 40
0.0
 40
0.0
 40
0.0
 40
1.0
 40
1.0
 40
1.0
 40
2.0
 40
2.0
 40
2.0
 40
3.0
 40
3.0
 40
3.0
 40
4.0
 40
4.0
 40
4.0
 40
5.0
 40
5.0
 40
5.0
 40
6.0
 40
6.0
 40
6.0
 40
7.0
 40
7.0
 40
7.0
 40
8.0
 40
8.0
 40
8.0
 40
9.0
 40
9.0
 40
9.0
 40
10.0
 40
10.0
 40
10.0
 40
11.0
 40
11.0
 40
11.0
 40
12.0
 40
12.0
 40
12.0
 40
13.0
 40
13.0
 40
13.0
 40
14.0
 40
14.0
 40
14.0
 40
14.0
 10
12.14011906766685
 20
-84.96474833719245
 30
0.0
 10
12.14011906766685
 20
-84.96474833719245
 30
0.0
 10
12.05632150904595
 20
-85.06051550266963
 30
0.0
 10
12.05632150904595
 20
-85.06051550266963
 30
0.0
 10
12.05632150904595
 20
-85.06051550266963
 30
0.0
 10
11.96149982806246
 20
-85.06051550266963
 30
0.0
 10
11.96149982806246
 20
-85.06051550266963
 30
0.0
 10
11.96149982806246
 20
-85.06051550266963
 30
0.0
 10
11.92929561576606
 20
-84.96474833719245
 30
0.0
 10
11.92929561576606
 20
-84.96474833719245
 30
0.0
 10
11.92929561576606
 20
-84.96474833719245
 30
0.0
 10
11.73943160638181
 20
-84.96474833719245
 30
0.0
 10
11.73943160638181
 20
-84.96474833719245
 30
0.0
 10
11.73943160638181
 20
-84.96474833719245
 30
0.0
 10
11.66527139079526
 20
-85.06051550266963
 30
0.0
 10
11.66527139079526
 20
-85.06051550266963
 30
0.0
 10
11.66527139079526
 20
-85.06051550266963
 30
0.0
 10
11.57632573612531
 20
-85.06051550266963
 30
0.0
 10
11.57632573612531
 20
-85.06051550266963
 30
0.0
 10
11.57632573612531
 20
-85.06051550266963
 30
0.0
 10
11.54511856145748
 20
-84.96474833719245
 30
0.0
 10
11.54511856145748
 20
-84.96474833719245
 30
0.0
 10
11.54511856145748
 20
-84.96474833719245
 30
0.0
 10
11.41111134265225
 20
-84.96474833719245
 30
0.0
 10
11.41111134265225
 20
-84.96474833719245
 30
0.0
 10
11.41111134265225
 20
-84.96474833719245
 30
0.0
 10
11.36550202661862
 20
-85.15614244361993
 30
0.0
 10
11.36550202661862
 20
-85.15614244361993
 30
0.0
 10
11.36393378029521
 20
-85.16270825087817
 30
0.0
 10
11.36794358302481
 20
-85.1679841987017
 30
0.0
 10
11.37440215959934
 20
-85.16858530825439
 30
0.0
 10
11.37479396341452
 20
-85.16862036438611
 30
0.0
 10
12.2195222370706
 20
-85.16862036438611
 30
0.0
 10
12.21993156896156
 20
-85.16858530825439
 30
0.0
 10
12.22658089229829
 20
-85.16799244720328
 30
0.0
 10
12.23296110827096
 20
-85.16284950646774
 30
0.0
 10
12.23463555409181
 20
-85.15639814716893
 30
0.0
 10
12.23466029959657
 20
-85.15630122727535
 30
0.0
 10
12.28003118254115
 20
-84.96474833719245
 30
0.0
 10
12.28003118254115
 20
-84.96474833719245
 30
0.0
 10
12.28003118254115
 20
-84.96474833719245
 30
0.0
 10
12.14011906766685
 20
-84.96474833719245
 30
0.0
 10
12.14011906766685
 20
-84.96474833719245
 30
0.0
  0
HATCH
  5
4F
330
4A
100
AcDbEntity
  8
Layer 1
 62
   250
420
  4078911
100
AcDbHatch
 10
0.0
 20
0.0
 30
0.0
210
0.0
220
0.0
230
1.0
  2
SOLID
 70
     1
 71
     0
 91
        1
 92
        1
 93
        1
 72
     4
 94
        3
 73
     0
 74
     1
 95
       47
 96
       43
 40
0.0
 40
0.0
 40
0.0
 40
0.0
 40
1.0
 40
1.0
 40
1.0
 40
2.0
 40
2.0
 40
2.0
 40
3.0
 40
3.0
 40
3.0
 40
4.0
 40
4.0
 40
4.0
 40
5.0
 40
5.0
 40
5.0
 40
6.0
 40
6.0
 40
6.0
 40
7.0
 40
7.0
 40
7.0
 40
8.0
 40
8.0
 40
8.0
 40
9.0
 40
9.0
 40
9.0
 40
10.0
 40
10.0
 40
10.0
 40
11.0
 40
11.0
 40
11.0
 40
12.0
 40
12.0
 40
12.0
 40
13.0
 40
13.0
 40
13.0
 40
14.0
 40
14.0
 40
14.0
 40
14.0
 10
12.14011906766685
 20
-84.96474833719245
 10
12.14011906766685
 20
-84.96474833719245
 10
12.05632150904595
 20
-85.06051550266963
 10
12.05632150904595
 20
-85.06051550266963
 10
12.05632150904595
 20
-85.06051550266963
 10
11.96149982806246
 20
-85.06051550266963
 10
11.96149982806246
 20
-85.06051550266963
 10
11.96149982806246
 20
-85.06051550266963
 10
11.92929561576606
 20
-84.96474833719245
 10
11.92929561576606
 20
-84.96474833719245
 10
11.92929561576606
 20
-84.96474833719245
 10
11.73943160638181
 20
-84.96474833719245
 10
11.73943160638181
 20
-84.96474833719245
 10
11.73943160638181
 20
-84.96474833719245
 10
11.66527139079526
 20
-85.06051550266963
 10
11.66527139079526
 20
-85.06051550266963
 10
11.66527139079526
 20
-85.06051550266963
 10
11.57632573612531
 20
-85.06051550266963
 10
11.57632573612531
 20
-85.06051550266963
 10
11.57632573612531
 20
-85.06051550266963
 10
11.54511856145748
 20
-84.96474833719245
 10
11.54511856145748
 20
-84.96474833719245
 10
11.54511856145748
 20
-84.96474833719245
 10
11.41111134265225
 20
-84.96474833719245
 10
11.41111134265225
 20
-84.96474833719245
 10
11.41111134265225
 20
-84.96474833719245
 10
11.36550202661862
 20
-85.15614244361993
 10
11.36550202661862
 20
-85.15614244361993
 10
11.36393378029521
 20
-85.16270825087817
 10
11.36794358302481
 20
-85.1679841987017
 10
11.37440215959934
 20
-85.16858530825439
 10
11.37479396341452
 20
-85.16862036438611
 10
12.2195222370706
 20
-85.16862036438611
 10
12.21993156896156
 20
-85.16858530825439
 10
12.22658089229829
 20
-85.16799244720328
 10
12.23296110827096
 20
-85.16284950646774
 10
12.23463555409181
 20
-85.15639814716893
 10
12.23466029959657
 20
-85.15630122727535
 10
12.28003118254115
 20
-84.96474833719245
 10
12.28003118254115
 20
-84.96474833719245
 10
12.28003118254115
 20
-84.96474833719245
 10
12.14011906766685
 20
-84.96474833719245
 10
12.14011906766685
 20
-84.96474833719245
 97
        0
 97
        0
 75
     2
 76
     1
 98
        0
  0
INSERT
  5
51
330
4A
100
AcDbEntity
  8
Layer 1
100
AcDbBlockReference
  2
block 3
 10
0.0
 20
0.0
 30
0.0
  0
ENDBLK
  5
4D
330
4A
100
AcDbEntity
  8
0
100
AcDbBlockEnd
  0
BLOCK
  5
52
330
50
100
AcDbEntity
  8
0
100
AcDbBlockBegin
  2
block 3
 70
     0
 10
0.0
 20
0.0
 30
0.0
  3
block 3
  1

  0
INSERT
  5
55
330
50
100
AcDbEntity
  8
Layer 1
100
AcDbBlockReference
  2
block 4
 10
0.0
 20
0.0
 30
0.0
  0
INSERT
  5
5B
330
50
100
AcDbEntity
  8
Layer 1
100
AcDbBlockReference
  2
block 5
 10
0.0
 20
0.0
 30
0.0
  0
INSERT
  5
61
330
50
100
AcDbEntity
  8
Layer 1
100
AcDbBlockReference
  2
block 6
 10
0.0
 20
0.0
 30
0.0
  0
INSERT
  5
67
330
50
100
AcDbEntity
  8
Layer 1
100
AcDbBlockReference
  2
block 7
 10
0.0
 20
0.0
 30
0.0
  0
INSERT
  5
6D
330
50
100
AcDbEntity
  8
Layer 1
100
AcDbBlockReference
  2
block 8
 10
0.0
 20
0.0
 30
0.0
  0
INSERT
  5
73
330
50
100
AcDbEntity
  8
Layer 1
100
AcDbBlockReference
  2
block 9
 10
0.0
 20
0.0
 30
0.0
  0
SPLINE
  5
78
330
50
100
AcDbEntity
  8
Layer 1
370
     0
100
AcDbSpline
210
0.0
220
0.0
230
1.0
 70
    11
 71
     3
 72
    47
 73
    43
 74
     0
 42
0.0000000001
 43
0.0000000001
 12
1.0
 22
0.0
 32
0.0
 13
1.0
 23
0.0
 33
0.0
 40
0.0
 40
0.0
 40
0.0
 40
0.0
 40
1.0
 40
1.0
 40
1.0
 40
2.0
 40
2.0
 40
2.0
 40
3.0
 40
3.0
 40
3.0
 40
4.0
 40
4.0
 40
4.0
 40
5.0
 40
5.0
 40
5.0
 40
6.0
 40
6.0
 40
6.0
 40
7.0
 40
7.0
 40
7.0
 40
8.0
 40
8.0
 40
8.0
 40
9.0
 40
9.0
 40
9.0
 40
10.0
 40
10.0
 40
10.0
 40
11.0
 40
11.0
 40
11.0
 40
12.0
 40
12.0
 40
12.0
 40
13.0
 40
13.0
 40
13.0
 40
14.0
 40
14.0
 40
14.0
 40
14.0
 10
12.14003761371373
 20
-84.96421527777781
 30
0.0
 10
12.14003761371373
 20
-84.96421527777781
 30
0.0
 10
12.05619056408333
 20
-85.06004018276603
 30
0.0
 10
12.05619056408333
 20
-85.06004018276603
 30
0.0
 10
12.05619056408333
 20
-85.06004018276603
 30
0.0
 10
11.9613121746515
 20
-85.06004018276603
 30
0.0
 10
11.9613121746515
 20
-85.06004018276603
 30
0.0
 10
11.9613121746515
 20
-85.06004018276603
 30
0.0
 10
11.92908837216385
 20
-84.96421527777781
 30
0.0
 10
11.92908837216385
 20
-84.96421527777781
 30
0.0
 10
11.92908837216385
 20
-84.96421527777781
 30
0.0
 10
11.73911300800825
 20
-84.96421527777781
 30
0.0
 10
11.73911300800825
 20
-84.96421527777781
 30
0.0
 10
11.73911300800825
 20
-84.96421527777781
 30
0.0
 10
11.6649084567257
 20
-85.06004018276603
 30
0.0
 10
11.6649084567257
 20
-85.06004018276603
 30
0.0
 10
11.6649084567257
 20
-85.06004018276603
 30
0.0
 10
11.57591021785818
 20
-85.06004018276603
 30
0.0
 10
11.57591021785818
 20
-85.06004018276603
 30
0.0
 10
11.57591021785818
 20
-85.06004018276603
 30
0.0
 10
11.54468551512448
 20
-84.96421527777781
 30
0.0
 10
11.54468551512448
 20
-84.96421527777781
 30
0.0
 10
11.54468551512448
 20
-84.96421527777781
 30
0.0
 10
11.41059761468371
 20
-84.96421527777781
 30
0.0
 10
11.41059761468371
 20
-84.96421527777781
 30
0.0
 10
11.41059761468371
 20
-84.96421527777781
 30
0.0
 10
11.3649627808414
 20
-85.15572280110202
 30
0.0
 10
11.3649627808414
 20
-85.15572280110202
 30
0.0
 10
11.36339376100798
 20
-85.16229273261102
 30
0.0
 10
11.36740536831027
 20
-85.16757177362265
 30
0.0
 10
11.3738670380728
 20
-85.16817288317537
 30
0.0
 10
11.37425987295066
 20
-85.1682079393071
 30
0.0
 10
12.2194861498762
 20
-85.1682079393071
 30
0.0
 10
12.21989754389253
 20
-85.16817288317537
 30
0.0
 10
12.22654892935467
 20
-85.16758002212426
 30
0.0
 10
12.2329332695781
 20
-85.16243398820059
 30
0.0
 10
12.23460874646169
 20
-85.15597953571371
 30
0.0
 10
12.23463349196643
 20
-85.15588158475745
 30
0.0
 10
12.28003221360384
 20
-84.96421527777781
 30
0.0
 10
12.28003221360384
 20
-84.96421527777781
 30
0.0
 10
12.28003221360384
 20
-84.96421527777781
 30
0.0
 10
12.14003761371373
 20
-84.96421527777781
 30
0.0
 10
12.14003761371373
 20
-84.96421527777781
 30
0.0
  0
HATCH
  5
79
330
50
100
AcDbEntity
  8
Layer 1
 62
   250
420
  4078911
100
AcDbHatch
 10
0.0
 20
0.0
 30
0.0
210
0.0
220
0.0
230
1.0
  2
SOLID
 70
     1
 71
     0
 91
        1
 92
        1
 93
        1
 72
     4
 94
        3
 73
     0
 74
     1
 95
       47
 96
       43
 40
0.0
 40
0.0
 40
0.0
 40
0.0
 40
1.0
 40
1.0
 40
1.0
 40
2.0
 40
2.0
 40
2.0
 40
3.0
 40
3.0
 40
3.0
 40
4.0
 40
4.0
 40
4.0
 40
5.0
 40
5.0
 40
5.0
 40
6.0
 40
6.0
 40
6.0
 40
7.0
 40
7.0
 40
7.0
 40
8.0
 40
8.0
 40
8.0
 40
9.0
 40
9.0
 40
9.0
 40
10.0
 40
10.0
 40
10.0
 40
11.0
 40
11.0
 40
11.0
 40
12.0
 40
12.0
 40
12.0
 40
13.0
 40
13.0
 40
13.0
 40
14.0
 40
14.0
 40
14.0
 40
14.0
 10
12.14003761371373
 20
-84.96421527777781
 10
12.14003761371373
 20
-84.96421527777781
 10
12.05619056408333
 20
-85.06004018276603
 10
12.05619056408333
 20
-85.06004018276603
 10
12.05619056408333
 20
-85.06004018276603
 10
11.9613121746515
 20
-85.06004018276603
 10
11.9613121746515
 20
-85.06004018276603
 10
11.9613121746515
 20
-85.06004018276603
 10
11.92908837216385
 20
-84.96421527777781
 10
11.92908837216385
 20
-84.96421527777781
 10
11.92908837216385
 20
-84.96421527777781
 10
11.73911300800825
 20
-84.96421527777781
 10
11.73911300800825
 20
-84.96421527777781
 10
11.73911300800825
 20
-84.96421527777781
 10
11.6649084567257
 20
-85.06004018276603
 10
11.6649084567257
 20
-85.06004018276603
 10
11.6649084567257
 20
-85.06004018276603
 10
11.57591021785818
 20
-85.06004018276603
 10
11.57591021785818
 20
-85.06004018276603
 10
11.57591021785818
 20
-85.06004018276603
 10
11.54468551512448
 20
-84.96421527777781
 10
11.54468551512448
 20
-84.96421527777781
 10
11.54468551512448
 20
-84.96421527777781
 10
11.41059761468371
 20
-84.96421527777781
 10
11.41059761468371
 20
-84.96421527777781
 10
11.41059761468371
 20
-84.96421527777781
 10
11.3649627808414
 20
-85.15572280110202
 10
11.3649627808414
 20
-85.15572280110202
 10
11.36339376100798
 20
-85.16229273261102
 10
11.36740536831027
 20
-85.16757177362265
 10
11.3738670380728
 20
-85.16817288317537
 10
11.37425987295066
 20
-85.1682079393071
 10
12.2194861498762
 20
-85.1682079393071
 10
12.21989754389253
 20
-85.16817288317537
 10
12.22654892935467
 20
-85.16758002212426
 10
12.2329332695781
 20
-85.16243398820059
 10
12.23460874646169
 20
-85.15597953571371
 10
12.23463349196643
 20
-85.15588158475745
 10
12.28003221360384
 20
-84.96421527777781
 10
12.28003221360384
 20
-84.96421527777781
 10
12.28003221360384
 20
-84.96421527777781
 10
12.14003761371373
 20
-84.96421527777781
 10
12.14003761371373
 20
-84.96421527777781
 97
        0
 97
        0
 75
     2
 76
     1
 98
        0
  0
SPLINE
  5
7A
330
50
100
AcDbEntity
  8
Layer 1
370
     0
100
AcDbSpline
210
0.0
220
0.0
230
1.0
 70
    11
 71
     3
 72
    74
 73
    70
 74
     0
 42
0.0000000001
 43
0.0000000001
 12
1.0
 22
0.0
 32
0.0
 13
1.0
 23
0.0
 33
0.0
 40
0.0
 40
0.0
 40
0.0
 40
0.0
 40
1.0
 40
1.0
 40
1.0
 40
2.0
 40
2.0
 40
2.0
 40
3.0
 40
3.0
 40
3.0
 40
4.0
 40
4.0
 40
4.0
 40
5.0
 40
5.0
 40
5.0
 40
6.0
 40
6.0
 40
6.0
 40
7.0
 40
7.0
 40
7.0
 40
8.0
 40
8.0
 40
8.0
 40
9.0
 40
9.0
 40
9.0
 40
10.0
 40
10.0
 40
10.0
 40
11.0
 40
11.0
 40
11.0
 40
12.0
 40
12.0
 40
12.0
 40
13.0
 40
13.0
 40
13.0
 40
14.0
 40
14.0
 40
14.0
 40
15.0
 40
15.0
 40
15.0
 40
16.0
 40
16.0
 40
16.0
 40
17.0
 40
17.0
 40
17.0
 40
18.0
 40
18.0
 40
18.0
 40
19.0
 40
19.0
 40
19.0
 40
20.0
 40
20.0
 40
20.0
 40
21.0
 40
21.0
 40
21.0
 40
22.0
 40
22.0
 40
22.0
 40
23.0
 40
23.0
 40
23.0
 40
23.0
 10
7.277693219525455
 20
-85.24663366127356
 30
0.0
 10
7.277693219525455
 20
-85.24663366127356
 30
0.0
 10
7.209761655411107
 20
-85.24555104544108
 30
0.0
 10
7.209761655411107
 20
-85.24555104544108
 30
0.0
 10
7.20159563905252
 20
-85.24542010047848
 30
0.0
 10
7.188234097892038
 20
-85.24531390102062
 30
0.0
 10
7.180068081533451
 20
-85.24531390102062
 30
0.0
 10
7.180068081533451
 20
-85.24531390102062
 30
0.0
 10
6.461083335165186
 20
-85.24531390102062
 30
0.0
 10
6.461083335165186
 20
-85.24531390102062
 30
0.0
 10
6.452917318806599
 20
-85.24531390102062
 30
0.0
 10
6.444645102992846
 20
-85.25180340963925
 30
0.0
 10
6.442700518794317
 20
-85.2597333128464
 30
0.0
 10
6.442700518794317
 20
-85.2597333128464
 30
0.0
 10
6.402289048446025
 20
-85.4245723994975
 30
0.0
 10
6.402289048446025
 20
-85.4245723994975
 30
0.0
 10
6.402289048446025
 20
-85.4245723994975
 30
0.0
 10
6.961470422415131
 20
-85.42379704034892
 30
0.0
 10
6.961470422415131
 20
-85.42379704034892
 30
0.0
 10
6.969636438773717
 20
-85.42379704034892
 30
0.0
 10
6.974751540687217
 20
-85.43029170428103
 30
0.0
 10
6.972836857306169
 20
-85.43823088705244
 30
0.0
 10
6.972836857306169
 20
-85.43823088705244
 30
0.0
 10
6.924983176594701
 20
-85.63661972282034
 30
0.0
 10
6.924983176594701
 20
-85.63661972282034
 30
0.0
 10
6.923067462150988
 20
-85.64455375027823
 30
0.0
 10
6.916478971679857
 20
-85.65545826936793
 30
0.0
 10
6.910340024533512
 20
-85.66084041664931
 30
0.0
 10
6.910340024533512
 20
-85.66084041664931
 30
0.0
 10
6.781036517021144
 20
-85.77429236951548
 30
0.0
 10
6.781036517021144
 20
-85.77429236951548
 30
0.0
 10
6.774899632000142
 20
-85.77967967211035
 30
0.0
 10
6.763196039615498
 20
-85.78408437195445
 30
0.0
 10
6.755028992194247
 20
-85.78408437195445
 30
0.0
 10
6.755028992194247
 20
-85.78408437195445
 30
0.0
 10
6.62872292181286
 20
-85.78408437195445
 30
0.0
 10
6.62872292181286
 20
-85.78408437195445
 30
0.0
 10
6.620556905247983
 20
-85.78408437195445
 30
0.0
 10
6.615463455521901
 20
-85.77759486333584
 30
0.0
 10
6.617403777859888
 20
-85.7696659911914
 30
0.0
 10
6.617403777859888
 20
-85.7696659911914
 30
0.0
 10
6.686999477126101
 20
-85.48517207848542
 30
0.0
 10
6.686999477126101
 20
-85.48517207848542
 30
0.0
 10
6.686999477126101
 20
-85.48517207848542
 30
0.0
 10
6.390529778677116
 20
-85.4725405293773
 30
0.0
 10
6.390529778677116
 20
-85.4725405293773
 30
0.0
 10
6.390529778677116
 20
-85.4725405293773
 30
0.0
 10
6.274205288074086
 20
-85.94702114792855
 30
0.0
 10
6.274205288074086
 20
-85.94702114792855
 30
0.0
 10
6.272261734938233
 20
-85.95495517538647
 30
0.0
 10
6.277352091347628
 20
-85.9614395286916
 30
0.0
 10
6.285518107706214
 20
-85.9614395286916
 30
0.0
 10
6.285518107706214
 20
-85.9614395286916
 30
0.0
 10
6.908462459408636
 20
-85.9614395286916
 30
0.0
 10
6.908462459408636
 20
-85.9614395286916
 30
0.0
 10
6.916628475767222
 20
-85.9614395286916
 30
0.0
 10
6.92834444090392
 20
-85.95704926372527
 30
0.0
 10
6.934497822927672
 20
-85.95168258238434
 30
0.0
 10
6.934497822927672
 20
-85.95168258238434
 30
0.0
 10
7.159957355490014
 20
-85.75502593194838
 30
0.0
 10
7.159957355490014
 20
-85.75502593194838
 30
0.0
 10
7.166110586148837
 20
-85.74965925060746
 30
0.0
 10
7.172727946374771
 20
-85.73877432170903
 30
0.0
 10
7.174659126758557
 20
-85.73084544956461
 30
0.0
 10
7.174659126758557
 20
-85.73084544956461
 30
0.0
 10
7.289024598285664
 20
-85.26129846602132
 30
0.0
 10
7.289024598285664
 20
-85.26129846602132
 30
0.0
 10
7.290957840794804
 20
-85.2533644385634
 30
0.0
 10
7.2858571737587
 20
-85.24676357517343
 30
0.0
 10
7.277693219525455
 20
-85.24663366127356
 30
0.0
  0
HATCH
  5
7B
330
50
100
AcDbEntity
  8
Layer 1
 62
   250
420
  4078911
100
AcDbHatch
 10
0.0
 20
0.0
 30
0.0
210
0.0
220
0.0
230
1.0
  2
SOLID
 70
     1
 71
     0
 91
        1
 92
        1
 93
        1
 72
     4
 94
        3
 73
     0
 74
     1
 95
       74
 96
       70
 40
0.0
 40
0.0
 40
0.0
 40
0.0
 40
1.0
 40
1.0
 40
1.0
 40
2.0
 40
2.0
 40
2.0
 40
3.0
 40
3.0
 40
3.0
 40
4.0
 40
4.0
 40
4.0
 40
5.0
 40
5.0
 40
5.0
 40
6.0
 40
6.0
 40
6.0
 40
7.0
 40
7.0
 40
7.0
 40
8.0
 40
8.0
 40
8.0
 40
9.0
 40
9.0
 40
9.0
 40
10.0
 40
10.0
 40
10.0
 40
11.0
 40
11.0
 40
11.0
 40
12.0
 40
12.0
 40
12.0
 40
13.0
 40
13.0
 40
13.0
 40
14.0
 40
14.0
 40
14.0
 40
15.0
 40
15.0
 40
15.0
 40
16.0
 40
16.0
 40
16.0
 40
17.0
 40
17.0
 40
17.0
 40
18.0
 40
18.0
 40
18.0
 40
19.0
 40
19.0
 40
19.0
 40
20.0
 40
20.0
 40
20.0
 40
21.0
 40
21.0
 40
21.0
 40
22.0
 40
22.0
 40
22.0
 40
23.0
 40
23.0
 40
23.0
 40
23.0
 10
7.277693219525455
 20
-85.24663366127356
 10
7.277693219525455
 20
-85.24663366127356
 10
7.209761655411107
 20
-85.24555104544108
 10
7.209761655411107
 20
-85.24555104544108
 10
7.20159563905252
 20
-85.24542010047848
 10
7.188234097892038
 20
-85.24531390102062
 10
7.180068081533451
 20
-85.24531390102062
 10
7.180068081533451
 20
-85.24531390102062
 10
6.461083335165186
 20
-85.24531390102062
 10
6.461083335165186
 20
-85.24531390102062
 10
6.452917318806599
 20
-85.24531390102062
 10
6.444645102992846
 20
-85.25180340963925
 10
6.442700518794317
 20
-85.2597333128464
 10
6.442700518794317
 20
-85.2597333128464
 10
6.402289048446025
 20
-85.4245723994975
 10
6.402289048446025
 20
-85.4245723994975
 10
6.402289048446025
 20
-85.4245723994975
 10
6.961470422415131
 20
-85.42379704034892
 10
6.961470422415131
 20
-85.42379704034892
 10
6.969636438773717
 20
-85.42379704034892
 10
6.974751540687217
 20
-85.43029170428103
 10
6.972836857306169
 20
-85.43823088705244
 10
6.972836857306169
 20
-85.43823088705244
 10
6.924983176594701
 20
-85.63661972282034
 10
6.924983176594701
 20
-85.63661972282034
 10
6.923067462150988
 20
-85.64455375027823
 10
6.916478971679857
 20
-85.65545826936793
 10
6.910340024533512
 20
-85.66084041664931
 10
6.910340024533512
 20
-85.66084041664931
 10
6.781036517021144
 20
-85.77429236951548
 10
6.781036517021144
 20
-85.77429236951548
 10
6.774899632000142
 20
-85.77967967211035
 10
6.763196039615498
 20
-85.78408437195445
 10
6.755028992194247
 20
-85.78408437195445
 10
6.755028992194247
 20
-85.78408437195445
 10
6.62872292181286
 20
-85.78408437195445
 10
6.62872292181286
 20
-85.78408437195445
 10
6.620556905247983
 20
-85.78408437195445
 10
6.615463455521901
 20
-85.77759486333584
 10
6.617403777859888
 20
-85.7696659911914
 10
6.617403777859888
 20
-85.7696659911914
 10
6.686999477126101
 20
-85.48517207848542
 10
6.686999477126101
 20
-85.48517207848542
 10
6.686999477126101
 20
-85.48517207848542
 10
6.390529778677116
 20
-85.4725405293773
 10
6.390529778677116
 20
-85.4725405293773
 10
6.390529778677116
 20
-85.4725405293773
 10
6.274205288074086
 20
-85.94702114792855
 10
6.274205288074086
 20
-85.94702114792855
 10
6.272261734938233
 20
-85.95495517538647
 10
6.277352091347628
 20
-85.9614395286916
 10
6.285518107706214
 20
-85.9614395286916
 10
6.285518107706214
 20
-85.9614395286916
 10
6.908462459408636
 20
-85.9614395286916
 10
6.908462459408636
 20
-85.9614395286916
 10
6.916628475767222
 20
-85.9614395286916
 10
6.92834444090392
 20
-85.95704926372527
 10
6.934497822927672
 20
-85.95168258238434
 10
6.934497822927672
 20
-85.95168258238434
 10
7.159957355490014
 20
-85.75502593194838
 10
7.159957355490014
 20
-85.75502593194838
 10
7.166110586148837
 20
-85.74965925060746
 10
7.172727946374771
 20
-85.73877432170903
 10
7.174659126758557
 20
-85.73084544956461
 10
7.174659126758557
 20
-85.73084544956461
 10
7.289024598285664
 20
-85.26129846602132
 10
7.289024598285664
 20
-85.26129846602132
 10
7.290957840794804
 20
-85.2533644385634
 10
7.2858571737587
 20
-85.24676357517343
 10
7.277693219525455
 20
-85.24663366127356
 97
        0
 97
        0
 75
     2
 76
     1
 98
        0
  0
INSERT
  5
7D
330
50
100
AcDbEntity
  8
Layer 1
100
AcDbBlockReference
  2
block 10
 10
0.0
 20
0.0
 30
0.0
  0
ENDBLK
  5
53
330
50
100
AcDbEntity
  8
0
100
AcDbBlockEnd
  0
BLOCK
  5
56
330
54
100
AcDbEntity
  8
0
100
AcDbBlockBegin
  2
block 4
 70
     0
 10
0.0
 20
0.0
 30
0.0
  3
block 4
  1

  0
SPLINE
  5
58
330
54
100
AcDbEntity
  8
Layer 1
370
     0
100
AcDbSpline
210
0.0
220
0.0
230
1.0
 70
    11
 71
     3
 72
    41
 73
    37
 74
     0
 42
0.0000000001
 43
0.0000000001
 12
1.0
 22
0.0
 32
0.0
 13
1.0
 23
0.0
 33
0.0
 40
0.0
 40
0.0
 40
0.0
 40
0.0
 40
1.0
 40
1.0
 40
1.0
 40
2.0
 40
2.0
 40
2.0
 40
3.0
 40
3.0
 40
3.0
 40
4.0
 40
4.0
 40
4.0
 40
5.0
 40
5.0
 40
5.0
 40
6.0
 40
6.0
 40
6.0
 40
7.0
 40
7.0
 40
7.0
 40
8.0
 40
8.0
 40
8.0
 40
9.0
 40
9.0
 40
9.0
 40
10.0
 40
10.0
 40
10.0
 40
11.0
 40
11.0
 40
11.0
 40
12.0
 40
12.0
 40
12.0
 40
12.0
 10
4.729984787035455
 20
-85.76322700464497
 30
0.0
 10
4.728046389212964
 20
-85.77116000104022
 30
0.0
 10
4.733141900935707
 20
-85.77765054072152
 30
0.0
 10
4.741307917294294
 20
-85.77765054072152
 30
0.0
 10
4.741307917294294
 20
-85.77765054072152
 30
0.0
 10
5.197941860077486
 20
-85.77765054072152
 30
0.0
 10
5.197941860077486
 20
-85.77765054072152
 30
0.0
 10
5.206107876436072
 20
-85.77765054072152
 30
0.0
 10
5.211278655733836
 20
-85.78415860846869
 30
0.0
 10
5.209433053551783
 20
-85.79211325718053
 30
0.0
 10
5.209433053551783
 20
-85.79211325718053
 30
0.0
 10
5.173139647513608
 20
-85.948536810094
 30
0.0
 10
5.173139647513608
 20
-85.948536810094
 30
0.0
 10
5.171294045331554
 20
-85.95649145880586
 30
0.0
 10
5.163103283468849
 20
-85.96300055761573
 30
0.0
 10
5.154937267110262
 20
-85.96300055761573
 30
0.0
 10
5.154937267110262
 20
-85.96300055761573
 30
0.0
 10
4.395973065653063
 20
-85.96300055761573
 30
0.0
 10
4.395973065653063
 20
-85.96300055761573
 30
0.0
 10
4.387807049294477
 20
-85.96300055761573
 30
0.0
 10
4.382684729942272
 20
-85.95650383155824
 30
0.0
 10
4.384591164821952
 20
-85.94856361772412
 30
0.0
 10
4.384591164821952
 20
-85.94856361772412
 30
0.0
 10
4.549599341587041
 20
-85.26130877664829
 30
0.0
 10
4.549599341587041
 20
-85.26130877664829
 30
0.0
 10
4.551505776466708
 20
-85.25336856281417
 30
0.0
 10
4.559747060400329
 20
-85.2468718367567
 30
0.0
 10
4.567913076758916
 20
-85.2468718367567
 30
0.0
 10
4.567913076758916
 20
-85.2468718367567
 30
0.0
 10
4.841304499430836
 20
-85.2468718367567
 30
0.0
 10
4.841304499430836
 20
-85.2468718367567
 30
0.0
 10
4.849470515789423
 20
-85.2468718367567
 30
0.0
 10
4.854564996449501
 20
-85.25336237643798
 30
0.0
 10
4.852627629689676
 20
-85.26129434177052
 30
0.0
 10
4.852627629689676
 20
-85.26129434177052
 30
0.0
 10
4.729984787035455
 20
-85.76322700464497
 30
0.0
 10
4.729984787035455
 20
-85.76322700464497
 30
0.0
  0
HATCH
  5
59
330
54
100
AcDbEntity
  8
Layer 1
 62
   250
420
  4078911
100
AcDbHatch
 10
0.0
 20
0.0
 30
0.0
210
0.0
220
0.0
230
1.0
  2
SOLID
 70
     1
 71
     0
 91
        1
 92
        1
 93
        1
 72
     4
 94
        3
 73
     0
 74
     1
 95
       41
 96
       37
 40
0.0
 40
0.0
 40
0.0
 40
0.0
 40
1.0
 40
1.0
 40
1.0
 40
2.0
 40
2.0
 40
2.0
 40
3.0
 40
3.0
 40
3.0
 40
4.0
 40
4.0
 40
4.0
 40
5.0
 40
5.0
 40
5.0
 40
6.0
 40
6.0
 40
6.0
 40
7.0
 40
7.0
 40
7.0
 40
8.0
 40
8.0
 40
8.0
 40
9.0
 40
9.0
 40
9.0
 40
10.0
 40
10.0
 40
10.0
 40
11.0
 40
11.0
 40
11.0
 40
12.0
 40
12.0
 40
12.0
 40
12.0
 10
4.729984787035455
 20
-85.76322700464497
 10
4.728046389212964
 20
-85.77116000104022
 10
4.733141900935707
 20
-85.77765054072152
 10
4.741307917294294
 20
-85.77765054072152
 10
4.741307917294294
 20
-85.77765054072152
 10
5.197941860077486
 20
-85.77765054072152
 10
5.197941860077486
 20
-85.77765054072152
 10
5.206107876436072
 20
-85.77765054072152
 10
5.211278655733836
 20
-85.78415860846869
 10
5.209433053551783
 20
-85.79211325718053
 10
5.209433053551783
 20
-85.79211325718053
 10
5.173139647513608
 20
-85.948536810094
 10
5.173139647513608
 20
-85.948536810094
 10
5.171294045331554
 20
-85.95649145880586
 10
5.163103283468849
 20
-85.96300055761573
 10
5.154937267110262
 20
-85.96300055761573
 10
5.154937267110262
 20
-85.96300055761573
 10
4.395973065653063
 20
-85.96300055761573
 10
4.395973065653063
 20
-85.96300055761573
 10
4.387807049294477
 20
-85.96300055761573
 10
4.382684729942272
 20
-85.95650383155824
 10
4.384591164821952
 20
-85.94856361772412
 10
4.384591164821952
 20
-85.94856361772412
 10
4.549599341587041
 20
-85.26130877664829
 10
4.549599341587041
 20
-85.26130877664829
 10
4.551505776466708
 20
-85.25336856281417
 10
4.559747060400329
 20
-85.2468718367567
 10
4.567913076758916
 20
-85.2468718367567
 10
4.567913076758916
 20
-85.2468718367567
 10
4.841304499430836
 20
-85.2468718367567
 10
4.841304499430836
 20
-85.2468718367567
 10
4.849470515789423
 20
-85.2468718367567
 10
4.854564996449501
 20
-85.25336237643798
 10
4.852627629689676
 20
-85.26129434177052
 10
4.852627629689676
 20
-85.26129434177052
 10
4.729984787035455
 20
-85.76322700464497
 10
4.729984787035455
 20
-85.76322700464497
 97
        0
 97
        0
 75
     2
 76
     1
 98
        0
  0
ENDBLK
  5
57
330
54
100
AcDbEntity
  8
0
100
AcDbBlockEnd
  0
BLOCK
  5
5C
330
5A
100
AcDbEntity
  8
0
100
AcDbBlockBegin
  2
block 5
 70
     0
 10
0.0
 20
0.0
 30
0.0
  3
block 5
  1

  0
SPLINE
  5
5E
330
5A
100
AcDbEntity
  8
Layer 1
370
     0
100
AcDbSpline
210
0.0
220
0.0
230
1.0
 70
    11
 71
     3
 72
    77
 73
    73
 74
     0
 42
0.0000000001
 43
0.0000000001
 12
1.0
 22
0.0
 32
0.0
 13
1.0
 23
0.0
 33
0.0
 40
0.0
 40
0.0
 40
0.0
 40
0.0
 40
1.0
 40
1.0
 40
1.0
 40
2.0
 40
2.0
 40
2.0
 40
3.0
 40
3.0
 40
3.0
 40
4.0
 40
4.0
 40
4.0
 40
5.0
 40
5.0
 40
5.0
 40
6.0
 40
6.0
 40
6.0
 40
7.0
 40
7.0
 40
7.0
 40
8.0
 40
8.0
 40
8.0
 40
9.0
 40
9.0
 40
9.0
 40
10.0
 40
10.0
 40
10.0
 40
11.0
 40
11.0
 40
11.0
 40
12.0
 40
12.0
 40
12.0
 40
13.0
 40
13.0
 40
13.0
 40
14.0
 40
14.0
 40
14.0
 40
15.0
 40
15.0
 40
15.0
 40
16.0
 40
16.0
 40
16.0
 40
17.0
 40
17.0
 40
17.0
 40
18.0
 40
18.0
 40
18.0
 40
19.0
 40
19.0
 40
19.0
 40
20.0
 40
20.0
 40
20.0
 40
21.0
 40
21.0
 40
21.0
 40
22.0
 40
22.0
 40
22.0
 40
23.0
 40
23.0
 40
23.0
 40
24.0
 40
24.0
 40
24.0
 40
24.0
 10
8.206377554156663
 20
-85.42379910247432
 30
0.0
 10
8.214543570515263
 20
-85.42379910247432
 30
0.0
 10
8.222815786329015
 20
-85.41730959385573
 30
0.0
 10
8.224759339464867
 20
-85.4093786595859
 30
0.0
 10
8.224759339464867
 20
-85.4093786595859
 30
0.0
 10
8.261447642506242
 20
-85.2597333128464
 30
0.0
 10
8.261447642506242
 20
-85.2597333128464
 30
0.0
 10
8.263392226704758
 20
-85.25180134751385
 30
0.0
 10
8.258301870295377
 20
-85.24531286995794
 30
0.0
 10
8.250135853936778
 20
-85.24531286995794
 30
0.0
 10
8.250135853936778
 20
-85.24531286995794
 30
0.0
 10
7.433844567942022
 20
-85.24531286995794
 30
0.0
 10
7.433844567942022
 20
-85.24531286995794
 30
0.0
 10
7.425678551583435
 20
-85.24531286995794
 30
0.0
 10
7.417400149393643
 20
-85.25180031645115
 30
0.0
 10
7.415448347756422
 20
-85.25972918859557
 30
0.0
 10
7.415448347756422
 20
-85.25972918859557
 30
0.0
 10
7.246298545785849
 20
-85.94702527217933
 30
0.0
 10
7.246298545785849
 20
-85.94702527217933
 30
0.0
 10
7.244346590602541
 20
-85.95495414432376
 30
0.0
 10
7.249431791698574
 20
-85.96144262187967
 30
0.0
 10
7.25759780805716
 20
-85.96144262187967
 30
0.0
 10
7.25759780805716
 20
-85.96144262187967
 30
0.0
 10
8.075514048822267
 20
-85.96144262187967
 30
0.0
 10
8.075514048822267
 20
-85.96144262187967
 30
0.0
 10
8.083680065180854
 20
-85.96144262187967
 30
0.0
 10
8.091926504427823
 20
-85.95494692688489
 30
0.0
 10
8.093841187808872
 20
-85.94700877517617
 30
0.0
 10
8.093841187808872
 20
-85.94700877517617
 30
0.0
 10
8.129642776952714
 20
-85.79852028078335
 30
0.0
 10
8.129642776952714
 20
-85.79852028078335
 30
0.0
 10
8.131557460333763
 20
-85.79058109801194
 30
0.0
 10
8.126442358420263
 20
-85.78408643407985
 30
0.0
 10
8.118276342061677
 20
-85.78408643407985
 30
0.0
 10
8.118276342061677
 20
-85.78408643407985
 30
0.0
 10
7.600803515281667
 20
-85.78408643407985
 30
0.0
 10
7.600803515281667
 20
-85.78408643407985
 30
0.0
 10
7.592637498923068
 20
-85.78408643407985
 30
0.0
 10
7.587547142513686
 20
-85.77759692546124
 30
0.0
 10
7.589490695649538
 20
-85.7696659911914
 30
0.0
 10
7.589490695649538
 20
-85.7696659911914
 30
0.0
 10
7.604983443352087
 20
-85.70647628270717
 30
0.0
 10
7.604983443352087
 20
-85.70647628270717
 30
0.0
 10
7.606928027550603
 20
-85.69854431737464
 30
0.0
 10
7.615200243364357
 20
-85.69205583981872
 30
0.0
 10
7.623366259722957
 20
-85.69205583981872
 30
0.0
 10
7.623366259722957
 20
-85.69205583981872
 30
0.0
 10
8.140842179690972
 20
-85.69205583981872
 30
0.0
 10
8.140842179690972
 20
-85.69205583981872
 30
0.0
 10
8.149008196049571
 20
-85.69205583981872
 30
0.0
 10
8.15729484674072
 20
-85.68557045545091
 30
0.0
 10
8.159259021130007
 20
-85.67764364543187
 30
0.0
 10
8.159259021130007
 20
-85.67764364543187
 30
0.0
 10
8.196047337250523
 20
-85.52911081534305
 30
0.0
 10
8.196047337250523
 20
-85.52911081534305
 30
0.0
 10
8.198011511639795
 20
-85.52118503638671
 30
0.0
 10
8.192936621170487
 20
-85.51469965201888
 30
0.0
 10
8.1847706048119
 20
-85.51469965201888
 30
0.0
 10
8.1847706048119
 20
-85.51469965201888
 30
0.0
 10
7.667258597650364
 20
-85.51469965201888
 30
0.0
 10
7.667258597650364
 20
-85.51469965201888
 30
0.0
 10
7.659092581291778
 20
-85.51469965201888
 30
0.0
 10
7.653958920250185
 20
-85.50819983277331
 30
0.0
 10
7.655849889189792
 20
-85.50025549468842
 30
0.0
 10
7.655849889189792
 20
-85.50025549468842
 30
0.0
 10
7.670615737708898
 20
-85.4382422287421
 30
0.0
 10
7.670615737708898
 20
-85.4382422287421
 30
0.0
 10
7.67250773771117
 20
-85.4302978906572
 30
0.0
 10
7.680736813413646
 20
-85.42379910247432
 30
0.0
 10
7.688902829978524
 20
-85.42379910247432
 30
0.0
 10
7.688902829978524
 20
-85.42379910247432
 30
0.0
 10
8.206377554156663
 20
-85.42379910247432
 30
0.0
 10
8.206377554156663
 20
-85.42379910247432
 30
0.0
  0
HATCH
  5
5F
330
5A
100
AcDbEntity
  8
Layer 1
 62
   250
420
  4078911
100
AcDbHatch
 10
0.0
 20
0.0
 30
0.0
210
0.0
220
0.0
230
1.0
  2
SOLID
 70
     1
 71
     0
 91
        1
 92
        1
 93
        1
 72
     4
 94
        3
 73
     0
 74
     1
 95
       77
 96
       73
 40
0.0
 40
0.0
 40
0.0
 40
0.0
 40
1.0
 40
1.0
 40
1.0
 40
2.0
 40
2.0
 40
2.0
 40
3.0
 40
3.0
 40
3.0
 40
4.0
 40
4.0
 40
4.0
 40
5.0
 40
5.0
 40
5.0
 40
6.0
 40
6.0
 40
6.0
 40
7.0
 40
7.0
 40
7.0
 40
8.0
 40
8.0
 40
8.0
 40
9.0
 40
9.0
 40
9.0
 40
10.0
 40
10.0
 40
10.0
 40
11.0
 40
11.0
 40
11.0
 40
12.0
 40
12.0
 40
12.0
 40
13.0
 40
13.0
 40
13.0
 40
14.0
 40
14.0
 40
14.0
 40
15.0
 40
15.0
 40
15.0
 40
16.0
 40
16.0
 40
16.0
 40
17.0
 40
17.0
 40
17.0
 40
18.0
 40
18.0
 40
18.0
 40
19.0
 40
19.0
 40
19.0
 40
20.0
 40
20.0
 40
20.0
 40
21.0
 40
21.0
 40
21.0
 40
22.0
 40
22.0
 40
22.0
 40
23.0
 40
23.0
 40
23.0
 40
24.0
 40
24.0
 40
24.0
 40
24.0
 10
8.206377554156663
 20
-85.42379910247432
 10
8.214543570515263
 20
-85.42379910247432
 10
8.222815786329015
 20
-85.41730959385573
 10
8.224759339464867
 20
-85.4093786595859
 10
8.224759339464867
 20
-85.4093786595859
 10
8.261447642506242
 20
-85.2597333128464
 10
8.261447642506242
 20
-85.2597333128464
 10
8.263392226704758
 20
-85.25180134751385
 10
8.258301870295377
 20
-85.24531286995794
 10
8.250135853936778
 20
-85.24531286995794
 10
8.250135853936778
 20
-85.24531286995794
 10
7.433844567942022
 20
-85.24531286995794
 10
7.433844567942022
 20
-85.24531286995794
 10
7.425678551583435
 20
-85.24531286995794
 10
7.417400149393643
 20
-85.25180031645115
 10
7.415448347756422
 20
-85.25972918859557
 10
7.415448347756422
 20
-85.25972918859557
 10
7.246298545785849
 20
-85.94702527217933
 10
7.246298545785849
 20
-85.94702527217933
 10
7.244346590602541
 20
-85.95495414432376
 10
7.249431791698574
 20
-85.96144262187967
 10
7.25759780805716
 20
-85.96144262187967
 10
7.25759780805716
 20
-85.96144262187967
 10
8.075514048822267
 20
-85.96144262187967
 10
8.075514048822267
 20
-85.96144262187967
 10
8.083680065180854
 20
-85.96144262187967
 10
8.091926504427823
 20
-85.95494692688489
 10
8.093841187808872
 20
-85.94700877517617
 10
8.093841187808872
 20
-85.94700877517617
 10
8.129642776952714
 20
-85.79852028078335
 10
8.129642776952714
 20
-85.79852028078335
 10
8.131557460333763
 20
-85.79058109801194
 10
8.126442358420263
 20
-85.78408643407985
 10
8.118276342061677
 20
-85.78408643407985
 10
8.118276342061677
 20
-85.78408643407985
 10
7.600803515281667
 20
-85.78408643407985
 10
7.600803515281667
 20
-85.78408643407985
 10
7.592637498923068
 20
-85.78408643407985
 10
7.587547142513686
 20
-85.77759692546124
 10
7.589490695649538
 20
-85.7696659911914
 10
7.589490695649538
 20
-85.7696659911914
 10
7.604983443352087
 20
-85.70647628270717
 10
7.604983443352087
 20
-85.70647628270717
 10
7.606928027550603
 20
-85.69854431737464
 10
7.615200243364357
 20
-85.69205583981872
 10
7.623366259722957
 20
-85.69205583981872
 10
7.623366259722957
 20
-85.69205583981872
 10
8.140842179690972
 20
-85.69205583981872
 10
8.140842179690972
 20
-85.69205583981872
 10
8.149008196049571
 20
-85.69205583981872
 10
8.15729484674072
 20
-85.68557045545091
 10
8.159259021130007
 20
-85.67764364543187
 10
8.159259021130007
 20
-85.67764364543187
 10
8.196047337250523
 20
-85.52911081534305
 10
8.196047337250523
 20
-85.52911081534305
 10
8.198011511639795
 20
-85.52118503638671
 10
8.192936621170487
 20
-85.51469965201888
 10
8.1847706048119
 20
-85.51469965201888
 10
8.1847706048119
 20
-85.51469965201888
 10
7.667258597650364
 20
-85.51469965201888
 10
7.667258597650364
 20
-85.51469965201888
 10
7.659092581291778
 20
-85.51469965201888
 10
7.653958920250185
 20
-85.50819983277331
 10
7.655849889189792
 20
-85.50025549468842
 10
7.655849889189792
 20
-85.50025549468842
 10
7.670615737708898
 20
-85.4382422287421
 10
7.670615737708898
 20
-85.4382422287421
 10
7.67250773771117
 20
-85.4302978906572
 10
7.680736813413646
 20
-85.42379910247432
 10
7.688902829978524
 20
-85.42379910247432
 10
7.688902829978524
 20
-85.42379910247432
 10
8.206377554156663
 20
-85.42379910247432
 10
8.206377554156663
 20
-85.42379910247432
 97
        0
 97
        0
 75
     2
 76
     1
 98
        0
  0
ENDBLK
  5
5D
330
5A
100
AcDbEntity
  8
0
100
AcDbBlockEnd
  0
BLOCK
  5
62
330
60
100
AcDbEntity
  8
0
100
AcDbBlockBegin
  2
block 6
 70
     0
 10
0.0
 20
0.0
 30
0.0
  3
block 6
  1

  0
SPLINE
  5
64
330
60
100
AcDbEntity
  8
Layer 1
370
     0
100
AcDbSpline
210
0.0
220
0.0
230
1.0
 70
    11
 71
     3
 72
    83
 73
    79
 74
     0
 42
0.0000000001
 43
0.0000000001
 12
1.0
 22
0.0
 32
0.0
 13
1.0
 23
0.0
 33
0.0
 40
0.0
 40
0.0
 40
0.0
 40
0.0
 40
1.0
 40
1.0
 40
1.0
 40
2.0
 40
2.0
 40
2.0
 40
3.0
 40
3.0
 40
3.0
 40
4.0
 40
4.0
 40
4.0
 40
5.0
 40
5.0
 40
5.0
 40
6.0
 40
6.0
 40
6.0
 40
7.0
 40
7.0
 40
7.0
 40
8.0
 40
8.0
 40
8.0
 40
9.0
 40
9.0
 40
9.0
 40
10.0
 40
10.0
 40
10.0
 40
11.0
 40
11.0
 40
11.0
 40
12.0
 40
12.0
 40
12.0
 40
13.0
 40
13.0
 40
13.0
 40
14.0
 40
14.0
 40
14.0
 40
15.0
 40
15.0
 40
15.0
 40
16.0
 40
16.0
 40
16.0
 40
17.0
 40
17.0
 40
17.0
 40
18.0
 40
18.0
 40
18.0
 40
19.0
 40
19.0
 40
19.0
 40
20.0
 40
20.0
 40
20.0
 40
21.0
 40
21.0
 40
21.0
 40
22.0
 40
22.0
 40
22.0
 40
23.0
 40
23.0
 40
23.0
 40
24.0
 40
24.0
 40
24.0
 40
25.0
 40
25.0
 40
25.0
 40
26.0
 40
26.0
 40
26.0
 40
26.0
 10
9.699651186469206
 20
-85.25915076242224
 30
0.0
 10
9.705131284568438
 20
-85.25309636226203
 30
0.0
 10
9.702934090015395
 20
-85.24811942262077
 30
0.0
 10
9.694768073656796
 20
-85.24808952180253
 30
0.0
 10
9.694768073656796
 20
-85.24808952180253
 30
0.0
 10
9.369118270540588
 20
-85.24692442095427
 30
0.0
 10
9.369118270540588
 20
-85.24692442095427
 30
0.0
 10
9.360953285244678
 20
-85.24689555119872
 30
0.0
 10
9.349785845449231
 20
-85.2518240308932
 30
0.0
 10
9.344304922833517
 20
-85.25787636892802
 30
0.0
 10
9.344304922833517
 20
-85.25787636892802
 30
0.0
 10
9.120247580323204
 20
-85.5052530555836
 30
0.0
 10
9.120247580323204
 20
-85.5052530555836
 30
0.0
 10
9.114766451161307
 20
-85.51130539361843
 30
0.0
 10
9.103600042428537
 20
-85.51625758775495
 30
0.0
 10
9.09543402606995
 20
-85.51625758775495
 30
0.0
 10
9.09543402606995
 20
-85.51625758775495
 30
0.0
 10
9.032899043978444
 20
-85.51625758775495
 30
0.0
 10
9.032899043978444
 20
-85.51625758775495
 30
0.0
 10
9.024733027619845
 20
-85.51625758775495
 30
0.0
 10
9.01962720527039
 20
-85.50976395488556
 30
0.0
 10
9.02155219927815
 20
-85.50182889636494
 30
0.0
 10
9.02155219927815
 20
-85.50182889636494
 30
0.0
 10
9.07991447073794
 20
-85.26130052814672
 30
0.0
 10
9.07991447073794
 20
-85.26130052814672
 30
0.0
 10
9.081840495808377
 20
-85.2533644385634
 30
0.0
 10
9.076734673458922
 20
-85.2468718367567
 30
0.0
 10
9.068568657100336
 20
-85.2468718367567
 30
0.0
 10
9.068568657100336
 20
-85.2468718367567
 30
0.0
 10
8.800540822445758
 20
-85.2468718367567
 30
0.0
 10
8.800540822445758
 20
-85.2468718367567
 30
0.0
 10
8.792374806087157
 20
-85.2468718367567
 30
0.0
 10
8.784087316727234
 20
-85.2533572211245
 30
0.0
 10
8.782123981006723
 20
-85.26128300008087
 30
0.0
 10
8.782123981006723
 20
-85.26128300008087
 30
0.0
 10
8.611920467484348
 20
-85.94858836322888
 30
0.0
 10
8.611920467484348
 20
-85.94858836322888
 30
0.0
 10
8.609957136113142
 20
-85.95651517324791
 30
0.0
 10
8.615033057645126
 20
-85.96300055761573
 30
0.0
 10
8.623199074003713
 20
-85.96300055761573
 30
0.0
 10
8.623199074003713
 20
-85.96300055761573
 30
0.0
 10
8.893944789860472
 20
-85.96300055761573
 30
0.0
 10
8.893944789860472
 20
-85.96300055761573
 30
0.0
 10
8.902110806219058
 20
-85.96300055761573
 30
0.0
 10
8.910387146283508
 20
-85.95651208005984
 30
0.0
 10
8.912336885795385
 20
-85.9485821768527
 30
0.0
 10
8.912336885795385
 20
-85.9485821768527
 30
0.0
 10
8.966425402481642
 20
-85.72858536013149
 30
0.0
 10
8.966425402481642
 20
-85.72858536013149
 30
0.0
 10
8.968374110930855
 20
-85.72065545692435
 30
0.0
 10
8.97665148205797
 20
-85.71416801043114
 30
0.0
 10
8.984817498416557
 20
-85.71416801043114
 30
0.0
 10
8.984817498416557
 20
-85.71416801043114
 30
0.0
 10
9.079332951391203
 20
-85.71416801043114
 30
0.0
 10
9.079332951391203
 20
-85.71416801043114
 30
0.0
 10
9.08749896774979
 20
-85.71416801043114
 30
0.0
 10
9.097307466944143
 20
-85.72007187543751
 30
0.0
 10
9.1011306473302
 20
-85.72728725219523
 30
0.0
 10
9.1011306473302
 20
-85.72728725219523
 30
0.0
 10
9.219070813139536
 20
-85.94988028478896
 30
0.0
 10
9.219070813139536
 20
-85.94988028478896
 30
0.0
 10
9.222893993525606
 20
-85.95709669260935
 30
0.0
 10
9.232702696446836
 20
-85.96302633418317
 30
0.0
 10
9.240868713011713
 20
-85.96305829712678
 30
0.0
 10
9.240868713011713
 20
-85.96305829712678
 30
0.0
 10
9.53867858900052
 20
-85.96421514947347
 30
0.0
 10
9.53867858900052
 20
-85.96421514947347
 30
0.0
 10
9.54684460535912
 20
-85.96424711241711
 30
0.0
 10
9.550524468033839
 20
-85.95830303596553
 30
0.0
 10
9.546855947048508
 20
-85.95100723631741
 30
0.0
 10
9.546855947048508
 20
-85.95100723631741
 30
0.0
 10
9.384466669469122
 20
-85.62801138035817
 30
0.0
 10
9.384466669469122
 20
-85.62801138035817
 30
0.0
 10
9.380798148483791
 20
-85.62071558071005
 30
0.0
 10
9.382280816605455
 20
-85.60979250249184
 30
0.0
 10
9.387760914704687
 20
-85.6037381023316
 30
0.0
 10
9.387760914704687
 20
-85.6037381023316
 30
0.0
 10
9.699651186469206
 20
-85.25915076242224
 30
0.0
 10
9.699651186469206
 20
-85.25915076242224
 30
0.0
  0
HATCH
  5
65
330
60
100
AcDbEntity
  8
Layer 1
 62
   250
420
  4078911
100
AcDbHatch
 10
0.0
 20
0.0
 30
0.0
210
0.0
220
0.0
230
1.0
  2
SOLID
 70
     1
 71
     0
 91
        1
 92
        1
 93
        1
 72
     4
 94
        3
 73
     0
 74
     1
 95
       83
 96
       79
 40
0.0
 40
0.0
 40
0.0
 40
0.0
 40
1.0
 40
1.0
 40
1.0
 40
2.0
 40
2.0
 40
2.0
 40
3.0
 40
3.0
 40
3.0
 40
4.0
 40
4.0
 40
4.0
 40
5.0
 40
5.0
 40
5.0
 40
6.0
 40
6.0
 40
6.0
 40
7.0
 40
7.0
 40
7.0
 40
8.0
 40
8.0
 40
8.0
 40
9.0
 40
9.0
 40
9.0
 40
10.0
 40
10.0
 40
10.0
 40
11.0
 40
11.0
 40
11.0
 40
12.0
 40
12.0
 40
12.0
 40
13.0
 40
13.0
 40
13.0
 40
14.0
 40
14.0
 40
14.0
 40
15.0
 40
15.0
 40
15.0
 40
16.0
 40
16.0
 40
16.0
 40
17.0
 40
17.0
 40
17.0
 40
18.0
 40
18.0
 40
18.0
 40
19.0
 40
19.0
 40
19.0
 40
20.0
 40
20.0
 40
20.0
 40
21.0
 40
21.0
 40
21.0
 40
22.0
 40
22.0
 40
22.0
 40
23.0
 40
23.0
 40
23.0
 40
24.0
 40
24.0
 40
24.0
 40
25.0
 40
25.0
 40
25.0
 40
26.0
 40
26.0
 40
26.0
 40
26.0
 10
9.699651186469206
 20
-85.25915076242224
 10
9.705131284568438
 20
-85.25309636226203
 10
9.702934090015395
 20
-85.24811942262077
 10
9.694768073656796
 20
-85.24808952180253
 10
9.694768073656796
 20
-85.24808952180253
 10
9.369118270540588
 20
-85.24692442095427
 10
9.369118270540588
 20
-85.24692442095427
 10
9.360953285244678
 20
-85.24689555119872
 10
9.349785845449231
 20
-85.2518240308932
 10
9.344304922833517
 20
-85.25787636892802
 10
9.344304922833517
 20
-85.25787636892802
 10
9.120247580323204
 20
-85.5052530555836
 10
9.120247580323204
 20
-85.5052530555836
 10
9.114766451161307
 20
-85.51130539361843
 10
9.103600042428537
 20
-85.51625758775495
 10
9.09543402606995
 20
-85.51625758775495
 10
9.09543402606995
 20
-85.51625758775495
 10
9.032899043978444
 20
-85.51625758775495
 10
9.032899043978444
 20
-85.51625758775495
 10
9.024733027619845
 20
-85.51625758775495
 10
9.01962720527039
 20
-85.50976395488556
 10
9.02155219927815
 20
-85.50182889636494
 10
9.02155219927815
 20
-85.50182889636494
 10
9.07991447073794
 20
-85.26130052814672
 10
9.07991447073794
 20
-85.26130052814672
 10
9.081840495808377
 20
-85.2533644385634
 10
9.076734673458922
 20
-85.2468718367567
 10
9.068568657100336
 20
-85.2468718367567
 10
9.068568657100336
 20
-85.2468718367567
 10
8.800540822445758
 20
-85.2468718367567
 10
8.800540822445758
 20
-85.2468718367567
 10
8.792374806087157
 20
-85.2468718367567
 10
8.784087316727234
 20
-85.2533572211245
 10
8.782123981006723
 20
-85.26128300008087
 10
8.782123981006723
 20
-85.26128300008087
 10
8.611920467484348
 20
-85.94858836322888
 10
8.611920467484348
 20
-85.94858836322888
 10
8.609957136113142
 20
-85.95651517324791
 10
8.615033057645126
 20
-85.96300055761573
 10
8.623199074003713
 20
-85.96300055761573
 10
8.623199074003713
 20
-85.96300055761573
 10
8.893944789860472
 20
-85.96300055761573
 10
8.893944789860472
 20
-85.96300055761573
 10
8.902110806219058
 20
-85.96300055761573
 10
8.910387146283508
 20
-85.95651208005984
 10
8.912336885795385
 20
-85.9485821768527
 10
8.912336885795385
 20
-85.9485821768527
 10
8.966425402481642
 20
-85.72858536013149
 10
8.966425402481642
 20
-85.72858536013149
 10
8.968374110930855
 20
-85.72065545692435
 10
8.97665148205797
 20
-85.71416801043114
 10
8.984817498416557
 20
-85.71416801043114
 10
8.984817498416557
 20
-85.71416801043114
 10
9.079332951391203
 20
-85.71416801043114
 10
9.079332951391203
 20
-85.71416801043114
 10
9.08749896774979
 20
-85.71416801043114
 10
9.097307466944143
 20
-85.72007187543751
 10
9.1011306473302
 20
-85.72728725219523
 10
9.1011306473302
 20
-85.72728725219523
 10
9.219070813139536
 20
-85.94988028478896
 10
9.219070813139536
 20
-85.94988028478896
 10
9.222893993525606
 20
-85.95709669260935
 10
9.232702696446836
 20
-85.96302633418317
 10
9.240868713011713
 20
-85.96305829712678
 10
9.240868713011713
 20
-85.96305829712678
 10
9.53867858900052
 20
-85.96421514947347
 10
9.53867858900052
 20
-85.96421514947347
 10
9.54684460535912
 20
-85.96424711241711
 10
9.550524468033839
 20
-85.95830303596553
 10
9.546855947048508
 20
-85.95100723631741
 10
9.546855947048508
 20
-85.95100723631741
 10
9.384466669469122
 20
-85.62801138035817
 10
9.384466669469122
 20
-85.62801138035817
 10
9.380798148483791
 20
-85.62071558071005
 10
9.382280816605455
 20
-85.60979250249184
 10
9.387760914704687
 20
-85.6037381023316
 10
9.387760914704687
 20
-85.6037381023316
 10
9.699651186469206
 20
-85.25915076242224
 10
9.699651186469206
 20
-85.25915076242224
 97
        0
 97
        0
 75
     2
 76
     1
 98
        0
  0
ENDBLK
  5
63
330
60
100
AcDbEntity
  8
0
100
AcDbBlockEnd
  0
BLOCK
  5
68
330
66
100
AcDbEntity
  8
0
100
AcDbBlockBegin
  2
block 7
 70
     0
 10
0.0
 20
0.0
 30
0.0
  3
block 7
  1

  0
SPLINE
  5
6A
330
66
100
AcDbEntity
  8
Layer 1
370
     0
100
AcDbSpline
210
0.0
220
0.0
230
1.0
 70
    11
 71
     3
 72
    29
 73
    25
 74
     0
 42
0.0000000001
 43
0.0000000001
 12
1.0
 22
0.0
 32
0.0
 13
1.0
 23
0.0
 33
0.0
 40
0.0
 40
0.0
 40
0.0
 40
0.0
 40
1.0
 40
1.0
 40
1.0
 40
2.0
 40
2.0
 40
2.0
 40
3.0
 40
3.0
 40
3.0
 40
4.0
 40
4.0
 40
4.0
 40
5.0
 40
5.0
 40
5.0
 40
6.0
 40
6.0
 40
6.0
 40
7.0
 40
7.0
 40
7.0
 40
8.0
 40
8.0
 40
8.0
 40
8.0
 10
9.822626031303672
 20
-85.2468718367567
 30
0.0
 10
9.814460014945086
 20
-85.2468718367567
 30
0.0
 10
9.806186768068654
 20
-85.2533603143126
 30
0.0
 10
9.804242183870125
 20
-85.26129124858244
 30
0.0
 10
9.804242183870125
 20
-85.26129124858244
 30
0.0
 10
9.635685089389602
 20
-85.94858011472729
 30
0.0
 10
9.635685089389602
 20
-85.94858011472729
 30
0.0
 10
9.633740505191073
 20
-85.95651104899711
 30
0.0
 10
9.638830861600468
 20
-85.96300055761573
 30
0.0
 10
9.646996877959054
 20
-85.96300055761573
 30
0.0
 10
9.646996877959054
 20
-85.96300055761573
 30
0.0
 10
9.917742593815811
 20
-85.96300055761573
 30
0.0
 10
9.917742593815811
 20
-85.96300055761573
 30
0.0
 10
9.925908610174398
 20
-85.96300055761573
 30
0.0
 10
9.934172577486782
 20
-85.95650898687174
 30
0.0
 10
9.936106851058588
 20
-85.9485759904765
 30
0.0
 10
9.936106851058588
 20
-85.9485759904765
 30
0.0
 10
10.10369680875322
 20
-85.26129640389591
 30
0.0
 10
10.10369680875322
 20
-85.26129640389591
 30
0.0
 10
10.10563130810394
 20
-85.25336237643798
 30
0.0
 10
10.10053350847693
 20
-85.2468718367567
 30
0.0
 10
10.09236749211834
 20
-85.2468718367567
 30
0.0
 10
10.09236749211834
 20
-85.2468718367567
 30
0.0
 10
9.822626031303672
 20
-85.2468718367567
 30
0.0
 10
9.822626031303672
 20
-85.2468718367567
 30
0.0
  0
HATCH
  5
6B
330
66
100
AcDbEntity
  8
Layer 1
 62
   250
420
  4078911
100
AcDbHatch
 10
0.0
 20
0.0
 30
0.0
210
0.0
220
0.0
230
1.0
  2
SOLID
 70
     1
 71
     0
 91
        1
 92
        1
 93
        1
 72
     4
 94
        3
 73
     0
 74
     1
 95
       29
 96
       25
 40
0.0
 40
0.0
 40
0.0
 40
0.0
 40
1.0
 40
1.0
 40
1.0
 40
2.0
 40
2.0
 40
2.0
 40
3.0
 40
3.0
 40
3.0
 40
4.0
 40
4.0
 40
4.0
 40
5.0
 40
5.0
 40
5.0
 40
6.0
 40
6.0
 40
6.0
 40
7.0
 40
7.0
 40
7.0
 40
8.0
 40
8.0
 40
8.0
 40
8.0
 10
9.822626031303672
 20
-85.2468718367567
 10
9.814460014945086
 20
-85.2468718367567
 10
9.806186768068654
 20
-85.2533603143126
 10
9.804242183870125
 20
-85.26129124858244
 10
9.804242183870125
 20
-85.26129124858244
 10
9.635685089389602
 20
-85.94858011472729
 10
9.635685089389602
 20
-85.94858011472729
 10
9.633740505191073
 20
-85.95651104899711
 10
9.638830861600468
 20
-85.96300055761573
 10
9.646996877959054
 20
-85.96300055761573
 10
9.646996877959054
 20
-85.96300055761573
 10
9.917742593815811
 20
-85.96300055761573
 10
9.917742593815811
 20
-85.96300055761573
 10
9.925908610174398
 20
-85.96300055761573
 10
9.934172577486782
 20
-85.95650898687174
 10
9.936106851058588
 20
-85.9485759904765
 10
9.936106851058588
 20
-85.9485759904765
 10
10.10369680875322
 20
-85.26129640389591
 10
10.10369680875322
 20
-85.26129640389591
 10
10.10563130810394
 20
-85.25336237643798
 10
10.10053350847693
 20
-85.2468718367567
 10
10.09236749211834
 20
-85.2468718367567
 10
10.09236749211834
 20
-85.2468718367567
 10
9.822626031303672
 20
-85.2468718367567
 10
9.822626031303672
 20
-85.2468718367567
 97
        0
 97
        0
 75
     2
 76
     1
 98
        0
  0
ENDBLK
  5
69
330
66
100
AcDbEntity
  8
0
100
AcDbBlockEnd
  0
BLOCK
  5
6E
330
6C
100
AcDbEntity
  8
0
100
AcDbBlockBegin
  2
block 8
 70
     0
 10
0.0
 20
0.0
 30
0.0
  3
block 8
  1

  0
SPLINE
  5
70
330
6C
100
AcDbEntity
  8
Layer 1
370
     0
100
AcDbSpline
210
0.0
220
0.0
230
1.0
 70
    11
 71
     3
 72
    65
 73
    61
 74
     0
 42
0.0000000001
 43
0.0000000001
 12
1.0
 22
0.0
 32
0.0
 13
1.0
 23
0.0
 33
0.0
 40
0.0
 40
0.0
 40
0.0
 40
0.0
 40
1.0
 40
1.0
 40
1.0
 40
2.0
 40
2.0
 40
2.0
 40
3.0
 40
3.0
 40
3.0
 40
4.0
 40
4.0
 40
4.0
 40
5.0
 40
5.0
 40
5.0
 40
6.0
 40
6.0
 40
6.0
 40
7.0
 40
7.0
 40
7.0
 40
8.0
 40
8.0
 40
8.0
 40
9.0
 40
9.0
 40
9.0
 40
10.0
 40
10.0
 40
10.0
 40
11.0
 40
11.0
 40
11.0
 40
12.0
 40
12.0
 40
12.0
 40
13.0
 40
13.0
 40
13.0
 40
14.0
 40
14.0
 40
14.0
 40
15.0
 40
15.0
 40
15.0
 40
16.0
 40
16.0
 40
16.0
 40
17.0
 40
17.0
 40
17.0
 40
18.0
 40
18.0
 40
18.0
 40
19.0
 40
19.0
 40
19.0
 40
20.0
 40
20.0
 40
20.0
 40
20.0
 10
10.89949572415114
 20
-85.2468718367567
 30
0.0
 10
10.89132970779255
 20
-85.2468718367567
 30
0.0
 10
10.88307192685619
 20
-85.2533644385634
 30
0.0
 10
10.88114590178576
 20
-85.26129949708401
 30
0.0
 10
10.88114590178576
 20
-85.26129949708401
 30
0.0
 10
10.80422783885323
 20
-85.5781605299926
 30
0.0
 10
10.80422783885323
 20
-85.5781605299926
 30
0.0
 10
10.80230053929318
 20
-85.58609661957593
 30
0.0
 10
10.79666578179321
 20
-85.58728131061545
 30
0.0
 10
10.79170533928043
 20
-85.58079489518492
 30
0.0
 10
10.79170533928043
 20
-85.58079489518492
 30
0.0
 10
10.54537518748572
 20
-85.25866513189168
 30
0.0
 10
10.54537518748572
 20
-85.25866513189168
 30
0.0
 10
10.54041474497295
 20
-85.25217871646115
 30
0.0
 10
10.5296751961862
 20
-85.2468718367567
 30
0.0
 10
10.52150917982762
 20
-85.2468718367567
 30
0.0
 10
10.52150917982762
 20
-85.2468718367567
 30
0.0
 10
10.28011804841639
 20
-85.2468718367567
 30
0.0
 10
10.28011804841639
 20
-85.2468718367567
 30
0.0
 10
10.27195203185151
 20
-85.2468718367567
 30
0.0
 10
10.26366515117982
 20
-85.2533572211245
 30
0.0
 10
10.26170406997855
 20
-85.26128403114355
 30
0.0
 10
10.26170406997855
 20
-85.26128403114355
 30
0.0
 10
10.09167874225376
 20
-85.94858733216617
 30
0.0
 10
10.09167874225376
 20
-85.94858733216617
 30
0.0
 10
10.08971766105249
 20
-85.95651414218521
 30
0.0
 10
10.0947948391523
 20
-85.96300055761573
 30
0.0
 10
10.10296085571719
 20
-85.96300055761573
 30
0.0
 10
10.10296085571719
 20
-85.96300055761573
 30
0.0
 10
10.3737063458625
 20
-85.96300055761573
 30
0.0
 10
10.3737063458625
 20
-85.96300055761573
 30
0.0
 10
10.38187236222108
 20
-85.96300055761573
 30
0.0
 10
10.39013117422011
 20
-85.95650795580902
 30
0.0
 10
10.39205926141589
 20
-85.9485728972884
 30
0.0
 10
10.39205926141589
 20
-85.9485728972884
 30
0.0
 10
10.46986840592358
 20
-85.62840112205787
 30
0.0
 10
10.46986840592358
 20
-85.62840112205787
 30
0.0
 10
10.47179649311935
 20
-85.62046606353725
 30
0.0
 10
10.47751167350769
 20
-85.61922053979856
 30
0.0
 10
10.4825690359116
 20
-85.62563271871487
 30
0.0
 10
10.4825690359116
 20
-85.62563271871487
 30
0.0
 10
10.73943585893692
 20
-85.95134233169412
 30
0.0
 10
10.73943585893692
 20
-85.95134233169412
 30
0.0
 10
10.744491948488
 20
-85.9577545106104
 30
0.0
 10
10.75531088910045
 20
-85.96300055761573
 30
0.0
 10
10.76347690545904
 20
-85.96300055761573
 30
0.0
 10
10.76347690545904
 20
-85.96300055761573
 30
0.0
 10
10.99558045451186
 20
-85.96300055761573
 30
0.0
 10
10.99558045451186
 20
-85.96300055761573
 30
0.0
 10
11.00374647087045
 20
-85.96300055761573
 30
0.0
 10
11.01201043818283
 20
-85.95650898687174
 30
0.0
 10
11.01394471175464
 20
-85.9485759904765
 30
0.0
 10
11.01394471175464
 20
-85.9485759904765
 30
0.0
 10
11.18153492240779
 20
-85.26129640389591
 30
0.0
 10
11.18153492240779
 20
-85.26129640389591
 30
0.0
 10
11.18346894302107
 20
-85.25336237643798
 30
0.0
 10
11.17837136917298
 20
-85.2468718367567
 30
0.0
 10
11.17020535281439
 20
-85.2468718367567
 30
0.0
 10
11.17020535281439
 20
-85.2468718367567
 30
0.0
 10
10.89949572415114
 20
-85.2468718367567
 30
0.0
 10
10.89949572415114
 20
-85.2468718367567
 30
0.0
  0
HATCH
  5
71
330
6C
100
AcDbEntity
  8
Layer 1
 62
   250
420
  4078911
100
AcDbHatch
 10
0.0
 20
0.0
 30
0.0
210
0.0
220
0.0
230
1.0
  2
SOLID
 70
     1
 71
     0
 91
        1
 92
        1
 93
        1
 72
     4
 94
        3
 73
     0
 74
     1
 95
       65
 96
       61
 40
0.0
 40
0.0
 40
0.0
 40
0.0
 40
1.0
 40
1.0
 40
1.0
 40
2.0
 40
2.0
 40
2.0
 40
3.0
 40
3.0
 40
3.0
 40
4.0
 40
4.0
 40
4.0
 40
5.0
 40
5.0
 40
5.0
 40
6.0
 40
6.0
 40
6.0
 40
7.0
 40
7.0
 40
7.0
 40
8.0
 40
8.0
 40
8.0
 40
9.0
 40
9.0
 40
9.0
 40
10.0
 40
10.0
 40
10.0
 40
11.0
 40
11.0
 40
11.0
 40
12.0
 40
12.0
 40
12.0
 40
13.0
 40
13.0
 40
13.0
 40
14.0
 40
14.0
 40
14.0
 40
15.0
 40
15.0
 40
15.0
 40
16.0
 40
16.0
 40
16.0
 40
17.0
 40
17.0
 40
17.0
 40
18.0
 40
18.0
 40
18.0
 40
19.0
 40
19.0
 40
19.0
 40
20.0
 40
20.0
 40
20.0
 40
20.0
 10
10.89949572415114
 20
-85.2468718367567
 10
10.89132970779255
 20
-85.2468718367567
 10
10.88307192685619
 20
-85.2533644385634
 10
10.88114590178576
 20
-85.26129949708401
 10
10.88114590178576
 20
-85.26129949708401
 10
10.80422783885323
 20
-85.5781605299926
 10
10.80422783885323
 20
-85.5781605299926
 10
10.80230053929318
 20
-85.58609661957593
 10
10.79666578179321
 20
-85.58728131061545
 10
10.79170533928043
 20
-85.58079489518492
 10
10.79170533928043
 20
-85.58079489518492
 10
10.54537518748572
 20
-85.25866513189168
 10
10.54537518748572
 20
-85.25866513189168
 10
10.54041474497295
 20
-85.25217871646115
 10
10.5296751961862
 20
-85.2468718367567
 10
10.52150917982762
 20
-85.2468718367567
 10
10.52150917982762
 20
-85.2468718367567
 10
10.28011804841639
 20
-85.2468718367567
 10
10.28011804841639
 20
-85.2468718367567
 10
10.27195203185151
 20
-85.2468718367567
 10
10.26366515117982
 20
-85.2533572211245
 10
10.26170406997855
 20
-85.26128403114355
 10
10.26170406997855
 20
-85.26128403114355
 10
10.09167874225376
 20
-85.94858733216617
 10
10.09167874225376
 20
-85.94858733216617
 10
10.08971766105249
 20
-85.95651414218521
 10
10.0947948391523
 20
-85.96300055761573
 10
10.10296085571719
 20
-85.96300055761573
 10
10.10296085571719
 20
-85.96300055761573
 10
10.3737063458625
 20
-85.96300055761573
 10
10.3737063458625
 20
-85.96300055761573
 10
10.38187236222108
 20
-85.96300055761573
 10
10.39013117422011
 20
-85.95650795580902
 10
10.39205926141589
 20
-85.9485728972884
 10
10.39205926141589
 20
-85.9485728972884
 10
10.46986840592358
 20
-85.62840112205787
 10
10.46986840592358
 20
-85.62840112205787
 10
10.47179649311935
 20
-85.62046606353725
 10
10.47751167350769
 20
-85.61922053979856
 10
10.4825690359116
 20
-85.62563271871487
 10
10.4825690359116
 20
-85.62563271871487
 10
10.73943585893692
 20
-85.95134233169412
 10
10.73943585893692
 20
-85.95134233169412
 10
10.744491948488
 20
-85.9577545106104
 10
10.75531088910045
 20
-85.96300055761573
 10
10.76347690545904
 20
-85.96300055761573
 10
10.76347690545904
 20
-85.96300055761573
 10
10.99558045451186
 20
-85.96300055761573
 10
10.99558045451186
 20
-85.96300055761573
 10
11.00374647087045
 20
-85.96300055761573
 10
11.01201043818283
 20
-85.95650898687174
 10
11.01394471175464
 20
-85.9485759904765
 10
11.01394471175464
 20
-85.9485759904765
 10
11.18153492240779
 20
-85.26129640389591
 10
11.18153492240779
 20
-85.26129640389591
 10
11.18346894302107
 20
-85.25336237643798
 10
11.17837136917298
 20
-85.2468718367567
 10
11.17020535281439
 20
-85.2468718367567
 10
11.17020535281439
 20
-85.2468718367567
 10
10.89949572415114
 20
-85.2468718367567
 10
10.89949572415114
 20
-85.2468718367567
 97
        0
 97
        0
 75
     2
 76
     1
 98
        0
  0
ENDBLK
  5
6F
330
6C
100
AcDbEntity
  8
0
100
AcDbBlockEnd
  0
BLOCK
  5
74
330
72
100
AcDbEntity
  8
0
100
AcDbBlockBegin
  2
block 9
 70
     0
 10
0.0
 20
0.0
 30
0.0
  3
block 9
  1

  0
SPLINE
  5
76
330
72
100
AcDbEntity
  8
Layer 1
370
     0
100
AcDbSpline
210
0.0
220
0.0
230
1.0
 70
    11
 71
     3
 72
    77
 73
    73
 74
     0
 42
0.0000000001
 43
0.0000000001
 12
1.0
 22
0.0
 32
0.0
 13
1.0
 23
0.0
 33
0.0
 40
0.0
 40
0.0
 40
0.0
 40
0.0
 40
1.0
 40
1.0
 40
1.0
 40
2.0
 40
2.0
 40
2.0
 40
3.0
 40
3.0
 40
3.0
 40
4.0
 40
4.0
 40
4.0
 40
5.0
 40
5.0
 40
5.0
 40
6.0
 40
6.0
 40
6.0
 40
7.0
 40
7.0
 40
7.0
 40
8.0
 40
8.0
 40
8.0
 40
9.0
 40
9.0
 40
9.0
 40
10.0
 40
10.0
 40
10.0
 40
11.0
 40
11.0
 40
11.0
 40
12.0
 40
12.0
 40
12.0
 40
13.0
 40
13.0
 40
13.0
 40
14.0
 40
14.0
 40
14.0
 40
15.0
 40
15.0
 40
15.0
 40
16.0
 40
16.0
 40
16.0
 40
17.0
 40
17.0
 40
17.0
 40
18.0
 40
18.0
 40
18.0
 40
19.0
 40
19.0
 40
19.0
 40
20.0
 40
20.0
 40
20.0
 40
21.0
 40
21.0
 40
21.0
 40
22.0
 40
22.0
 40
22.0
 40
23.0
 40
23.0
 40
23.0
 40
24.0
 40
24.0
 40
24.0
 40
24.0
 10
12.15118237041191
 20
-85.42535703821036
 30
0.0
 10
12.15934838697682
 20
-85.42535703821036
 30
0.0
 10
12.16761854087415
 20
-85.41886752959178
 30
0.0
 10
12.1695620940591
 20
-85.41093556425926
 30
0.0
 10
12.1695620940591
 20
-85.41093556425926
 30
0.0
 10
12.20621740402096
 20
-85.26129227964512
 30
0.0
 10
12.20621740402096
 20
-85.26129227964512
 30
0.0
 10
12.20816095720592
 20
-85.2533613453753
 30
0.0
 10
12.20306956960523
 20
-85.2468718367567
 30
0.0
 10
12.19490355304035
 20
-85.2468718367567
 30
0.0
 10
12.19490355304035
 20
-85.2468718367567
 30
0.0
 10
11.35422426311732
 20
-85.2468718367567
 30
0.0
 10
11.35422426311732
 20
-85.2468718367567
 30
0.0
 10
11.34605824675873
 20
-85.2468718367567
 30
0.0
 10
11.33776437862886
 20
-85.2533551589991
 30
0.0
 10
11.33579401786355
 20
-85.26127990689277
 30
0.0
 10
11.33579401786355
 20
-85.26127990689277
 30
0.0
 10
11.16490465962
 20
-85.94859145641695
 30
0.0
 10
11.16490465962
 20
-85.94859145641695
 30
0.0
 10
11.16293455134333
 20
-85.95651620431062
 30
0.0
 10
11.16800403401065
 20
-85.96300055761573
 30
0.0
 10
11.17617005036924
 20
-85.96300055761573
 30
0.0
 10
11.17617005036924
 20
-85.96300055761573
 30
0.0
 10
12.02027968138913
 20
-85.96300055761573
 30
0.0
 10
12.02027968138913
 20
-85.96300055761573
 30
0.0
 10
12.02844569795401
 20
-85.96300055761573
 30
0.0
 10
12.03671378972596
 20
-85.95651001793443
 30
0.0
 10
12.03865424972279
 20
-85.94857805260189
 30
0.0
 10
12.03865424972279
 20
-85.94857805260189
 30
0.0
 10
12.1408593706837
 20
-85.53067906170607
 30
0.0
 10
12.1408593706837
 20
-85.53067906170607
 30
0.0
 10
12.14279879961785
 20
-85.52274709637355
 30
0.0
 10
12.13770534989178
 20
-85.51625758775495
 30
0.0
 10
12.1295393333269
 20
-85.51625758775495
 30
0.0
 10
12.1295393333269
 20
-85.51625758775495
 30
0.0
 10
11.73991105053618
 20
-85.51625758775495
 30
0.0
 10
11.73991105053618
 20
-85.51625758775495
 30
0.0
 10
11.7317450339713
 20
-85.51625758775495
 30
0.0
 10
11.72345735200811
 20
-85.52274297212276
 30
0.0
 10
11.72149317756921
 20
-85.53066875107909
 30
0.0
 10
11.72149317756921
 20
-85.53066875107909
 30
0.0
 10
11.68470176733126
 20
-85.67920158116792
 30
0.0
 10
11.68470176733126
 20
-85.67920158116792
 30
0.0
 10
11.68273862395505
 20
-85.68712839118696
 30
0.0
 10
11.68781351455257
 20
-85.69361377555477
 30
0.0
 10
11.69597953111745
 20
-85.69361377555477
 30
0.0
 10
11.69597953111745
 20
-85.69361377555477
 30
0.0
 10
11.81706959644733
 20
-85.69361377555477
 30
0.0
 10
11.81706959644733
 20
-85.69361377555477
 30
0.0
 10
11.82523561301221
 20
-85.69361377555477
 30
0.0
 10
11.83032596955019
 20
-85.70010225311067
 30
0.0
 10
11.82838138530254
 20
-85.70803421844322
 30
0.0
 10
11.82838138530254
 20
-85.70803421844322
 30
0.0
 10
11.81288863720862
 20
-85.77122392692745
 30
0.0
 10
11.81288863720862
 20
-85.77122392692745
 30
0.0
 10
11.81094508402366
 20
-85.77915486119728
 30
0.0
 10
11.80267286800093
 20
-85.7856443698159
 30
0.0
 10
11.79450685143606
 20
-85.7856443698159
 30
0.0
 10
11.79450685143606
 20
-85.7856443698159
 30
0.0
 10
11.51937498802416
 20
-85.7856443698159
 30
0.0
 10
11.51937498802416
 20
-85.7856443698159
 30
0.0
 10
11.51120897145928
 20
-85.7856443698159
 30
0.0
 10
11.50611449067051
 20
-85.77915383013459
 30
0.0
 10
11.50805391960466
 20
-85.77122186480207
 30
0.0
 10
11.50805391960466
 20
-85.77122186480207
 30
0.0
 10
11.5891016340111
 20
-85.43977954322422
 30
0.0
 10
11.5891016340111
 20
-85.43977954322422
 30
0.0
 10
11.59104106294526
 20
-85.431846546829
 30
0.0
 10
11.5993101857799
 20
-85.42535703821036
 30
0.0
 10
11.60747620234478
 20
-85.42535703821036
 30
0.0
 10
11.60747620234478
 20
-85.42535703821036
 30
0.0
 10
12.15118237041191
 20
-85.42535703821036
 30
0.0
 10
12.15118237041191
 20
-85.42535703821036
 30
0.0
  0
HATCH
  5
77
330
72
100
AcDbEntity
  8
Layer 1
 62
   250
420
  4078911
100
AcDbHatch
 10
0.0
 20
0.0
 30
0.0
210
0.0
220
0.0
230
1.0
  2
SOLID
 70
     1
 71
     0
 91
        1
 92
        1
 93
        1
 72
     4
 94
        3
 73
     0
 74
     1
 95
       77
 96
       73
 40
0.0
 40
0.0
 40
0.0
 40
0.0
 40
1.0
 40
1.0
 40
1.0
 40
2.0
 40
2.0
 40
2.0
 40
3.0
 40
3.0
 40
3.0
 40
4.0
 40
4.0
 40
4.0
 40
5.0
 40
5.0
 40
5.0
 40
6.0
 40
6.0
 40
6.0
 40
7.0
 40
7.0
 40
7.0
 40
8.0
 40
8.0
 40
8.0
 40
9.0
 40
9.0
 40
9.0
 40
10.0
 40
10.0
 40
10.0
 40
11.0
 40
11.0
 40
11.0
 40
12.0
 40
12.0
 40
12.0
 40
13.0
 40
13.0
 40
13.0
 40
14.0
 40
14.0
 40
14.0
 40
15.0
 40
15.0
 40
15.0
 40
16.0
 40
16.0
 40
16.0
 40
17.0
 40
17.0
 40
17.0
 40
18.0
 40
18.0
 40
18.0
 40
19.0
 40
19.0
 40
19.0
 40
20.0
 40
20.0
 40
20.0
 40
21.0
 40
21.0
 40
21.0
 40
22.0
 40
22.0
 40
22.0
 40
23.0
 40
23.0
 40
23.0
 40
24.0
 40
24.0
 40
24.0
 40
24.0
 10
12.15118237041191
 20
-85.42535703821036
 10
12.15934838697682
 20
-85.42535703821036
 10
12.16761854087415
 20
-85.41886752959178
 10
12.1695620940591
 20
-85.41093556425926
 10
12.1695620940591
 20
-85.41093556425926
 10
12.20621740402096
 20
-85.26129227964512
 10
12.20621740402096
 20
-85.26129227964512
 10
12.20816095720592
 20
-85.2533613453753
 10
12.20306956960523
 20
-85.2468718367567
 10
12.19490355304035
 20
-85.2468718367567
 10
12.19490355304035
 20
-85.2468718367567
 10
11.35422426311732
 20
-85.2468718367567
 10
11.35422426311732
 20
-85.2468718367567
 10
11.34605824675873
 20
-85.2468718367567
 10
11.33776437862886
 20
-85.2533551589991
 10
11.33579401786355
 20
-85.26127990689277
 10
11.33579401786355
 20
-85.26127990689277
 10
11.16490465962
 20
-85.94859145641695
 10
11.16490465962
 20
-85.94859145641695
 10
11.16293455134333
 20
-85.95651620431062
 10
11.16800403401065
 20
-85.96300055761573
 10
11.17617005036924
 20
-85.96300055761573
 10
11.17617005036924
 20
-85.96300055761573
 10
12.02027968138913
 20
-85.96300055761573
 10
12.02027968138913
 20
-85.96300055761573
 10
12.02844569795401
 20
-85.96300055761573
 10
12.03671378972596
 20
-85.95651001793443
 10
12.03865424972279
 20
-85.94857805260189
 10
12.03865424972279
 20
-85.94857805260189
 10
12.1408593706837
 20
-85.53067906170607
 10
12.1408593706837
 20
-85.53067906170607
 10
12.14279879961785
 20
-85.52274709637355
 10
12.13770534989178
 20
-85.51625758775495
 10
12.1295393333269
 20
-85.51625758775495
 10
12.1295393333269
 20
-85.51625758775495
 10
11.73991105053618
 20
-85.51625758775495
 10
11.73991105053618
 20
-85.51625758775495
 10
11.7317450339713
 20
-85.51625758775495
 10
11.72345735200811
 20
-85.52274297212276
 10
11.72149317756921
 20
-85.53066875107909
 10
11.72149317756921
 20
-85.53066875107909
 10
11.68470176733126
 20
-85.67920158116792
 10
11.68470176733126
 20
-85.67920158116792
 10
11.68273862395505
 20
-85.68712839118696
 10
11.68781351455257
 20
-85.69361377555477
 10
11.69597953111745
 20
-85.69361377555477
 10
11.69597953111745
 20
-85.69361377555477
 10
11.81706959644733
 20
-85.69361377555477
 10
11.81706959644733
 20
-85.69361377555477
 10
11.82523561301221
 20
-85.69361377555477
 10
11.83032596955019
 20
-85.70010225311067
 10
11.82838138530254
 20
-85.70803421844322
 10
11.82838138530254
 20
-85.70803421844322
 10
11.81288863720862
 20
-85.77122392692745
 10
11.81288863720862
 20
-85.77122392692745
 10
11.81094508402366
 20
-85.77915486119728
 10
11.80267286800093
 20
-85.7856443698159
 10
11.79450685143606
 20
-85.7856443698159
 10
11.79450685143606
 20
-85.7856443698159
 10
11.51937498802416
 20
-85.7856443698159
 10
11.51937498802416
 20
-85.7856443698159
 10
11.51120897145928
 20
-85.7856443698159
 10
11.50611449067051
 20
-85.77915383013459
 10
11.50805391960466
 20
-85.77122186480207
 10
11.50805391960466
 20
-85.77122186480207
 10
11.5891016340111
 20
-85.43977954322422
 10
11.5891016340111
 20
-85.43977954322422
 10
11.59104106294526
 20
-85.431846546829
 10
11.5993101857799
 20
-85.42535703821036
 10
11.60747620234478
 20
-85.42535703821036
 10
11.60747620234478
 20
-85.42535703821036
 10
12.15118237041191
 20
-85.42535703821036
 10
12.15118237041191
 20
-85.42535703821036
 97
        0
 97
        0
 75
     2
 76
     1
 98
        0
  0
ENDBLK
  5
75
330
72
100
AcDbEntity
  8
0
100
AcDbBlockEnd
  0
BLOCK
  5
7E
330
7C
100
AcDbEntity
  8
0
100
AcDbBlockBegin
  2
block 10
 70
     0
 10
0.0
 20
0.0
 30
0.0
  3
block 10
  1

  0
SPLINE
  5
80
330
7C
100
AcDbEntity
  8
Layer 1
370
     0
100
AcDbSpline
210
0.0
220
0.0
230
1.0
 70
    11
 71
     3
 72
    23
 73
    19
 74
     0
 42
0.0000000001
 43
0.0000000001
 12
1.0
 22
0.0
 32
0.0
 13
1.0
 23
0.0
 33
0.0
 40
0.0
 40
0.0
 40
0.0
 40
0.0
 40
1.0
 40
1.0
 40
1.0
 40
2.0
 40
2.0
 40
2.0
 40
3.0
 40
3.0
 40
3.0
 40
4.0
 40
4.0
 40
4.0
 40
5.0
 40
5.0
 40
5.0
 40
6.0
 40
6.0
 40
6.0
 40
6.0
 10
6.265838214494553
 20
-85.42470334446011
 30
0.0
 10
6.265838214494553
 20
-85.42470334446011
 30
0.0
 10
6.305690978659223
 20
-85.26129331070781
 30
0.0
 10
6.305690978659223
 20
-85.26129331070781
 30
0.0
 10
6.30762718457202
 20
-85.2533644385634
 30
0.0
 10
6.302527548598593
 20
-85.24686977463129
 30
0.0
 10
6.294362563302671
 20
-85.24686977463129
 30
0.0
 10
6.294362563302671
 20
-85.24686977463129
 30
0.0
 10
5.471554961223786
 20
-85.24686977463129
 30
0.0
 10
5.471554961223786
 20
-85.24686977463129
 30
0.0
 10
5.4633889448652
 20
-85.24686977463129
 30
0.0
 10
5.455111573738084
 20
-85.2533592832499
 30
0.0
 10
5.453163896351549
 20
-85.26128815539434
 30
0.0
 10
5.453163896351549
 20
-85.26128815539434
 30
0.0
 10
5.412811303803829
 20
-85.42549829379995
 30
0.0
 10
5.412811303803829
 20
-85.42549829379995
 30
0.0
 10
5.412811303803829
 20
-85.42549829379995
 30
0.0
 10
6.265838214494553
 20
-85.42470334446011
 30
0.0
 10
6.265838214494553
 20
-85.42470334446011
 30
0.0
  0
HATCH
  5
81
330
7C
100
AcDbEntity
  8
Layer 1
 62
   250
420
  4078911
100
AcDbHatch
 10
0.0
 20
0.0
 30
0.0
210
0.0
220
0.0
230
1.0
  2
SOLID
 70
     1
 71
     0
 91
        1
 92
        1
 93
        1
 72
     4
 94
        3
 73
     0
 74
     1
 95
       23
 96
       19
 40
0.0
 40
0.0
 40
0.0
 40
0.0
 40
1.0
 40
1.0
 40
1.0
 40
2.0
 40
2.0
 40
2.0
 40
3.0
 40
3.0
 40
3.0
 40
4.0
 40
4.0
 40
4.0
 40
5.0
 40
5.0
 40
5.0
 40
6.0
 40
6.0
 40
6.0
 40
6.0
 10
6.265838214494553
 20
-85.42470334446011
 10
6.265838214494553
 20
-85.42470334446011
 10
6.305690978659223
 20
-85.26129331070781
 10
6.305690978659223
 20
-85.26129331070781
 10
6.30762718457202
 20
-85.2533644385634
 10
6.302527548598593
 20
-85.24686977463129
 10
6.294362563302671
 20
-85.24686977463129
 10
6.294362563302671
 20
-85.24686977463129
 10
5.471554961223786
 20
-85.24686977463129
 10
5.471554961223786
 20
-85.24686977463129
 10
5.4633889448652
 20
-85.24686977463129
 10
5.455111573738084
 20
-85.2533592832499
 10
5.453163896351549
 20
-85.26128815539434
 10
5.453163896351549
 20
-85.26128815539434
 10
5.412811303803829
 20
-85.42549829379995
 10
5.412811303803829
 20
-85.42549829379995
 10
5.412811303803829
 20
-85.42549829379995
 10
6.265838214494553
 20
-85.42470334446011
 10
6.265838214494553
 20
-85.42470334446011
 97
        0
 97
        0
 75
     2
 76
     1
 98
        0
  0
SPLINE
  5
82
330
7C
100
AcDbEntity
  8
Layer 1
370
     0
100
AcDbSpline
210
0.0
220
0.0
230
1.0
 70
    11
 71
     3
 72
    41
 73
    37
 74
     0
 42
0.0000000001
 43
0.0000000001
 12
1.0
 22
0.0
 32
0.0
 13
1.0
 23
0.0
 33
0.0
 40
0.0
 40
0.0
 40
0.0
 40
0.0
 40
1.0
 40
1.0
 40
1.0
 40
2.0
 40
2.0
 40
2.0
 40
3.0
 40
3.0
 40
3.0
 40
4.0
 40
4.0
 40
4.0
 40
5.0
 40
5.0
 40
5.0
 40
6.0
 40
6.0
 40
6.0
 40
7.0
 40
7.0
 40
7.0
 40
8.0
 40
8.0
 40
8.0
 40
9.0
 40
9.0
 40
9.0
 40
10.0
 40
10.0
 40
10.0
 40
11.0
 40
11.0
 40
11.0
 40
12.0
 40
12.0
 40
12.0
 40
12.0
 10
5.958019609219932
 20
-85.45410409728176
 30
0.0
 10
5.958019609219932
 20
-85.45410409728176
 30
0.0
 10
5.880473385693486
 20
-85.77122186480207
 30
0.0
 10
5.880473385693486
 20
-85.77122186480207
 30
0.0
 10
5.87853395680832
 20
-85.77915589226
 30
0.0
 10
5.87026586524525
 20
-85.7856454008786
 30
0.0
 10
5.862099848886664
 20
-85.7856454008786
 30
0.0
 10
5.862099848886664
 20
-85.7856454008786
 30
0.0
 10
5.638777860607345
 20
-85.7856454008786
 30
0.0
 10
5.638777860607345
 20
-85.7856454008786
 30
0.0
 10
5.630611844248758
 20
-85.7856454008786
 30
0.0
 10
5.625516332526002
 20
-85.77915589226
 30
0.0
 10
5.627457936187258
 20
-85.77122186480207
 30
0.0
 10
5.627457936187258
 20
-85.77122186480207
 30
0.0
 10
5.707611604559284
 20
-85.44343156729906
 30
0.0
 10
5.707611604559284
 20
-85.44343156729906
 30
0.0
 10
5.707611604559284
 20
-85.44343156729906
 30
0.0
 10
5.411505871233354
 20
-85.43080929775523
 30
0.0
 10
5.411505871233354
 20
-85.43080929775523
 30
0.0
 10
5.411505871233354
 20
-85.43080929775523
 30
0.0
 10
5.284270675440098
 20
-85.94858114579
 30
0.0
 10
5.284270675440098
 20
-85.94858114579
 30
0.0
 10
5.282321966990897
 20
-85.95651104899711
 30
0.0
 10
5.287408199149594
 20
-85.96300055761573
 30
0.0
 10
5.29557421550818
 20
-85.96300055761573
 30
0.0
 10
5.29557421550818
 20
-85.96300055761573
 30
0.0
 10
6.119704670994653
 20
-85.96300055761573
 30
0.0
 10
6.119704670994653
 20
-85.96300055761573
 30
0.0
 10
6.12787068735324
 20
-85.96300055761573
 30
0.0
 10
6.136134654665625
 20
-85.95651104899711
 30
0.0
 10
6.138069959300108
 20
-85.9485759904765
 30
0.0
 10
6.138069959300108
 20
-85.9485759904765
 30
0.0
 10
6.255575016662053
 20
-85.46678616846206
 30
0.0
 10
6.255575016662053
 20
-85.46678616846206
 30
0.0
 10
6.255575016662053
 20
-85.46678616846206
 30
0.0
 10
5.958019609219932
 20
-85.45410409728176
 30
0.0
 10
5.958019609219932
 20
-85.45410409728176
 30
0.0
  0
HATCH
  5
83
330
7C
100
AcDbEntity
  8
Layer 1
 62
   250
420
  4078911
100
AcDbHatch
 10
0.0
 20
0.0
 30
0.0
210
0.0
220
0.0
230
1.0
  2
SOLID
 70
     1
 71
     0
 91
        1
 92
        1
 93
        1
 72
     4
 94
        3
 73
     0
 74
     1
 95
       41
 96
       37
 40
0.0
 40
0.0
 40
0.0
 40
0.0
 40
1.0
 40
1.0
 40
1.0
 40
2.0
 40
2.0
 40
2.0
 40
3.0
 40
3.0
 40
3.0
 40
4.0
 40
4.0
 40
4.0
 40
5.0
 40
5.0
 40
5.0
 40
6.0
 40
6.0
 40
6.0
 40
7.0
 40
7.0
 40
7.0
 40
8.0
 40
8.0
 40
8.0
 40
9.0
 40
9.0
 40
9.0
 40
10.0
 40
10.0
 40
10.0
 40
11.0
 40
11.0
 40
11.0
 40
12.0
 40
12.0
 40
12.0
 40
12.0
 10
5.958019609219932
 20
-85.45410409728176
 10
5.958019609219932
 20
-85.45410409728176
 10
5.880473385693486
 20
-85.77122186480207
 10
5.880473385693486
 20
-85.77122186480207
 10
5.87853395680832
 20
-85.77915589226
 10
5.87026586524525
 20
-85.7856454008786
 10
5.862099848886664
 20
-85.7856454008786
 10
5.862099848886664
 20
-85.7856454008786
 10
5.638777860607345
 20
-85.7856454008786
 10
5.638777860607345
 20
-85.7856454008786
 10
5.630611844248758
 20
-85.7856454008786
 10
5.625516332526002
 20
-85.77915589226
 10
5.627457936187258
 20
-85.77122186480207
 10
5.627457936187258
 20
-85.77122186480207
 10
5.707611604559284
 20
-85.44343156729906
 10
5.707611604559284
 20
-85.44343156729906
 10
5.707611604559284
 20
-85.44343156729906
 10
5.411505871233354
 20
-85.43080929775523
 10
5.411505871233354
 20
-85.43080929775523
 10
5.411505871233354
 20
-85.43080929775523
 10
5.284270675440098
 20
-85.94858114579
 10
5.284270675440098
 20
-85.94858114579
 10
5.282321966990897
 20
-85.95651104899711
 10
5.287408199149594
 20
-85.96300055761573
 10
5.29557421550818
 20
-85.96300055761573
 10
5.29557421550818
 20
-85.96300055761573
 10
6.119704670994653
 20
-85.96300055761573
 10
6.119704670994653
 20
-85.96300055761573
 10
6.12787068735324
 20
-85.96300055761573
 10
6.136134654665625
 20
-85.95651104899711
 10
6.138069959300108
 20
-85.9485759904765
 10
6.138069959300108
 20
-85.9485759904765
 10
6.255575016662053
 20
-85.46678616846206
 10
6.255575016662053
 20
-85.46678616846206
 10
6.255575016662053
 20
-85.46678616846206
 10
5.958019609219932
 20
-85.45410409728176
 10
5.958019609219932
 20
-85.45410409728176
 97
        0
 97
        0
 75
     2
 76
     1
 98
        0
  0
ENDBLK
  5
7F
330
7C
100
AcDbEntity
  8
0
100
AcDbBlockEnd
  0
ENDSEC
  0
SECTION
  2
ENTITIES
  0
POLYLINE
  5
41
330
1F
100
AcDbEntity
  8
Layer 2
370
     0
100
AcDb2dPolyline
 66
     1
 10
0.0
 20
0.0
 30
0.0
  0
VERTEX
  5
42
330
41
100
AcDbEntity
  8
Layer 2
370
     0
100
AcDbVertex
100
AcDb2dVertex
 10
26.24163611111112
 20
-93.75093055555554
 30
0.0
  0
VERTEX
  5
43
330
41
100
AcDbEntity
  8
Layer 2
370
     0
100
AcDbVertex
100
AcDb2dVertex
 10
-0.4111958333333329
 20
-93.75093055555554
 30
0.0
  0
VERTEX
  5
44
330
41
100
AcDbEntity
  8
Layer 2
370
     0
100
AcDbVertex
100
AcDb2dVertex
 10
-0.4111958333333329
 20
-78.77564305555555
 30
0.0
  0
VERTEX
  5
45
330
41
100
AcDbEntity
  8
Layer 2
370
     0
100
AcDbVertex
100
AcDb2dVertex
 10
26.24163611111112
 20
-78.77564305555555
 30
0.0
  0
VERTEX
  5
46
330
41
100
AcDbEntity
  8
Layer 2
370
     0
100
AcDbVertex
100
AcDb2dVertex
 10
26.24163611111112
 20
-93.75093055555554
 30
0.0
  0
SEQEND
  5
48
330
41
100
AcDbEntity
  8
Layer 2
370
     0
  0
HATCH
  5
47
330
1F
100
AcDbEntity
  8
Layer 2
 62
   254
420
 15395563
100
AcDbHatch
 10
0.0
 20
0.0
 30
0.0
210
0.0
220
0.0
230
1.0
  2
SOLID
 70
     1
 71
     0
 91
        1
 92
        1
 93
        4
 72
     1
 10
26.24163611111112
 20
-93.75093055555554
 11
-0.4111958333333341
 21
-93.75093055555554
 72
     1
 10
-0.4111958333333329
 20
-93.75093055555554
 11
-0.4111958333333329
 21
-78.77564305555555
 72
     1
 10
-0.4111958333333329
 20
-78.77564305555555
 11
26.24163611111112
 21
-78.77564305555555
 72
     1
 10
26.24163611111112
 20
-78.77564305555555
 11
26.24163611111112
 21
-93.75093055555554
 97
        0
 75
     2
 76
     1
 98
        0
  0
INSERT
  5
4B
330
1F
100
AcDbEntity
  8
Layer 1
100
AcDbBlockReference
  2
block 2
 10
0.0
 20
0.0
 30
0.0
  0
ENDSEC
  0
SECTION
  2
OBJECTS
  0
DICTIONARY
  5
C
330
0
100
AcDbDictionary
281
     1
  3
ACAD_GROUP
350
D
  3
ACAD_LAYOUT
350
1A
  3
ACAD_MATERIAL
350
3B
  3
ACAD_MLEADERSTYLE
350
85
  3
ACAD_MLINESTYLE
350
17
  3
ACAD_PLOTSETTINGS
350
19
  3
ACAD_PLOTSTYLENAME
350
E
  3
ACAD_TABLESTYLE
350
84
  3
ACAD_VISUALSTYLE
350
2A
  0
SUN
  5
3F
330
29
100
AcDbSun
 90
        1
290
     0
 63
     7
421
 16777215
 40
1.0
291
     1
 91
  2455826
 92
 54000000
292
     0
 70
     2
 71
   256
280
     1
  0
DICTIONARY
  5
D
102
{ACAD_REACTORS
330
C
102
}
330
C
100
AcDbDictionary
281
     1
  0
DICTIONARY
  5
1A
102
{ACAD_REACTORS
330
C
102
}
330
C
100
AcDbDictionary
281
     1
  3
Layout1
350
1E
  3
Layout2
350
26
  3
Model
350
22
  0
DICTIONARY
  5
3B
102
{ACAD_REACTORS
330
C
102
}
330
C
100
AcDbDictionary
281
     1
  3
ByBlock
350
3D
  3
ByLayer
350
3C
  3
Global
350
3E
  0
DICTIONARY
  5
85
102
{ACAD_REACTORS
330
C
102
}
330
C
100
AcDbDictionary
281
     1
  0
DICTIONARY
  5
17
102
{ACAD_REACTORS
330
C
102
}
330
C
100
AcDbDictionary
281
     1
  3
Standard
350
18
  0
DICTIONARY
  5
19
102
{ACAD_REACTORS
330
C
102
}
330
C
100
AcDbDictionary
281
     1
  0
ACDBDICTIONARYWDFLT
  5
E
102
{ACAD_REACTORS
330
C
102
}
330
C
100
AcDbDictionary
281
     1
  3
Normal
350
F
100
AcDbDictionaryWithDefault
340
F
  0
DICTIONARY
  5
84
102
{ACAD_REACTORS
330
C
102
}
330
C
100
AcDbDictionary
281
     1
  0
DICTIONARY
  5
2A
102
{ACAD_REACTORS
330
C
102
}
330
C
100
AcDbDictionary
281
     1
  3
2dWireframe
350
2F
  3
3D Hidden
350
31
  3
3dWireframe
350
30
  3
Basic
350
32
  3
Brighten
350
36
  3
ColorChange
350
3A
  3
Conceptual
350
34
  3
Dim
350
35
  3
Facepattern
350
39
  3
Flat
350
2B
  3
FlatWithEdges
350
2C
  3
Gouraud
350
2D
  3
GouraudWithEdges
350
2E
  3
Linepattern
350
38
  3
Realistic
350
33
  3
Thicken
350
37
  0
LAYOUT
  5
1E
102
{ACAD_REACTORS
330
1A
102
}
330
1A
100
AcDbPlotSettings
  1

  2
none_device
  4

  6

 40
0.0
 41
0.0
 42
0.0
 43
0.0
 44
0.0
 45
0.0
 46
0.0
 47
0.0
 48
0.0
 49
0.0
140
0.0
141
0.0
142
1.0
143
1.0
 70
   688
 72
     0
 73
     0
 74
     5
  7

 75
    16
 76
     0
 77
     2
 78
   300
147
1.0
148
0.0
149
0.0
100
AcDbLayout
  1
Layout1
 70
     1
 71
     1
 10
0.0
 20
0.0
 11
12.0
 21
9.0
 12
0.0
 22
0.0
 32
0.0
 14
1.000000000000000E+20
 24
1.000000000000000E+20
 34
1.000000000000000E+20
 15
-1.000000000000000E+20
 25
-1.000000000000000E+20
 35
-1.000000000000000E+20
146
0.0
 13
0.0
 23
0.0
 33
0.0
 16
1.0
 26
0.0
 36
0.0
 17
0.0
 27
1.0
 37
0.0
 76
     0
330
1B
  0
LAYOUT
  5
26
102
{ACAD_REACTORS
330
1A
102
}
330
1A
100
AcDbPlotSettings
  1

  2
none_device
  4

  6

 40
0.0
 41
0.0
 42
0.0
 43
0.0
 44
0.0
 45
0.0
 46
0.0
 47
0.0
 48
0.0
 49
0.0
140
0.0
141
0.0
142
1.0
143
1.0
 70
   688
 72
     0
 73
     0
 74
     5
  7

 75
    16
 76
     0
 77
     2
 78
   300
147
1.0
148
0.0
149
0.0
100
AcDbLayout
  1
Layout2
 70
     1
 71
     2
 10
0.0
 20
0.0
 11
0.0
 21
0.0
 12
0.0
 22
0.0
 32
0.0
 14
0.0
 24
0.0
 34
0.0
 15
0.0
 25
0.0
 35
0.0
146
0.0
 13
0.0
 23
0.0
 33
0.0
 16
1.0
 26
0.0
 36
0.0
 17
0.0
 27
1.0
 37
0.0
 76
     0
330
23
  0
LAYOUT
  5
22
102
{ACAD_REACTORS
330
1A
102
}
330
1A
100
AcDbPlotSettings
  1

  2
none_device
  4

  6

 40
0.0
 41
0.0
 42
0.0
 43
0.0
 44
0.0
 45
0.0
 46
0.0
 47
0.0
 48
0.0
 49
0.0
140
0.0
141
0.0
142
1.0
143
1.0
 70
  1712
 72
     0
 73
     0
 74
     0
  7

 75
     0
 76
     0
 77
     2
 78
   300
147
1.0
148
0.0
149
0.0
100
AcDbLayout
  1
Model
 70
     1
 71
     0
 10
0.0
 20
0.0
 11
12.0
 21
9.0
 12
0.0
 22
0.0
 32
0.0
 14
1.000000000000000E+20
 24
1.000000000000000E+20
 34
1.000000000000000E+20
 15
-1.000000000000000E+20
 25
-1.000000000000000E+20
 35
-1.000000000000000E+20
146
0.0
 13
0.0
 23
0.0
 33
0.0
 16
1.0
 26
0.0
 36
0.0
 17
0.0
 27
1.0
 37
0.0
 76
     0
330
1F
331
29
  0
MATERIAL
  5
3D
102
{ACAD_REACTORS
330
3B
102
}
330
3B
100
AcDbMaterial
  1
ByBlock
 72
     1
 94
      127
  0
MATERIAL
  5
3C
102
{ACAD_REACTORS
330
3B
102
}
330
3B
100
AcDbMaterial
  1
ByLayer
 72
     1
 94
      127
  0
MATERIAL
  5
3E
102
{ACAD_REACTORS
330
3B
102
}
330
3B
100
AcDbMaterial
  1
Global
 72
     1
 94
      127
  0
MLINESTYLE
  5
18
102
{ACAD_REACTORS
330
17
102
}
330
17
100
AcDbMlineStyle
  2
Standard
 70
     0
  3

 62
   256
 51
90.0
 52
90.0
 71
     2
 49
0.5
 62
   256
  6
BYLAYER
 49
-0.5
 62
   256
  6
BYLAYER
  0
ACDBPLACEHOLDER
  5
F
102
{ACAD_REACTORS
330
E
102
}
330
E
  0
VISUALSTYLE
  5
2F
102
{ACAD_REACTORS
330
2A
102
}
330
2A
100
AcDbVisualStyle
  2
2dWireframe
 70
     4
177
     2
291
     0
 71
     0
176
     1
 72
     2
176
     1
 73
     0
176
     1
 90
        0
176
     1
 40
-0.6
176
     1
 41
-30.0
176
     1
 62
     5
 63
     7
421
 16777215
176
     1
 74
     1
176
     1
 91
        4
176
     1
 64
     7
176
     1
 65
   257
176
     1
 75
     1
176
     1
175
     1
176
     1
 42
1.0
176
     1
 92
        0
176
     1
 66
   257
176
     1
 43
1.0
176
     1
 76
     1
176
     1
 77
     6
176
     1
 78
     2
176
     1
 67
     7
176
     1
 79
     5
176
     1
170
     0
176
     1
171
     0
176
     1
290
     0
176
     1
 93
        1
176
     1
 44
0.0
176
     1
173
     0
176
     1
  0
VISUALSTYLE
  5
31
102
{ACAD_REACTORS
330
2A
102
}
330
2A
100
AcDbVisualStyle
  2
3D Hidden
 70
     6
177
     2
291
     0
 71
     1
176
     1
 72
     2
176
     1
 73
     2
176
     1
 90
        0
176
     1
 40
-0.6
176
     1
 41
-30.0
176
     1
 62
     5
 63
     7
421
 16777215
176
     1
 74
     2
176
     1
 91
        2
176
     1
 64
     7
176
     1
 65
   257
176
     1
 75
     2
176
     1
175
     1
176
     1
 42
40.0
176
     1
 92
        0
176
     1
 66
   257
176
     1
 43
1.0
176
     1
 76
     1
176
     1
 77
     6
176
     1
 78
     2
176
     1
 67
     7
176
     1
 79
     3
176
     1
170
     0
176
     1
171
     0
176
     1
290
     0
176
     1
 93
        1
176
     1
 44
0.0
176
     1
173
     0
176
     1
  0
VISUALSTYLE
  5
30
102
{ACAD_REACTORS
330
2A
102
}
330
2A
100
AcDbVisualStyle
  2
3dWireframe
 70
     5
177
     2
291
     0
 71
     0
176
     1
 72
     2
176
     1
 73
     0
176
     1
 90
        0
176
     1
 40
-0.6
176
     1
 41
-30.0
176
     1
 62
     5
 63
     7
421
 16777215
176
     1
 74
     1
176
     1
 91
        4
176
     1
 64
     7
176
     1
 65
   257
176
     1
 75
     1
176
     1
175
     1
176
     1
 42
1.0
176
     1
 92
        0
176
     1
 66
   257
176
     1
 43
1.0
176
     1
 76
     1
176
     1
 77
     6
176
     1
 78
     2
176
     1
 67
     7
176
     1
 79
     5
176
     1
170
     0
176
     1
171
     0
176
     1
290
     0
176
     1
 93
        1
176
     1
 44
0.0
176
     1
173
     0
176
     1
  0
VISUALSTYLE
  5
32
102
{ACAD_REACTORS
330
2A
102
}
330
2A
100
AcDbVisualStyle
  2
Basic
 70
     7
177
     2
291
     1
 71
     1
176
     1
 72
     0
176
     1
 73
     1
176
     1
 90
        0
176
     1
 40
-0.6
176
     1
 41
-30.0
176
     1
 62
     5
 63
     7
421
 16777215
176
     1
 74
     0
176
     1
 91
        4
176
     1
 64
     7
176
     1
 65
   257
176
     1
 75
     1
176
     1
175
     1
176
     1
 42
1.0
176
     1
 92
        8
176
     1
 66
     7
176
     1
 43
1.0
176
     1
 76
     1
176
     1
 77
     6
176
     1
 78
     2
176
     1
 67
     7
176
     1
 79
     5
176
     1
170
     0
176
     1
171
     0
176
     1
290
     0
176
     1
 93
        1
176
     1
 44
0.0
176
     1
173
     0
176
     1
  0
VISUALSTYLE
  5
36
102
{ACAD_REACTORS
330
2A
102
}
330
2A
100
AcDbVisualStyle
  2
Brighten
 70
    12
177
     2
291
     1
 71
     2
176
     1
 72
     2
176
     1
 73
     0
176
     1
 90
        0
176
     1
 40
-0.6
176
     1
 41
-30.0
176
     1
 62
     5
 63
     7
421
 16777215
176
     1
 74
     1
176
     1
 91
        4
176
     1
 64
     7
176
     1
 65
   257
176
     1
 75
     1
176
     1
175
     1
176
     1
 42
1.0
176
     1
 92
        8
176
     1
 66
     7
176
     1
 43
1.0
176
     1
 76
     1
176
     1
 77
     6
176
     1
 78
     2
176
     1
 67
     7
176
     1
 79
     5
176
     1
170
     0
176
     1
171
     0
176
     1
290
     0
176
     1
 93
        1
176
     1
 44
50.0
176
     1
173
     0
176
     1
  0
VISUALSTYLE
  5
3A
102
{ACAD_REACTORS
330
2A
102
}
330
2A
100
AcDbVisualStyle
  2
ColorChange
 70
    16
177
     2
291
     1
 71
     2
176
     1
 72
     2
176
     1
 73
     3
176
     1
 90
        0
176
     1
 40
-0.6
176
     1
 41
-30.0
176
     1
 62
     5
 63
     8
421
  8421504
176
     1
 74
     1
176
     1
 91
        4
176
     1
 64
     7
176
     1
 65
   257
176
     1
 75
     1
176
     1
175
     1
176
     1
 42
1.0
176
     1
 92
        8
176
     1
 66
     8
424
  8421504
176
     1
 43
1.0
176
     1
 76
     1
176
     1
 77
     6
176
     1
 78
     2
176
     1
 67
     7
176
     1
 79
     5
176
     1
170
     0
176
     1
171
     0
176
     1
290
     0
176
     1
 93
        1
176
     1
 44
0.0
176
     1
173
     0
176
     1
  0
VISUALSTYLE
  5
34
102
{ACAD_REACTORS
330
2A
102
}
330
2A
100
AcDbVisualStyle
  2
Conceptual
 70
     9
177
     2
291
     0
 71
     3
176
     1
 72
     2
176
     1
 73
     0
176
     1
 90
        0
176
     1
 40
-0.6
176
     1
 41
-30.0
176
     1
 62
     5
 63
     7
421
 16777215
176
     1
 74
     2
176
     1
 91
        2
176
     1
 64
     7
176
     1
 65
   257
176
     1
 75
     1
176
     1
175
     1
176
     1
 42
40.0
176
     1
 92
        8
176
     1
 66
     7
176
     1
 43
1.0
176
     1
 76
     1
176
     1
 77
     6
176
     1
 78
     2
176
     1
 67
     7
176
     1
 79
     3
176
     1
170
     0
176
     1
171
     0
176
     1
290
     0
176
     1
 93
        1
176
     1
 44
0.0
176
     1
173
     0
176
     1
  0
VISUALSTYLE
  5
35
102
{ACAD_REACTORS
330
2A
102
}
330
2A
100
AcDbVisualStyle
  2
Dim
 70
    11
177
     2
291
     1
 71
     2
176
     1
 72
     2
176
     1
 73
     0
176
     1
 90
        0
176
     1
 40
-0.6
176
     1
 41
-30.0
176
     1
 62
     5
 63
     7
421
 16777215
176
     1
 74
     1
176
     1
 91
        4
176
     1
 64
     7
176
     1
 65
   257
176
     1
 75
     1
176
     1
175
     1
176
     1
 42
1.0
176
     1
 92
        8
176
     1
 66
     7
176
     1
 43
1.0
176
     1
 76
     1
176
     1
 77
     6
176
     1
 78
     2
176
     1
 67
     7
176
     1
 79
     5
176
     1
170
     0
176
     1
171
     0
176
     1
290
     0
176
     1
 93
        1
176
     1
 44
-50.0
176
     1
173
     0
176
     1
  0
VISUALSTYLE
  5
39
102
{ACAD_REACTORS
330
2A
102
}
330
2A
100
AcDbVisualStyle
  2
Facepattern
 70
    15
177
     2
291
     1
 71
     2
176
     1
 72
     2
176
     1
 73
     0
176
     1
 90
        0
176
     1
 40
-0.6
176
     1
 41
-30.0
176
     1
 62
     5
 63
     7
421
 16777215
176
     1
 74
     1
176
     1
 91
        4
176
     1
 64
     7
176
     1
 65
   257
176
     1
 75
     1
176
     1
175
     1
176
     1
 42
1.0
176
     1
 92
        8
176
     1
 66
     7
176
     1
 43
1.0
176
     1
 76
     1
176
     1
 77
     6
176
     1
 78
     2
176
     1
 67
     7
176
     1
 79
     5
176
     1
170
     0
176
     1
171
     0
176
     1
290
     0
176
     1
 93
        1
176
     1
 44
0.0
176
     1
173
     0
176
     1
  0
VISUALSTYLE
  5
2B
102
{ACAD_REACTORS
330
2A
102
}
330
2A
100
AcDbVisualStyle
  2
Flat
 70
     0
177
     2
291
     1
 71
     2
176
     1
 72
     1
176
     1
 73
     1
176
     1
 90
        2
176
     1
 40
-0.6
176
     1
 41
30.0
176
     1
 62
     5
 63
     7
421
 16777215
176
     1
 74
     0
176
     1
 91
        4
176
     1
 64
     7
176
     1
 65
   257
176
     1
 75
     1
176
     1
175
     1
176
     1
 42
1.0
176
     1
 92
        8
176
     1
 66
     7
176
     1
 43
1.0
176
     1
 76
     1
176
     1
 77
     6
176
     1
 78
     2
176
     1
 67
     7
176
     1
 79
     5
176
     1
170
     0
176
     1
171
     0
176
     1
290
     0
176
     1
 93
       13
176
     1
 44
0.0
176
     1
173
     0
176
     1
  0
VISUALSTYLE
  5
2C
102
{ACAD_REACTORS
330
2A
102
}
330
2A
100
AcDbVisualStyle
  2
FlatWithEdges
 70
     1
177
     2
291
     1
 71
     2
176
     1
 72
     1
176
     1
 73
     1
176
     1
 90
        2
176
     1
 40
-0.6
176
     1
 41
30.0
176
     1
 62
     5
 63
     7
421
 16777215
176
     1
 74
     1
176
     1
 91
        4
176
     1
 64
     7
176
     1
 65
   257
176
     1
 75
     1
176
     1
175
     1
176
     1
 42
1.0
176
     1
 92
        0
176
     1
 66
   257
176
     1
 43
1.0
176
     1
 76
     1
176
     1
 77
     6
176
     1
 78
     2
176
     1
 67
     7
176
     1
 79
     5
176
     1
170
     0
176
     1
171
     0
176
     1
290
     0
176
     1
 93
       13
176
     1
 44
0.0
176
     1
173
     0
176
     1
  0
VISUALSTYLE
  5
2D
102
{ACAD_REACTORS
330
2A
102
}
330
2A
100
AcDbVisualStyle
  2
Gouraud
 70
     2
177
     2
291
     1
 71
     2
176
     1
 72
     2
176
     1
 73
     1
176
     1
 90
        2
176
     1
 40
-0.6
176
     1
 41
30.0
176
     1
 62
     5
 63
     7
421
 16777215
176
     1
 74
     0
176
     1
 91
        4
176
     1
 64
     7
176
     1
 65
   257
176
     1
 75
     1
176
     1
175
     1
176
     1
 42
1.0
176
     1
 92
        0
176
     1
 66
     7
176
     1
 43
1.0
176
     1
 76
     1
176
     1
 77
     6
176
     1
 78
     2
176
     1
 67
     7
176
     1
 79
     5
176
     1
170
     0
176
     1
171
     0
176
     1
290
     0
176
     1
 93
       13
176
     1
 44
0.0
176
     1
173
     0
176
     1
  0
VISUALSTYLE
  5
2E
102
{ACAD_REACTORS
330
2A
102
}
330
2A
100
AcDbVisualStyle
  2
GouraudWithEdges
 70
     3
177
     2
291
     1
 71
     2
176
     1
 72
     2
176
     1
 73
     1
176
     1
 90
        2
176
     1
 40
-0.6
176
     1
 41
30.0
176
     1
 62
     5
 63
     7
421
 16777215
176
     1
 74
     1
176
     1
 91
        4
176
     1
 64
     7
176
     1
 65
   257
176
     1
 75
     1
176
     1
175
     1
176
     1
 42
1.0
176
     1
 92
        0
176
     1
 66
   257
176
     1
 43
1.0
176
     1
 76
     1
176
     1
 77
     6
176
     1
 78
     2
176
     1
 67
     7
176
     1
 79
     5
176
     1
170
     0
176
     1
171
     0
176
     1
290
     0
176
     1
 93
       13
176
     1
 44
0.0
176
     1
173
     0
176
     1
  0
VISUALSTYLE
  5
38
102
{ACAD_REACTORS
330
2A
102
}
330
2A
100
AcDbVisualStyle
  2
Linepattern
 70
    14
177
     2
291
     1
 71
     2
176
     1
 72
     2
176
     1
 73
     0
176
     1
 90
        0
176
     1
 40
-0.6
176
     1
 41
-30.0
176
     1
 62
     5
 63
     7
421
 16777215
176
     1
 74
     1
176
     1
 91
        4
176
     1
 64
     7
176
     1
 65
   257
176
     1
 75
     7
176
     1
175
     7
176
     1
 42
1.0
176
     1
 92
        8
176
     1
 66
     7
176
     1
 43
1.0
176
     1
 76
     1
176
     1
 77
     6
176
     1
 78
     2
176
     1
 67
     7
176
     1
 79
     5
176
     1
170
     0
176
     1
171
     0
176
     1
290
     0
176
     1
 93
        1
176
     1
 44
0.0
176
     1
173
     0
176
     1
  0
VISUALSTYLE
  5
33
102
{ACAD_REACTORS
330
2A
102
}
330
2A
100
AcDbVisualStyle
  2
Realistic
 70
     8
177
     2
291
     0
 71
     2
176
     1
 72
     2
176
     1
 73
     0
176
     1
 90
        0
176
     1
 40
-0.6
176
     1
 41
-30.0
176
     1
 62
     5
 63
     7
421
 16777215
176
     1
 74
     1
176
     1
 91
        0
176
     1
 64
     7
176
     1
 65
   257
176
     1
 75
     1
176
     1
175
     1
176
     1
 42
1.0
176
     1
 92
        8
176
     1
 66
     8
424
  7895160
176
     1
 43
1.0
176
     1
 76
     1
176
     1
 77
     6
176
     1
 78
     2
176
     1
 67
     7
176
     1
 79
     5
176
     1
170
     0
176
     1
171
     0
176
     1
290
     0
176
     1
 93
       13
176
     1
 44
0.0
176
     1
173
     0
176
     1
  0
VISUALSTYLE
  5
37
102
{ACAD_REACTORS
330
2A
102
}
330
2A
100
AcDbVisualStyle
  2
Thicken
 70
    13
177
     2
291
     1
 71
     2
176
     1
 72
     2
176
     1
 73
     0
176
     1
 90
        0
176
     1
 40
-0.6
176
     1
 41
-30.0
176
     1
 62
     5
 63
     7
421
 16777215
176
     1
 74
     1
176
     1
 91
        4
176
     1
 64
     7
176
     1
 65
   257
176
     1
 75
     1
176
     1
175
     1
176
     1
 42
1.0
176
     1
 92
       12
176
     1
 66
     7
176
     1
 43
1.0
176
     1
 76
     1
176
     1
 77
     6
176
     1
 78
     2
176
     1
 67
     7
176
     1
 79
     5
176
     1
170
     0
176
     1
171
     0
176
     1
290
     0
176
     1
 93
        1
176
     1
 44
0.0
176
     1
173
     0
176
     1
  0
ENDSEC
  0
EOF
