  0
SECTION
  2
HEADER
  9
$ACADVER
  1
AC1012
  9
$DWGCODEPAGE
  3
ansi_1252
  9
$INSBASE
 10
0.0
 20
0.0
 30
0.0
  9
$EXTMIN
 10
-60.952615392
 20
-52.5380041403
 30
0.0
  9
$EXTMAX
 10
34.798384608
 20
58.5735958597
 30
0.0
  9
$LIMMIN
 10
0.0
 20
0.0
  9
$LIMMAX
 10
420.0
 20
297.0
  9
$ORTHOMODE
 70
     0
  9
$REGENMODE
 70
     1
  9
$FILLMODE
 70
     1
  9
$QTEXTMODE
 70
     0
  9
$MIRRTEXT
 70
     1
  9
$DRAGMODE
 70
     2
  9
$LTSCALE
 40
1.0
  9
$OSMODE
 70
    37
  9
$ATTMODE
 70
     1
  9
$TEXTSIZE
 40
6.35
  9
$TRACEWID
 40
1.0
  9
$TEXTSTYLE
  7
STANDARD
  9
$CLAYER
  8
0
  9
$CELTYPE
  6
BYLAYER
  9
$CECOLOR
 62
   256
  9
$CELTSCALE
 40
1.0
  9
$DELOBJ
 70
     1
  9
$DISPSILH
 70
     0
  9
$DIMSCALE
 40
1.0
  9
$DIMASZ
 40
5.9944
  9
$DIMEXO
 40
0.9906
  9
$DIMDLI
 40
3.75
  9
$DIMRND
 40
0.0
  9
$DIMDLE
 40
0.0
  9
$DIMEXE
 40
0.9906
  9
$DIMTP
 40
0.0
  9
$DIMTM
 40
0.0
  9
$DIMTXT
 40
6.35
  9
$DIMCEN
 40
2.5
  9
$DIMTSZ
 40
0.0
  9
$DIMTOL
 70
     0
  9
$DIMLIM
 70
     0
  9
$DIMTIH
 70
     1
  9
$DIMTOH
 70
     1
  9
$DIMSE1
 70
     0
  9
$DIMSE2
 70
     0
  9
$DIMTAD
 70
     1
  9
$DIMZIN
 70
     0
  9
$DIMBLK
  1

  9
$DIMASO
 70
     1
  9
$DIMSHO
 70
     1
  9
$DIMPOST
  1

  9
$DIMAPOST
  1

  9
$DIMALT
 70
     0
  9
$DIMALTD
 70
     3
  9
$DIMALTF
 40
0.0393700787
  9
$DIMLFAC
 40
1.0
  9
$DIMTOFL
 70
     1
  9
$DIMTVP
 40
0.0
  9
$DIMTIX
 70
     0
  9
$DIMSOXD
 70
     0
  9
$DIMSAH
 70
     0
  9
$DIMBLK1
  1

  9
$DIMBLK2
  1

  9
$DIMSTYLE
  2
ISO-25
  9
$DIMCLRD
 70
     0
  9
$DIMCLRE
 70
     0
  9
$DIMCLRT
 70
     0
  9
$DIMTFAC
 40
1.0
  9
$DIMGAP
 40
1.524
  9
$DIMJUST
 70
     0
  9
$DIMSD1
 70
     0
  9
$DIMSD2
 70
     0
  9
$DIMTOLJ
 70
     0
  9
$DIMTZIN
 70
     0
  9
$DIMALTZ
 70
     0
  9
$DIMALTTZ
 70
     0
  9
$DIMFIT
 70
     3
  9
$DIMUPT
 70
     0
  9
$DIMUNIT
 70
     2
  9
$DIMDEC
 70
     2
  9
$DIMTDEC
 70
     2
  9
$DIMALTU
 70
     2
  9
$DIMALTTD
 70
     3
  9
$DIMTXSTY
  7
STANDARD
  9
$DIMAUNIT
 70
     0
  9
$LUNITS
 70
     2
  9
$LUPREC
 70
     2
  9
$SKETCHINC
 40
1.0
  9
$FILLETRAD
 40
10.0
  9
$AUNITS
 70
     0
  9
$AUPREC
 70
     2
  9
$MENU
  1
.
  9
$ELEVATION
 40
0.0
  9
$PELEVATION
 40
0.0
  9
$THICKNESS
 40
0.0
  9
$LIMCHECK
 70
     0
  9
$CHAMFERA
 40
0.0
  9
$CHAMFERB
 40
0.0
  9
$CHAMFERC
 40
0.0
  9
$CHAMFERD
 40
0.0
  9
$SKPOLY
 70
     0
  9
$TDCREATE
 40
2457430.868882558
  9
$TDUPDATE
 40
2457430.868906713
  9
$TDINDWG
 40
0.0000000116
  9
$TDUSRTIMER
 40
0.0000000116
  9
$USRTIMER
 70
     1
  9
$ANGBASE
 50
0.0
  9
$ANGDIR
 70
     0
  9
$PDMODE
 70
     0
  9
$PDSIZE
 40
-1.0
  9
$PLINEWID
 40
0.0
  9
$COORDS
 70
     1
  9
$SPLFRAME
 70
     0
  9
$SPLINETYPE
 70
     6
  9
$SPLINESEGS
 70
     8
  9
$ATTDIA
 70
     0
  9
$ATTREQ
 70
     1
  9
$HANDLING
 70
     1
  9
$HANDSEED
  5
4E8
  9
$SURFTAB1
 70
     6
  9
$SURFTAB2
 70
     6
  9
$SURFTYPE
 70
     6
  9
$SURFU
 70
     6
  9
$SURFV
 70
     6
  9
$UCSNAME
  2

  9
$UCSORG
 10
0.0
 20
0.0
 30
0.0
  9
$UCSXDIR
 10
1.0
 20
0.0
 30
0.0
  9
$UCSYDIR
 10
0.0
 20
1.0
 30
0.0
  9
$PUCSNAME
  2

  9
$PUCSORG
 10
0.0
 20
0.0
 30
0.0
  9
$PUCSXDIR
 10
1.0
 20
0.0
 30
0.0
  9
$PUCSYDIR
 10
0.0
 20
1.0
 30
0.0
  9
$USERI1
 70
     0
  9
$USERI2
 70
     0
  9
$USERI3
 70
     0
  9
$USERI4
 70
     0
  9
$USERI5
 70
     0
  9
$USERR1
 40
0.0
  9
$USERR2
 40
0.0
  9
$USERR3
 40
0.0
  9
$USERR4
 40
0.0
  9
$USERR5
 40
0.0
  9
$WORLDVIEW
 70
     1
  9
$SHADEDGE
 70
     3
  9
$SHADEDIF
 70
    70
  9
$TILEMODE
 70
     1
  9
$MAXACTVP
 70
    64
  9
$PINSBASE
 10
0.0
 20
0.0
 30
0.0
  9
$PLIMCHECK
 70
     0
  9
$PEXTMIN
 10
1.0000000000E+20
 20
1.0000000000E+20
 30
1.0000000000E+20
  9
$PEXTMAX
 10
-1.0000000000E+20
 20
-1.0000000000E+20
 30
-1.0000000000E+20
  9
$PLIMMIN
 10
0.0
 20
0.0
  9
$PLIMMAX
 10
420.0
 20
297.0
  9
$UNITMODE
 70
     0
  9
$VISRETAIN
 70
     1
  9
$PLINEGEN
 70
     0
  9
$PSLTSCALE
 70
     1
  9
$TREEDEPTH
 70
  3020
  9
$PICKSTYLE
 70
     1
  9
$CMLSTYLE
  2
STANDARD
  9
$CMLJUST
 70
     0
  9
$CMLSCALE
 40
20.0
  9
$SAVEIMAGES
 70
     1
  0
ENDSEC
  0
SECTION
  2
CLASSES
  0
CLASS
  1
ACDBDICTIONARYWDFLT
  2
AcDbDictionaryWithDefault
  3
ObjectDBX Classes
 90
    32768
280
     0
281
     0
  0
CLASS
  1
VISUALSTYLE
  2
AcDbVisualStyle
  3
ObjectDBX Classes
 90
     4095
280
     0
281
     0
  0
CLASS
  1
MATERIAL
  2
AcDbMaterial
  3
ObjectDBX Classes
 90
     1153
280
     0
281
     0
  0
CLASS
  1
SCALE
  2
AcDbScale
  3
ObjectDBX Classes
 90
     1153
280
     0
281
     0
  0
CLASS
  1
TABLESTYLE
  2
AcDbTableStyle
  3
ObjectDBX Classes
 90
     4095
280
     0
281
     0
  0
CLASS
  1
MLEADERSTYLE
  2
AcDbMLeaderStyle
  3
ACDB_MLEADERSTYLE_CLASS
 90
     4095
280
     0
281
     0
  0
CLASS
  1
SUN
  2
AcDbSun
  3
SCENEOE
 90
     1153
280
     0
281
     0
  0
CLASS
  1
XRECORD
  2
AcDbXrecord
  3
ObjectDBX Classes
 90
    32768
280
     0
281
     0
  0
ENDSEC
  0
SECTION
  2
TABLES
  0
TABLE
  2
VPORT
  5
8
330
0
100
AcDbSymbolTable
 70
     1
  0
VPORT
  5
29
330
8
100
AcDbSymbolTableRecord
100
AcDbViewportTableRecord
  2
*ACTIVE
 70
     0
 10
0.0
 20
0.0
 11
1.0
 21
1.0
 12
-13.077115392
 22
3.0177958597
 13
0.0
 23
0.0
 14
10.0
 24
10.0
 15
10.0
 25
10.0
 16
0.0
 26
0.0
 36
1.0
 17
0.0
 27
0.0
 37
0.0
 40
113.333832
 41
0.8617552083
 42
50.0
 43
0.0
 44
0.0
 50
0.0
 51
0.0
 71
     0
 72
   100
 73
     1
 74
     3
 75
     0
 76
     0
 77
     0
 78
     0
  0
ENDTAB
  0
TABLE
  2
LTYPE
  5
5
330
0
100
AcDbSymbolTable
 70
     6
  0
LTYPE
  5
14
330
5
100
AcDbSymbolTableRecord
100
AcDbLinetypeTableRecord
  2
BYBLOCK
 70
     0
  3

 72
    65
 73
     0
 40
0.0
  0
LTYPE
  5
15
330
5
100
AcDbSymbolTableRecord
100
AcDbLinetypeTableRecord
  2
BYLAYER
 70
     0
  3

 72
    65
 73
     0
 40
0.0
  0
LTYPE
  5
16
330
5
100
AcDbSymbolTableRecord
100
AcDbLinetypeTableRecord
  2
CONTINUOUS
 70
     0
  3
Solid line
 72
    65
 73
     0
 40
0.0
  0
LTYPE
  5
6E
330
5
100
AcDbSymbolTableRecord
100
AcDbLinetypeTableRecord
  2
HIDDEN
 70
     0
  3
Hidden __ __ __ __ __ __ __ __ __ __ __ __ __ __
 72
    65
 73
     2
 40
1.905
 49
1.27
 74
     0
 49
-0.635
 74
     0
  0
LTYPE
  5
6F
330
5
100
AcDbSymbolTableRecord
100
AcDbLinetypeTableRecord
  2
PHANTOM
 70
     0
  3
Phantom ______  __  __  ______  __  __  ______
 72
    65
 73
     6
 40
12.7
 49
6.35
 74
     0
 49
-1.27
 74
     0
 49
1.27
 74
     0
 49
-1.27
 74
     0
 49
1.27
 74
     0
 49
-1.27
 74
     0
  0
LTYPE
  5
70
330
5
100
AcDbSymbolTableRecord
100
AcDbLinetypeTableRecord
  2
CENTER
 70
     0
  3
Center ____ _ ____ _ ____ _ ____ _ ____ _ ____
 72
    65
 73
     4
 40
10.16
 49
6.35
 74
     0
 49
-1.27
 74
     0
 49
1.27
 74
     0
 49
-1.27
 74
     0
  0
LTYPE
  5
71
330
5
100
AcDbSymbolTableRecord
100
AcDbLinetypeTableRecord
  2
CENTERX2
 70
     0
  3
Center (2x) ________  __  ________  __  _____
 72
    65
 73
     4
 40
20.32
 49
12.7
 74
     0
 49
-2.54
 74
     0
 49
2.54
 74
     0
 49
-2.54
 74
     0
  0
LTYPE
  5
72
330
5
100
AcDbSymbolTableRecord
100
AcDbLinetypeTableRecord
  2
DOT2
 70
     0
  3
Dot (.5x) ........................................
 72
    65
 73
     2
 40
0.635
 49
0.0
 74
     0
 49
-0.635
 74
     0
  0
ENDTAB
  0
TABLE
  2
LAYER
  5
2
330
0
100
AcDbSymbolTable
 70
     1
  0
LAYER
  5
10
330
2
100
AcDbSymbolTableRecord
100
AcDbLayerTableRecord
  2
0
 70
     0
 62
     7
  6
CONTINUOUS
  0
ENDTAB
  0
TABLE
  2
STYLE
  5
3
330
0
100
AcDbSymbolTable
 70
     1
  0
STYLE
  5
11
330
3
100
AcDbSymbolTableRecord
100
AcDbTextStyleTableRecord
  2
STANDARD
 70
     0
 40
0.0
 41
1.0
 50
0.0
 71
     0
 42
6.35
  3
txt
  4

  0
ENDTAB
  0
TABLE
  2
VIEW
  5
6
330
0
100
AcDbSymbolTable
 70
     0
  0
ENDTAB
  0
TABLE
  2
UCS
  5
7
330
0
100
AcDbSymbolTable
 70
     0
  0
ENDTAB
  0
TABLE
  2
APPID
  5
9
330
0
100
AcDbSymbolTable
 70
     1
  0
APPID
  5
12
330
9
100
AcDbSymbolTableRecord
100
AcDbRegAppTableRecord
  2
ACAD
 70
     0
  0
ENDTAB
  0
TABLE
  2
DIMSTYLE
  5
A
330
0
100
AcDbSymbolTable
 70
     1
  0
DIMSTYLE
105
27
330
A
100
AcDbSymbolTableRecord
100
AcDbDimStyleTableRecord
  2
ISO-25
 70
     0
  3

  4

  5

  6

  7

 40
1.0
 41
2.5
 42
0.625
 43
3.75
 44
1.25
 45
0.0
 46
0.0
 47
0.0
 48
0.0
140
2.5
141
2.5
142
0.0
143
0.0393700787
144
1.0
145
0.0
146
1.0
147
0.625
 71
     0
 72
     0
 73
     0
 74
     0
 75
     0
 76
     0
 77
     1
 78
     8
170
     0
171
     3
172
     1
173
     0
174
     0
175
     0
176
     0
177
     0
178
     0
270
     2
271
     2
272
     2
273
     2
274
     3
340
11
275
     0
280
     0
281
     0
282
     0
283
     0
284
     8
285
     0
286
     0
287
     3
288
     0
  0
ENDTAB
  0
TABLE
  2
BLOCK_RECORD
  5
1
330
0
100
AcDbSymbolTable
 70
     1
  0
BLOCK_RECORD
  5
1F
330
1
100
AcDbSymbolTableRecord
100
AcDbBlockTableRecord
  2
*MODEL_SPACE
  0
BLOCK_RECORD
  5
1B
330
1
100
AcDbSymbolTableRecord
100
AcDbBlockTableRecord
  2
*PAPER_SPACE
  0
BLOCK_RECORD
  5
23
330
1
100
AcDbSymbolTableRecord
100
AcDbBlockTableRecord
  2
*PAPER_SPACE0
  0
ENDTAB
  0
ENDSEC
  0
SECTION
  2
BLOCKS
  0
BLOCK
  5
20
330
1F
100
AcDbEntity
  8
0
100
AcDbBlockBegin
  2
*MODEL_SPACE
 70
     0
 10
0.0
 20
0.0
 30
0.0
  3
*MODEL_SPACE
  1

  0
ENDBLK
  5
21
330
1F
100
AcDbEntity
  8
0
100
AcDbBlockEnd
  0
BLOCK
  5
1C
330
1B
100
AcDbEntity
 67
     1
  8
0
100
AcDbBlockBegin
  2
*PAPER_SPACE
 70
     0
 10
0.0
 20
0.0
 30
0.0
  3
*PAPER_SPACE
  1

  0
ENDBLK
  5
1D
330
1B
100
AcDbEntity
 67
     1
  8
0
100
AcDbBlockEnd
  0
BLOCK
  5
24
330
23
100
AcDbEntity
  8
0
100
AcDbBlockBegin
  2
*PAPER_SPACE0
 70
     0
 10
0.0
 20
0.0
 30
0.0
  3
*PAPER_SPACE0
  1

  0
ENDBLK
  5
25
330
23
100
AcDbEntity
  8
0
100
AcDbBlockEnd
  0
ENDSEC
  0
SECTION
  2
ENTITIES
  0
LINE
  5
73
330
1F
100
AcDbEntity
  8
0
  6
CONTINUOUS
 62
     7
100
AcDbLine
 10
34.392884608
 20
-47.0888541403
 30
0.0
 11
34.265934608
 21
-46.9123041403
 31
0.0
  0
LINE
  5
74
330
1F
100
AcDbEntity
  8
0
  6
CONTINUOUS
 62
     7
100
AcDbLine
 10
34.265934608
 20
-46.9123041403
 30
0.0
 11
32.888584608
 21
-45.9355041403
 31
0.0
  0
LINE
  5
75
330
1F
100
AcDbEntity
  8
0
  6
CONTINUOUS
 62
     7
100
AcDbLine
 10
32.888584608
 20
-45.9355041403
 30
0.0
 11
31.954334608
 21
-45.2524041403
 31
0.0
  0
LINE
  5
76
330
1F
100
AcDbEntity
  8
0
  6
CONTINUOUS
 62
     7
100
AcDbLine
 10
31.954334608
 20
-45.2524041403
 30
0.0
 11
30.840784608
 21
-44.4080541403
 31
0.0
  0
LINE
  5
77
330
1F
100
AcDbEntity
  8
0
  6
CONTINUOUS
 62
     7
100
AcDbLine
 10
30.840784608
 20
-44.4080541403
 30
0.0
 11
29.582884608
 21
-43.4130041403
 31
0.0
  0
LINE
  5
78
330
1F
100
AcDbEntity
  8
0
  6
CONTINUOUS
 62
     7
100
AcDbLine
 10
29.582884608
 20
-43.4130041403
 30
0.0
 11
28.215584608
 21
-42.2777541403
 31
0.0
  0
LINE
  5
79
330
1F
100
AcDbEntity
  8
0
  6
CONTINUOUS
 62
     7
100
AcDbLine
 10
28.215584608
 20
-42.2777541403
 30
0.0
 11
26.773884608
 21
-41.0128041403
 31
0.0
  0
LINE
  5
7A
330
1F
100
AcDbEntity
  8
0
  6
CONTINUOUS
 62
     7
100
AcDbLine
 10
26.773884608
 20
-41.0128041403
 30
0.0
 11
26.036084608
 21
-40.3350041403
 31
0.0
  0
LINE
  5
7B
330
1F
100
AcDbEntity
  8
0
  6
CONTINUOUS
 62
     7
100
AcDbLine
 10
26.036084608
 20
-40.3350041403
 30
0.0
 11
25.292734608
 21
-39.6287041403
 31
0.0
  0
LINE
  5
7C
330
1F
100
AcDbEntity
  8
0
  6
CONTINUOUS
 62
     7
100
AcDbLine
 10
25.292734608
 20
-39.6287041403
 30
0.0
 11
24.548284608
 21
-38.8952541403
 31
0.0
  0
LINE
  5
7D
330
1F
100
AcDbEntity
  8
0
  6
CONTINUOUS
 62
     7
100
AcDbLine
 10
24.548284608
 20
-38.8952541403
 30
0.0
 11
23.807084608
 21
-38.1359541403
 31
0.0
  0
LINE
  5
7E
330
1F
100
AcDbEntity
  8
0
  6
CONTINUOUS
 62
     7
100
AcDbLine
 10
23.807084608
 20
-38.1359541403
 30
0.0
 11
23.073534608
 21
-37.3521041403
 31
0.0
  0
LINE
  5
7F
330
1F
100
AcDbEntity
  8
0
  6
CONTINUOUS
 62
     7
100
AcDbLine
 10
23.073534608
 20
-37.3521041403
 30
0.0
 11
22.351934608
 21
-36.5450541403
 31
0.0
  0
LINE
  5
80
330
1F
100
AcDbEntity
  8
0
  6
CONTINUOUS
 62
     7
100
AcDbLine
 10
22.351934608
 20
-36.5450541403
 30
0.0
 11
21.646734608
 21
-35.7161041403
 31
0.0
  0
LINE
  5
81
330
1F
100
AcDbEntity
  8
0
  6
CONTINUOUS
 62
     7
100
AcDbLine
 10
21.646734608
 20
-35.7161041403
 30
0.0
 11
20.962234608
 21
-34.8665541403
 31
0.0
  0
LINE
  5
82
330
1F
100
AcDbEntity
  8
0
  6
CONTINUOUS
 62
     7
100
AcDbLine
 10
20.962234608
 20
-34.8665541403
 30
0.0
 11
20.302834608
 21
-33.9977041403
 31
0.0
  0
LINE
  5
83
330
1F
100
AcDbEntity
  8
0
  6
CONTINUOUS
 62
     7
100
AcDbLine
 10
20.302834608
 20
-33.9977041403
 30
0.0
 11
19.672884608
 21
-33.1109041403
 31
0.0
  0
LINE
  5
84
330
1F
100
AcDbEntity
  8
0
  6
CONTINUOUS
 62
     7
100
AcDbLine
 10
19.672884608
 20
-33.1109041403
 30
0.0
 11
19.076784608
 21
-32.2075041403
 31
0.0
  0
LINE
  5
85
330
1F
100
AcDbEntity
  8
0
  6
CONTINUOUS
 62
     7
100
AcDbLine
 10
19.076784608
 20
-32.2075041403
 30
0.0
 11
18.518934608
 21
-31.2887041403
 31
0.0
  0
LINE
  5
86
330
1F
100
AcDbEntity
  8
0
  6
CONTINUOUS
 62
     7
100
AcDbLine
 10
18.518934608
 20
-31.2887041403
 30
0.0
 11
18.003634608
 21
-30.3559541403
 31
0.0
  0
LINE
  5
87
330
1F
100
AcDbEntity
  8
0
  6
CONTINUOUS
 62
     7
100
AcDbLine
 10
18.003634608
 20
-30.3559541403
 30
0.0
 11
17.535284608
 21
-29.4104541403
 31
0.0
  0
LINE
  5
88
330
1F
100
AcDbEntity
  8
0
  6
CONTINUOUS
 62
     7
100
AcDbLine
 10
17.535284608
 20
-29.4104541403
 30
0.0
 11
17.118234608
 21
-28.4535541403
 31
0.0
  0
LINE
  5
89
330
1F
100
AcDbEntity
  8
0
  6
CONTINUOUS
 62
     7
100
AcDbLine
 10
17.118234608
 20
-28.4535541403
 30
0.0
 11
16.695734608
 21
-27.3251541403
 31
0.0
  0
LINE
  5
8A
330
1F
100
AcDbEntity
  8
0
  6
CONTINUOUS
 62
     7
100
AcDbLine
 10
16.695734608
 20
-27.3251541403
 30
0.0
 11
16.532984608
 21
-26.9191041403
 31
0.0
  0
LINE
  5
8B
330
1F
100
AcDbEntity
  8
0
  6
CONTINUOUS
 62
     7
100
AcDbLine
 10
16.532984608
 20
-26.9191041403
 30
0.0
 11
16.408134608
 21
-26.6462041403
 31
0.0
  0
LINE
  5
8C
330
1F
100
AcDbEntity
  8
0
  6
CONTINUOUS
 62
     7
100
AcDbLine
 10
16.408134608
 20
-26.6462041403
 30
0.0
 11
16.251384608
 21
-26.3384541403
 31
0.0
  0
LINE
  5
8D
330
1F
100
AcDbEntity
  8
0
  6
CONTINUOUS
 62
     7
100
AcDbLine
 10
16.251384608
 20
-26.3384541403
 30
0.0
 11
16.060684608
 21
-26.0045541403
 31
0.0
  0
LINE
  5
8E
330
1F
100
AcDbEntity
  8
0
  6
CONTINUOUS
 62
     7
100
AcDbLine
 10
16.060684608
 20
-26.0045541403
 30
0.0
 11
15.833834608
 21
-25.6532541403
 31
0.0
  0
LINE
  5
8F
330
1F
100
AcDbEntity
  8
0
  6
CONTINUOUS
 62
     7
100
AcDbLine
 10
15.833834608
 20
-25.6532541403
 30
0.0
 11
15.568684608
 21
-25.2933041403
 31
0.0
  0
LINE
  5
90
330
1F
100
AcDbEntity
  8
0
  6
CONTINUOUS
 62
     7
100
AcDbLine
 10
15.568684608
 20
-25.2933041403
 30
0.0
 11
15.263084608
 21
-24.9335041403
 31
0.0
  0
LINE
  5
91
330
1F
100
AcDbEntity
  8
0
  6
CONTINUOUS
 62
     7
100
AcDbLine
 10
15.263084608
 20
-24.9335041403
 30
0.0
 11
14.914884608
 21
-24.5825541403
 31
0.0
  0
LINE
  5
92
330
1F
100
AcDbEntity
  8
0
  6
CONTINUOUS
 62
     7
100
AcDbLine
 10
14.914884608
 20
-24.5825541403
 30
0.0
 11
14.521984608
 21
-24.2492541403
 31
0.0
  0
LINE
  5
93
330
1F
100
AcDbEntity
  8
0
  6
CONTINUOUS
 62
     7
100
AcDbLine
 10
14.521984608
 20
-24.2492541403
 30
0.0
 11
14.082134608
 21
-23.9423041403
 31
0.0
  0
LINE
  5
94
330
1F
100
AcDbEntity
  8
0
  6
CONTINUOUS
 62
     7
100
AcDbLine
 10
14.082134608
 20
-23.9423041403
 30
0.0
 11
13.843934608
 21
-23.8014041403
 31
0.0
  0
LINE
  5
95
330
1F
100
AcDbEntity
  8
0
  6
CONTINUOUS
 62
     7
100
AcDbLine
 10
13.843934608
 20
-23.8014041403
 30
0.0
 11
13.593234608
 21
-23.6704541403
 31
0.0
  0
LINE
  5
96
330
1F
100
AcDbEntity
  8
0
  6
CONTINUOUS
 62
     7
100
AcDbLine
 10
13.593234608
 20
-23.6704541403
 30
0.0
 11
13.329734608
 21
-23.5504541403
 31
0.0
  0
LINE
  5
97
330
1F
100
AcDbEntity
  8
0
  6
CONTINUOUS
 62
     7
100
AcDbLine
 10
13.329734608
 20
-23.5504541403
 30
0.0
 11
13.053134608
 21
-23.4425041403
 31
0.0
  0
LINE
  5
98
330
1F
100
AcDbEntity
  8
0
  6
CONTINUOUS
 62
     7
100
AcDbLine
 10
13.053134608
 20
-23.4425041403
 30
0.0
 11
12.763234608
 21
-23.3477041403
 31
0.0
  0
LINE
  5
99
330
1F
100
AcDbEntity
  8
0
  6
CONTINUOUS
 62
     7
100
AcDbLine
 10
12.763234608
 20
-23.3477041403
 30
0.0
 11
12.150284608
 21
-23.1840541403
 31
0.0
  0
LINE
  5
9A
330
1F
100
AcDbEntity
  8
0
  6
CONTINUOUS
 62
     7
100
AcDbLine
 10
12.150284608
 20
-23.1840541403
 30
0.0
 11
11.842084608
 21
-23.0807541403
 31
0.0
  0
LINE
  5
9B
330
1F
100
AcDbEntity
  8
0
  6
CONTINUOUS
 62
     7
100
AcDbLine
 10
11.842084608
 20
-23.0807541403
 30
0.0
 11
11.535734608
 21
-22.9580541403
 31
0.0
  0
LINE
  5
9C
330
1F
100
AcDbEntity
  8
0
  6
CONTINUOUS
 62
     7
100
AcDbLine
 10
11.535734608
 20
-22.9580541403
 30
0.0
 11
11.231934608
 21
-22.8168541403
 31
0.0
  0
LINE
  5
9D
330
1F
100
AcDbEntity
  8
0
  6
CONTINUOUS
 62
     7
100
AcDbLine
 10
11.231934608
 20
-22.8168541403
 30
0.0
 11
10.931384608
 21
-22.6579541403
 31
0.0
  0
LINE
  5
9E
330
1F
100
AcDbEntity
  8
0
  6
CONTINUOUS
 62
     7
100
AcDbLine
 10
10.931384608
 20
-22.6579541403
 30
0.0
 11
10.634784608
 21
-22.4822041403
 31
0.0
  0
LINE
  5
9F
330
1F
100
AcDbEntity
  8
0
  6
CONTINUOUS
 62
     7
100
AcDbLine
 10
10.634784608
 20
-22.4822041403
 30
0.0
 11
10.342734608
 21
-22.2904541403
 31
0.0
  0
LINE
  5
A0
330
1F
100
AcDbEntity
  8
0
  6
CONTINUOUS
 62
     7
100
AcDbLine
 10
10.342734608
 20
-22.2904541403
 30
0.0
 11
10.056034608
 21
-22.0835041403
 31
0.0
  0
LINE
  5
A1
330
1F
100
AcDbEntity
  8
0
  6
CONTINUOUS
 62
     7
100
AcDbLine
 10
10.056034608
 20
-22.0835041403
 30
0.0
 11
9.501134608
 21
-21.6274041403
 31
0.0
  0
LINE
  5
A2
330
1F
100
AcDbEntity
  8
0
  6
CONTINUOUS
 62
     7
100
AcDbLine
 10
9.501134608
 20
-21.6274041403
 30
0.0
 11
8.975634608
 21
-21.1206541403
 31
0.0
  0
LINE
  5
A3
330
1F
100
AcDbEntity
  8
0
  6
CONTINUOUS
 62
     7
100
AcDbLine
 10
8.975634608
 20
-21.1206541403
 30
0.0
 11
8.484934608
 21
-20.5699541403
 31
0.0
  0
LINE
  5
A4
330
1F
100
AcDbEntity
  8
0
  6
CONTINUOUS
 62
     7
100
AcDbLine
 10
8.484934608
 20
-20.5699541403
 30
0.0
 11
8.034534608
 21
-19.9820041403
 31
0.0
  0
LINE
  5
A5
330
1F
100
AcDbEntity
  8
0
  6
CONTINUOUS
 62
     7
100
AcDbLine
 10
8.034534608
 20
-19.9820041403
 30
0.0
 11
7.629834608
 21
-19.3635541403
 31
0.0
  0
LINE
  5
A6
330
1F
100
AcDbEntity
  8
0
  6
CONTINUOUS
 62
     7
100
AcDbLine
 10
7.629834608
 20
-19.3635541403
 30
0.0
 11
7.276384608
 21
-18.7212041403
 31
0.0
  0
LINE
  5
A7
330
1F
100
AcDbEntity
  8
0
  6
CONTINUOUS
 62
     7
100
AcDbLine
 10
7.276384608
 20
-18.7212041403
 30
0.0
 11
7.120584608
 21
-18.3932041403
 31
0.0
  0
LINE
  5
A8
330
1F
100
AcDbEntity
  8
0
  6
CONTINUOUS
 62
     7
100
AcDbLine
 10
7.120584608
 20
-18.3932041403
 30
0.0
 11
6.979634608
 21
-18.0617541403
 31
0.0
  0
LINE
  5
A9
330
1F
100
AcDbEntity
  8
0
  6
CONTINUOUS
 62
     7
100
AcDbLine
 10
6.979634608
 20
-18.0617541403
 30
0.0
 11
6.854234608
 21
-17.7277041403
 31
0.0
  0
LINE
  5
AA
330
1F
100
AcDbEntity
  8
0
  6
CONTINUOUS
 62
     7
100
AcDbLine
 10
6.854234608
 20
-17.7277041403
 30
0.0
 11
6.745034608
 21
-17.3918541403
 31
0.0
  0
LINE
  5
AB
330
1F
100
AcDbEntity
  8
0
  6
CONTINUOUS
 62
     7
100
AcDbLine
 10
6.745034608
 20
-17.3918541403
 30
0.0
 11
6.652734608
 21
-17.0551041403
 31
0.0
  0
LINE
  5
AC
330
1F
100
AcDbEntity
  8
0
  6
CONTINUOUS
 62
     7
100
AcDbLine
 10
6.652734608
 20
-17.0551041403
 30
0.0
 11
6.578034608
 21
-16.7182541403
 31
0.0
  0
LINE
  5
AD
330
1F
100
AcDbEntity
  8
0
  6
CONTINUOUS
 62
     7
100
AcDbLine
 10
6.578034608
 20
-16.7182541403
 30
0.0
 11
6.521634608
 21
-16.3821541403
 31
0.0
  0
LINE
  5
AE
330
1F
100
AcDbEntity
  8
0
  6
CONTINUOUS
 62
     7
100
AcDbLine
 10
6.521634608
 20
-16.3821541403
 30
0.0
 11
6.484134608
 21
-16.0476541403
 31
0.0
  0
LINE
  5
AF
330
1F
100
AcDbEntity
  8
0
  6
CONTINUOUS
 62
     7
100
AcDbLine
 10
6.484134608
 20
-16.0476541403
 30
0.0
 11
6.466334608
 21
-15.7155541403
 31
0.0
  0
LINE
  5
B0
330
1F
100
AcDbEntity
  8
0
  6
CONTINUOUS
 62
     7
100
AcDbLine
 10
6.466334608
 20
-15.7155541403
 30
0.0
 11
6.468784608
 21
-15.3867041403
 31
0.0
  0
LINE
  5
B1
330
1F
100
AcDbEntity
  8
0
  6
CONTINUOUS
 62
     7
100
AcDbLine
 10
6.468784608
 20
-15.3867041403
 30
0.0
 11
6.492284608
 21
-15.0619541403
 31
0.0
  0
LINE
  5
B2
330
1F
100
AcDbEntity
  8
0
  6
CONTINUOUS
 62
     7
100
AcDbLine
 10
6.492284608
 20
-15.0619541403
 30
0.0
 11
6.537484608
 21
-14.7421541403
 31
0.0
  0
LINE
  5
B3
330
1F
100
AcDbEntity
  8
0
  6
CONTINUOUS
 62
     7
100
AcDbLine
 10
6.537484608
 20
-14.7421541403
 30
0.0
 11
6.601334608
 21
-14.4320541403
 31
0.0
  0
LINE
  5
B4
330
1F
100
AcDbEntity
  8
0
  6
CONTINUOUS
 62
     7
100
AcDbLine
 10
6.601334608
 20
-14.4320541403
 30
0.0
 11
6.678084608
 21
-14.1347541403
 31
0.0
  0
LINE
  5
B5
330
1F
100
AcDbEntity
  8
0
  6
CONTINUOUS
 62
     7
100
AcDbLine
 10
6.678084608
 20
-14.1347541403
 30
0.0
 11
6.865684608
 21
-13.5733541403
 31
0.0
  0
LINE
  5
B6
330
1F
100
AcDbEntity
  8
0
  6
CONTINUOUS
 62
     7
100
AcDbLine
 10
6.865684608
 20
-13.5733541403
 30
0.0
 11
7.090634608
 21
-13.0470041403
 31
0.0
  0
LINE
  5
B7
330
1F
100
AcDbEntity
  8
0
  6
CONTINUOUS
 62
     7
100
AcDbLine
 10
7.090634608
 20
-13.0470041403
 30
0.0
 11
7.343184608
 21
-12.5450041403
 31
0.0
  0
LINE
  5
B8
330
1F
100
AcDbEntity
  8
0
  6
CONTINUOUS
 62
     7
100
AcDbLine
 10
7.343184608
 20
-12.5450041403
 30
0.0
 11
8.170184608
 21
-11.0763541403
 31
0.0
  0
LINE
  5
B9
330
1F
100
AcDbEntity
  8
0
  6
CONTINUOUS
 62
     7
100
AcDbLine
 10
8.170184608
 20
-11.0763541403
 30
0.0
 11
8.436784608
 21
-10.5631541403
 31
0.0
  0
LINE
  5
BA
330
1F
100
AcDbEntity
  8
0
  6
CONTINUOUS
 62
     7
100
AcDbLine
 10
8.436784608
 20
-10.5631541403
 30
0.0
 11
8.682734608
 21
-10.0201541403
 31
0.0
  0
LINE
  5
BB
330
1F
100
AcDbEntity
  8
0
  6
CONTINUOUS
 62
     7
100
AcDbLine
 10
8.682734608
 20
-10.0201541403
 30
0.0
 11
8.898384608
 21
-9.4364041403
 31
0.0
  0
LINE
  5
BC
330
1F
100
AcDbEntity
  8
0
  6
CONTINUOUS
 62
     7
100
AcDbLine
 10
8.898384608
 20
-9.4364041403
 30
0.0
 11
8.991834608
 21
-9.1259041403
 31
0.0
  0
LINE
  5
BD
330
1F
100
AcDbEntity
  8
0
  6
CONTINUOUS
 62
     7
100
AcDbLine
 10
8.991834608
 20
-9.1259041403
 30
0.0
 11
9.074084608
 21
-8.8011541403
 31
0.0
  0
LINE
  5
BE
330
1F
100
AcDbEntity
  8
0
  6
CONTINUOUS
 62
     7
100
AcDbLine
 10
9.074084608
 20
-8.8011541403
 30
0.0
 11
9.143934608
 21
-8.4608041403
 31
0.0
  0
LINE
  5
BF
330
1F
100
AcDbEntity
  8
0
  6
CONTINUOUS
 62
     7
100
AcDbLine
 10
9.143934608
 20
-8.4608041403
 30
0.0
 11
9.200184608
 21
-8.1035041403
 31
0.0
  0
LINE
  5
C0
330
1F
100
AcDbEntity
  8
0
  6
CONTINUOUS
 62
     7
100
AcDbLine
 10
9.200184608
 20
-8.1035041403
 30
0.0
 11
9.241584608
 21
-7.7279041403
 31
0.0
  0
LINE
  5
C1
330
1F
100
AcDbEntity
  8
0
  6
CONTINUOUS
 62
     7
100
AcDbLine
 10
9.241584608
 20
-7.7279041403
 30
0.0
 11
9.266984608
 21
-7.3326541403
 31
0.0
  0
LINE
  5
C2
330
1F
100
AcDbEntity
  8
0
  6
CONTINUOUS
 62
     7
100
AcDbLine
 10
9.266984608
 20
-7.3326541403
 30
0.0
 11
9.275134608
 21
-6.9164541403
 31
0.0
  0
LINE
  5
C3
330
1F
100
AcDbEntity
  8
0
  6
CONTINUOUS
 62
     7
100
AcDbLine
 10
9.275134608
 20
-6.9164541403
 30
0.0
 11
9.264884608
 21
-6.4778041403
 31
0.0
  0
LINE
  5
C4
330
1F
100
AcDbEntity
  8
0
  6
CONTINUOUS
 62
     7
100
AcDbLine
 10
9.264884608
 20
-6.4778041403
 30
0.0
 11
9.234934608
 21
-6.0155041403
 31
0.0
  0
LINE
  5
C5
330
1F
100
AcDbEntity
  8
0
  6
CONTINUOUS
 62
     7
100
AcDbLine
 10
9.234934608
 20
-6.0155041403
 30
0.0
 11
9.184184608
 21
-5.5281041403
 31
0.0
  0
LINE
  5
C6
330
1F
100
AcDbEntity
  8
0
  6
CONTINUOUS
 62
     7
100
AcDbLine
 10
9.184184608
 20
-5.5281041403
 30
0.0
 11
9.111334608
 21
-5.0143041403
 31
0.0
  0
LINE
  5
C7
330
1F
100
AcDbEntity
  8
0
  6
CONTINUOUS
 62
     7
100
AcDbLine
 10
9.111334608
 20
-5.0143041403
 30
0.0
 11
9.015234608
 21
-4.4727041403
 31
0.0
  0
LINE
  5
C8
330
1F
100
AcDbEntity
  8
0
  6
CONTINUOUS
 62
     7
100
AcDbLine
 10
9.015234608
 20
-4.4727041403
 30
0.0
 11
9.288684608
 21
-4.2764041403
 31
0.0
  0
LINE
  5
C9
330
1F
100
AcDbEntity
  8
0
  6
CONTINUOUS
 62
     7
100
AcDbLine
 10
9.288684608
 20
-4.2764041403
 30
0.0
 11
9.964484608
 21
-3.7732041403
 31
0.0
  0
LINE
  5
CA
330
1F
100
AcDbEntity
  8
0
  6
CONTINUOUS
 62
     7
100
AcDbLine
 10
9.964484608
 20
-3.7732041403
 30
0.0
 11
10.397984608
 21
-3.4185541403
 31
0.0
  0
LINE
  5
CB
330
1F
100
AcDbEntity
  8
0
  6
CONTINUOUS
 62
     7
100
AcDbLine
 10
10.397984608
 20
-3.4185541403
 30
0.0
 11
10.865784608
 21
-3.0017541403
 31
0.0
  0
LINE
  5
CC
330
1F
100
AcDbEntity
  8
0
  6
CONTINUOUS
 62
     7
100
AcDbLine
 10
10.865784608
 20
-3.0017541403
 30
0.0
 11
11.345734608
 21
-2.5275041403
 31
0.0
  0
LINE
  5
CD
330
1F
100
AcDbEntity
  8
0
  6
CONTINUOUS
 62
     7
100
AcDbLine
 10
11.345734608
 20
-2.5275041403
 30
0.0
 11
11.815684608
 21
-2.0007041403
 31
0.0
  0
LINE
  5
CE
330
1F
100
AcDbEntity
  8
0
  6
CONTINUOUS
 62
     7
100
AcDbLine
 10
11.815684608
 20
-2.0007041403
 30
0.0
 11
12.040084608
 21
-1.7191041403
 31
0.0
  0
LINE
  5
CF
330
1F
100
AcDbEntity
  8
0
  6
CONTINUOUS
 62
     7
100
AcDbLine
 10
12.040084608
 20
-1.7191041403
 30
0.0
 11
12.253634608
 21
-1.4262041403
 31
0.0
  0
LINE
  5
D0
330
1F
100
AcDbEntity
  8
0
  6
CONTINUOUS
 62
     7
100
AcDbLine
 10
12.253634608
 20
-1.4262041403
 30
0.0
 11
12.453684608
 21
-1.1225541403
 31
0.0
  0
LINE
  5
D1
330
1F
100
AcDbEntity
  8
0
  6
CONTINUOUS
 62
     7
100
AcDbLine
 10
12.453684608
 20
-1.1225541403
 30
0.0
 11
12.637434608
 21
-0.8088041403
 31
0.0
  0
LINE
  5
D2
330
1F
100
AcDbEntity
  8
0
  6
CONTINUOUS
 62
     7
100
AcDbLine
 10
12.637434608
 20
-0.8088041403
 30
0.0
 11
12.802084608
 21
-0.4855041403
 31
0.0
  0
LINE
  5
D3
330
1F
100
AcDbEntity
  8
0
  6
CONTINUOUS
 62
     7
100
AcDbLine
 10
12.802084608
 20
-0.4855041403
 30
0.0
 11
12.944884608
 21
-0.1533041403
 31
0.0
  0
LINE
  5
D4
330
1F
100
AcDbEntity
  8
0
  6
CONTINUOUS
 62
     7
100
AcDbLine
 10
12.944884608
 20
-0.1533041403
 30
0.0
 11
13.063134608
 21
0.1871958597
 31
0.0
  0
LINE
  5
D5
330
1F
100
AcDbEntity
  8
0
  6
CONTINUOUS
 62
     7
100
AcDbLine
 10
13.063134608
 20
0.1871958597
 30
0.0
 11
13.154034608
 21
0.5353958597
 31
0.0
  0
LINE
  5
D6
330
1F
100
AcDbEntity
  8
0
  6
CONTINUOUS
 62
     7
100
AcDbLine
 10
13.154034608
 20
0.5353958597
 30
0.0
 11
13.214784608
 21
0.8906958597
 31
0.0
  0
LINE
  5
D7
330
1F
100
AcDbEntity
  8
0
  6
CONTINUOUS
 62
     7
100
AcDbLine
 10
13.214784608
 20
0.8906958597
 30
0.0
 11
13.242634608
 21
1.2524958597
 31
0.0
  0
LINE
  5
D8
330
1F
100
AcDbEntity
  8
0
  6
CONTINUOUS
 62
     7
100
AcDbLine
 10
13.242634608
 20
1.2524958597
 30
0.0
 11
13.234884608
 21
1.6201958597
 31
0.0
  0
LINE
  5
D9
330
1F
100
AcDbEntity
  8
0
  6
CONTINUOUS
 62
     7
100
AcDbLine
 10
13.234884608
 20
1.6201958597
 30
0.0
 11
13.188684608
 21
1.9931958597
 31
0.0
  0
LINE
  5
DA
330
1F
100
AcDbEntity
  8
0
  6
CONTINUOUS
 62
     7
100
AcDbLine
 10
13.188684608
 20
1.9931958597
 30
0.0
 11
13.101334608
 21
2.3708458597
 31
0.0
  0
LINE
  5
DB
330
1F
100
AcDbEntity
  8
0
  6
CONTINUOUS
 62
     7
100
AcDbLine
 10
13.101334608
 20
2.3708458597
 30
0.0
 11
12.970034608
 21
2.7525958597
 31
0.0
  0
LINE
  5
DC
330
1F
100
AcDbEntity
  8
0
  6
CONTINUOUS
 62
     7
100
AcDbLine
 10
12.970034608
 20
2.7525958597
 30
0.0
 11
12.792034608
 21
3.1377958597
 31
0.0
  0
LINE
  5
DD
330
1F
100
AcDbEntity
  8
0
  6
CONTINUOUS
 62
     7
100
AcDbLine
 10
12.792034608
 20
3.1377958597
 30
0.0
 11
12.564534608
 21
3.5258958597
 31
0.0
  0
LINE
  5
DE
330
1F
100
AcDbEntity
  8
0
  6
CONTINUOUS
 62
     7
100
AcDbLine
 10
12.564534608
 20
3.5258958597
 30
0.0
 11
12.344834608
 21
3.3616958597
 31
0.0
  0
LINE
  5
DF
330
1F
100
AcDbEntity
  8
0
  6
CONTINUOUS
 62
     7
100
AcDbLine
 10
12.344834608
 20
3.3616958597
 30
0.0
 11
11.784934608
 21
2.9573458597
 31
0.0
  0
LINE
  5
E0
330
1F
100
AcDbEntity
  8
0
  6
CONTINUOUS
 62
     7
100
AcDbLine
 10
11.784934608
 20
2.9573458597
 30
0.0
 11
11.395834608
 21
2.7004458597
 31
0.0
  0
LINE
  5
E1
330
1F
100
AcDbEntity
  8
0
  6
CONTINUOUS
 62
     7
100
AcDbLine
 10
11.395834608
 20
2.7004458597
 30
0.0
 11
10.943784608
 21
2.4258958597
 31
0.0
  0
LINE
  5
E2
330
1F
100
AcDbEntity
  8
0
  6
CONTINUOUS
 62
     7
100
AcDbLine
 10
10.943784608
 20
2.4258958597
 30
0.0
 11
10.436234608
 21
2.1478458597
 31
0.0
  0
LINE
  5
E3
330
1F
100
AcDbEntity
  8
0
  6
CONTINUOUS
 62
     7
100
AcDbLine
 10
10.436234608
 20
2.1478458597
 30
0.0
 11
9.880484608
 21
1.8804458597
 31
0.0
  0
LINE
  5
E4
330
1F
100
AcDbEntity
  8
0
  6
CONTINUOUS
 62
     7
100
AcDbLine
 10
9.880484608
 20
1.8804458597
 30
0.0
 11
9.283934608
 21
1.6377458597
 31
0.0
  0
LINE
  5
E5
330
1F
100
AcDbEntity
  8
0
  6
CONTINUOUS
 62
     7
100
AcDbLine
 10
9.283934608
 20
1.6377458597
 30
0.0
 11
8.653934608
 21
1.4339958597
 31
0.0
  0
LINE
  5
E6
330
1F
100
AcDbEntity
  8
0
  6
CONTINUOUS
 62
     7
100
AcDbLine
 10
8.653934608
 20
1.4339958597
 30
0.0
 11
8.328734608
 21
1.3510958597
 31
0.0
  0
LINE
  5
E7
330
1F
100
AcDbEntity
  8
0
  6
CONTINUOUS
 62
     7
100
AcDbLine
 10
8.328734608
 20
1.3510958597
 30
0.0
 11
7.997934608
 21
1.2832458597
 31
0.0
  0
LINE
  5
E8
330
1F
100
AcDbEntity
  8
0
  6
CONTINUOUS
 62
     7
100
AcDbLine
 10
7.997934608
 20
1.2832458597
 30
0.0
 11
7.662484608
 21
1.2321458597
 31
0.0
  0
LINE
  5
E9
330
1F
100
AcDbEntity
  8
0
  6
CONTINUOUS
 62
     7
100
AcDbLine
 10
7.662484608
 20
1.2321458597
 30
0.0
 11
7.323234608
 21
1.1996458597
 31
0.0
  0
LINE
  5
EA
330
1F
100
AcDbEntity
  8
0
  6
CONTINUOUS
 62
     7
100
AcDbLine
 10
7.323234608
 20
1.1996458597
 30
0.0
 11
6.981234608
 21
1.1874458597
 31
0.0
  0
LINE
  5
EB
330
1F
100
AcDbEntity
  8
0
  6
CONTINUOUS
 62
     7
100
AcDbLine
 10
6.981234608
 20
1.1874458597
 30
0.0
 11
6.637284608
 21
1.1973958597
 31
0.0
  0
LINE
  5
EC
330
1F
100
AcDbEntity
  8
0
  6
CONTINUOUS
 62
     7
100
AcDbLine
 10
6.637284608
 20
1.1973958597
 30
0.0
 11
6.292384608
 21
1.2311458597
 31
0.0
  0
LINE
  5
ED
330
1F
100
AcDbEntity
  8
0
  6
CONTINUOUS
 62
     7
100
AcDbLine
 10
6.292384608
 20
1.2311458597
 30
0.0
 11
5.947384608
 21
1.2904958597
 31
0.0
  0
LINE
  5
EE
330
1F
100
AcDbEntity
  8
0
  6
CONTINUOUS
 62
     7
100
AcDbLine
 10
5.947384608
 20
1.2904958597
 30
0.0
 11
5.603284608
 21
1.3772958597
 31
0.0
  0
LINE
  5
EF
330
1F
100
AcDbEntity
  8
0
  6
CONTINUOUS
 62
     7
100
AcDbLine
 10
5.603284608
 20
1.3772958597
 30
0.0
 11
5.260984608
 21
1.4932458597
 31
0.0
  0
LINE
  5
F0
330
1F
100
AcDbEntity
  8
0
  6
CONTINUOUS
 62
     7
100
AcDbLine
 10
5.260984608
 20
1.4932458597
 30
0.0
 11
4.921384608
 21
1.6400958597
 31
0.0
  0
LINE
  5
F1
330
1F
100
AcDbEntity
  8
0
  6
CONTINUOUS
 62
     7
100
AcDbLine
 10
4.921384608
 20
1.6400958597
 30
0.0
 11
4.585384608
 21
1.8196458597
 31
0.0
  0
LINE
  5
F2
330
1F
100
AcDbEntity
  8
0
  6
CONTINUOUS
 62
     7
100
AcDbLine
 10
4.585384608
 20
1.8196458597
 30
0.0
 11
3.900184608
 21
2.2105958597
 31
0.0
  0
LINE
  5
F3
330
1F
100
AcDbEntity
  8
0
  6
CONTINUOUS
 62
     7
100
AcDbLine
 10
3.900184608
 20
2.2105958597
 30
0.0
 11
3.180534608
 21
2.5979958597
 31
0.0
  0
LINE
  5
F4
330
1F
100
AcDbEntity
  8
0
  6
CONTINUOUS
 62
     7
100
AcDbLine
 10
3.180534608
 20
2.5979958597
 30
0.0
 11
2.425184608
 21
2.9781958597
 31
0.0
  0
LINE
  5
F5
330
1F
100
AcDbEntity
  8
0
  6
CONTINUOUS
 62
     7
100
AcDbLine
 10
2.425184608
 20
2.9781958597
 30
0.0
 11
1.632934608
 21
3.3474458597
 31
0.0
  0
LINE
  5
F6
330
1F
100
AcDbEntity
  8
0
  6
CONTINUOUS
 62
     7
100
AcDbLine
 10
1.632934608
 20
3.3474458597
 30
0.0
 11
0.802534608
 21
3.7021958597
 31
0.0
  0
LINE
  5
F7
330
1F
100
AcDbEntity
  8
0
  6
CONTINUOUS
 62
     7
100
AcDbLine
 10
0.802534608
 20
3.7021958597
 30
0.0
 11
-0.067215392
 21
4.0386458597
 31
0.0
  0
LINE
  5
F8
330
1F
100
AcDbEntity
  8
0
  6
CONTINUOUS
 62
     7
100
AcDbLine
 10
-0.067215392
 20
4.0386458597
 30
0.0
 11
-0.977515392
 21
4.3532458597
 31
0.0
  0
LINE
  5
F9
330
1F
100
AcDbEntity
  8
0
  6
CONTINUOUS
 62
     7
100
AcDbLine
 10
-0.977515392
 20
4.3532458597
 30
0.0
 11
-1.929615392
 21
4.6422958597
 31
0.0
  0
LINE
  5
FA
330
1F
100
AcDbEntity
  8
0
  6
CONTINUOUS
 62
     7
100
AcDbLine
 10
-1.929615392
 20
4.6422958597
 30
0.0
 11
-2.924765392
 21
4.9020958597
 31
0.0
  0
LINE
  5
FB
330
1F
100
AcDbEntity
  8
0
  6
CONTINUOUS
 62
     7
100
AcDbLine
 10
-2.924765392
 20
4.9020958597
 30
0.0
 11
-3.964065392
 21
5.1290458597
 31
0.0
  0
LINE
  5
FC
330
1F
100
AcDbEntity
  8
0
  6
CONTINUOUS
 62
     7
100
AcDbLine
 10
-3.964065392
 20
5.1290458597
 30
0.0
 11
-5.048865392
 21
5.3193958597
 31
0.0
  0
LINE
  5
FD
330
1F
100
AcDbEntity
  8
0
  6
CONTINUOUS
 62
     7
100
AcDbLine
 10
-5.048865392
 20
5.3193958597
 30
0.0
 11
-6.180315392
 21
5.4695458597
 31
0.0
  0
LINE
  5
FE
330
1F
100
AcDbEntity
  8
0
  6
CONTINUOUS
 62
     7
100
AcDbLine
 10
-6.180315392
 20
5.4695458597
 30
0.0
 11
-7.359665392
 21
5.5757958597
 31
0.0
  0
LINE
  5
FF
330
1F
100
AcDbEntity
  8
0
  6
CONTINUOUS
 62
     7
100
AcDbLine
 10
-7.359665392
 20
5.5757958597
 30
0.0
 11
-8.588165392
 21
5.6344958597
 31
0.0
  0
LINE
  5
100
330
1F
100
AcDbEntity
  8
0
  6
CONTINUOUS
 62
     7
100
AcDbLine
 10
-8.588165392
 20
5.6344958597
 30
0.0
 11
-9.866915392
 21
5.6419958597
 31
0.0
  0
LINE
  5
101
330
1F
100
AcDbEntity
  8
0
  6
CONTINUOUS
 62
     7
100
AcDbLine
 10
-9.866915392
 20
5.6419958597
 30
0.0
 11
-11.197265392
 21
5.5946458597
 31
0.0
  0
LINE
  5
102
330
1F
100
AcDbEntity
  8
0
  6
CONTINUOUS
 62
     7
100
AcDbLine
 10
-11.197265392
 20
5.5946458597
 30
0.0
 11
-11.874565392
 21
5.5652458597
 31
0.0
  0
LINE
  5
103
330
1F
100
AcDbEntity
  8
0
  6
CONTINUOUS
 62
     7
100
AcDbLine
 10
-11.874565392
 20
5.5652458597
 30
0.0
 11
-12.549365392
 21
5.5543458597
 31
0.0
  0
LINE
  5
104
330
1F
100
AcDbEntity
  8
0
  6
CONTINUOUS
 62
     7
100
AcDbLine
 10
-12.549365392
 20
5.5543458597
 30
0.0
 11
-13.219965392
 21
5.5615458597
 31
0.0
  0
LINE
  5
105
330
1F
100
AcDbEntity
  8
0
  6
CONTINUOUS
 62
     7
100
AcDbLine
 10
-13.219965392
 20
5.5615458597
 30
0.0
 11
-13.884565392
 21
5.5866458597
 31
0.0
  0
LINE
  5
106
330
1F
100
AcDbEntity
  8
0
  6
CONTINUOUS
 62
     7
100
AcDbLine
 10
-13.884565392
 20
5.5866458597
 30
0.0
 11
-14.541315392
 21
5.6293958597
 31
0.0
  0
LINE
  5
107
330
1F
100
AcDbEntity
  8
0
  6
CONTINUOUS
 62
     7
100
AcDbLine
 10
-14.541315392
 20
5.6293958597
 30
0.0
 11
-15.188565392
 21
5.6894958597
 31
0.0
  0
LINE
  5
108
330
1F
100
AcDbEntity
  8
0
  6
CONTINUOUS
 62
     7
100
AcDbLine
 10
-15.188565392
 20
5.6894958597
 30
0.0
 11
-15.824465392
 21
5.7666958597
 31
0.0
  0
LINE
  5
109
330
1F
100
AcDbEntity
  8
0
  6
CONTINUOUS
 62
     7
100
AcDbLine
 10
-15.824465392
 20
5.7666958597
 30
0.0
 11
-16.447265392
 21
5.8607458597
 31
0.0
  0
LINE
  5
10A
330
1F
100
AcDbEntity
  8
0
  6
CONTINUOUS
 62
     7
100
AcDbLine
 10
-16.447265392
 20
5.8607458597
 30
0.0
 11
-17.055165392
 21
5.9713458597
 31
0.0
  0
LINE
  5
10B
330
1F
100
AcDbEntity
  8
0
  6
CONTINUOUS
 62
     7
100
AcDbLine
 10
-17.055165392
 20
5.9713458597
 30
0.0
 11
-17.646365392
 21
6.0982458597
 31
0.0
  0
LINE
  5
10C
330
1F
100
AcDbEntity
  8
0
  6
CONTINUOUS
 62
     7
100
AcDbLine
 10
-17.646365392
 20
6.0982458597
 30
0.0
 11
-18.219165392
 21
6.2411458597
 31
0.0
  0
LINE
  5
10D
330
1F
100
AcDbEntity
  8
0
  6
CONTINUOUS
 62
     7
100
AcDbLine
 10
-18.219165392
 20
6.2411458597
 30
0.0
 11
-18.771765392
 21
6.3998458597
 31
0.0
  0
LINE
  5
10E
330
1F
100
AcDbEntity
  8
0
  6
CONTINUOUS
 62
     7
100
AcDbLine
 10
-18.771765392
 20
6.3998458597
 30
0.0
 11
-19.302365392
 21
6.5740458597
 31
0.0
  0
LINE
  5
10F
330
1F
100
AcDbEntity
  8
0
  6
CONTINUOUS
 62
     7
100
AcDbLine
 10
-19.302365392
 20
6.5740458597
 30
0.0
 11
-19.809215392
 21
6.7634958597
 31
0.0
  0
LINE
  5
110
330
1F
100
AcDbEntity
  8
0
  6
CONTINUOUS
 62
     7
100
AcDbLine
 10
-19.809215392
 20
6.7634958597
 30
0.0
 11
-20.290565392
 21
6.9678958597
 31
0.0
  0
LINE
  5
111
330
1F
100
AcDbEntity
  8
0
  6
CONTINUOUS
 62
     7
100
AcDbLine
 10
-20.290565392
 20
6.9678958597
 30
0.0
 11
-20.744565392
 21
7.1869958597
 31
0.0
  0
LINE
  5
112
330
1F
100
AcDbEntity
  8
0
  6
CONTINUOUS
 62
     7
100
AcDbLine
 10
-20.744565392
 20
7.1869958597
 30
0.0
 11
-21.169465392
 21
7.4205458597
 31
0.0
  0
LINE
  5
113
330
1F
100
AcDbEntity
  8
0
  6
CONTINUOUS
 62
     7
100
AcDbLine
 10
-21.169465392
 20
7.4205458597
 30
0.0
 11
-21.563565392
 21
7.6682458597
 31
0.0
  0
LINE
  5
114
330
1F
100
AcDbEntity
  8
0
  6
CONTINUOUS
 62
     7
100
AcDbLine
 10
-21.563565392
 20
7.6682458597
 30
0.0
 11
-21.924965392
 21
7.9298458597
 31
0.0
  0
LINE
  5
115
330
1F
100
AcDbEntity
  8
0
  6
CONTINUOUS
 62
     7
100
AcDbLine
 10
-21.924965392
 20
7.9298458597
 30
0.0
 11
-22.252015392
 21
8.2051458597
 31
0.0
  0
LINE
  5
116
330
1F
100
AcDbEntity
  8
0
  6
CONTINUOUS
 62
     7
100
AcDbLine
 10
-22.252015392
 20
8.2051458597
 30
0.0
 11
-22.542865392
 21
8.4937458597
 31
0.0
  0
LINE
  5
117
330
1F
100
AcDbEntity
  8
0
  6
CONTINUOUS
 62
     7
100
AcDbLine
 10
-22.542865392
 20
8.4937458597
 30
0.0
 11
-22.795765392
 21
8.7954958597
 31
0.0
  0
LINE
  5
118
330
1F
100
AcDbEntity
  8
0
  6
CONTINUOUS
 62
     7
100
AcDbLine
 10
-22.795765392
 20
8.7954958597
 30
0.0
 11
-23.008915392
 21
9.1100458597
 31
0.0
  0
LINE
  5
119
330
1F
100
AcDbEntity
  8
0
  6
CONTINUOUS
 62
     7
100
AcDbLine
 10
-23.008915392
 20
9.1100458597
 30
0.0
 11
-23.180565392
 21
9.4371958597
 31
0.0
  0
LINE
  5
11A
330
1F
100
AcDbEntity
  8
0
  6
CONTINUOUS
 62
     7
100
AcDbLine
 10
-23.180565392
 20
9.4371958597
 30
0.0
 11
-23.308915392
 21
9.7766958597
 31
0.0
  0
LINE
  5
11B
330
1F
100
AcDbEntity
  8
0
  6
CONTINUOUS
 62
     7
100
AcDbLine
 10
-23.308915392
 20
9.7766958597
 30
0.0
 11
-23.392215392
 21
10.1281958597
 31
0.0
  0
LINE
  5
11C
330
1F
100
AcDbEntity
  8
0
  6
CONTINUOUS
 62
     7
100
AcDbLine
 10
-23.392215392
 20
10.1281958597
 30
0.0
 11
-23.428715392
 21
10.4914458597
 31
0.0
  0
LINE
  5
11D
330
1F
100
AcDbEntity
  8
0
  6
CONTINUOUS
 62
     7
100
AcDbLine
 10
-23.428715392
 20
10.4914458597
 30
0.0
 11
-23.416615392
 21
10.8662458597
 31
0.0
  0
LINE
  5
11E
330
1F
100
AcDbEntity
  8
0
  6
CONTINUOUS
 62
     7
100
AcDbLine
 10
-23.416615392
 20
10.8662458597
 30
0.0
 11
-23.354115392
 21
11.2522958597
 31
0.0
  0
LINE
  5
11F
330
1F
100
AcDbEntity
  8
0
  6
CONTINUOUS
 62
     7
100
AcDbLine
 10
-23.354115392
 20
11.2522958597
 30
0.0
 11
-23.239415392
 21
11.6492958597
 31
0.0
  0
LINE
  5
120
330
1F
100
AcDbEntity
  8
0
  6
CONTINUOUS
 62
     7
100
AcDbLine
 10
-23.239415392
 20
11.6492958597
 30
0.0
 11
-23.070865392
 21
12.0569958597
 31
0.0
  0
LINE
  5
121
330
1F
100
AcDbEntity
  8
0
  6
CONTINUOUS
 62
     7
100
AcDbLine
 10
-23.070865392
 20
12.0569958597
 30
0.0
 11
-22.846565392
 21
12.4751958597
 31
0.0
  0
LINE
  5
122
330
1F
100
AcDbEntity
  8
0
  6
CONTINUOUS
 62
     7
100
AcDbLine
 10
-22.846565392
 20
12.4751958597
 30
0.0
 11
-22.329715392
 21
13.2973958597
 31
0.0
  0
LINE
  5
123
330
1F
100
AcDbEntity
  8
0
  6
CONTINUOUS
 62
     7
100
AcDbLine
 10
-22.329715392
 20
13.2973958597
 30
0.0
 11
-21.796115392
 21
14.0649958597
 31
0.0
  0
LINE
  5
124
330
1F
100
AcDbEntity
  8
0
  6
CONTINUOUS
 62
     7
100
AcDbLine
 10
-21.796115392
 20
14.0649958597
 30
0.0
 11
-21.252665392
 21
14.7782958597
 31
0.0
  0
LINE
  5
125
330
1F
100
AcDbEntity
  8
0
  6
CONTINUOUS
 62
     7
100
AcDbLine
 10
-21.252665392
 20
14.7782958597
 30
0.0
 11
-20.706065392
 21
15.4376958597
 31
0.0
  0
LINE
  5
126
330
1F
100
AcDbEntity
  8
0
  6
CONTINUOUS
 62
     7
100
AcDbLine
 10
-20.706065392
 20
15.4376958597
 30
0.0
 11
-20.163165392
 21
16.0434958597
 31
0.0
  0
LINE
  5
127
330
1F
100
AcDbEntity
  8
0
  6
CONTINUOUS
 62
     7
100
AcDbLine
 10
-20.163165392
 20
16.0434958597
 30
0.0
 11
-19.630765392
 21
16.5959458597
 31
0.0
  0
LINE
  5
128
330
1F
100
AcDbEntity
  8
0
  6
CONTINUOUS
 62
     7
100
AcDbLine
 10
-19.630765392
 20
16.5959458597
 30
0.0
 11
-19.115665392
 21
17.0954958597
 31
0.0
  0
LINE
  5
129
330
1F
100
AcDbEntity
  8
0
  6
CONTINUOUS
 62
     7
100
AcDbLine
 10
-19.115665392
 20
17.0954958597
 30
0.0
 11
-18.624615392
 21
17.5423458597
 31
0.0
  0
LINE
  5
12A
330
1F
100
AcDbEntity
  8
0
  6
CONTINUOUS
 62
     7
100
AcDbLine
 10
-18.624615392
 20
17.5423458597
 30
0.0
 11
-17.742015392
 21
18.2795458597
 31
0.0
  0
LINE
  5
12B
330
1F
100
AcDbEntity
  8
0
  6
CONTINUOUS
 62
     7
100
AcDbLine
 10
-17.742015392
 20
18.2795458597
 30
0.0
 11
-17.037315392
 21
18.8101458597
 31
0.0
  0
LINE
  5
12C
330
1F
100
AcDbEntity
  8
0
  6
CONTINUOUS
 62
     7
100
AcDbLine
 10
-17.037315392
 20
18.8101458597
 30
0.0
 11
-16.564915392
 21
19.1367458597
 31
0.0
  0
LINE
  5
12D
330
1F
100
AcDbEntity
  8
0
  6
CONTINUOUS
 62
     7
100
AcDbLine
 10
-16.564915392
 20
19.1367458597
 30
0.0
 11
-16.379215392
 21
19.2619958597
 31
0.0
  0
LINE
  5
12E
330
1F
100
AcDbEntity
  8
0
  6
CONTINUOUS
 62
     7
100
AcDbLine
 10
-16.379215392
 20
19.2619958597
 30
0.0
 11
-15.822215392
 21
19.8024958597
 31
0.0
  0
LINE
  5
12F
330
1F
100
AcDbEntity
  8
0
  6
CONTINUOUS
 62
     7
100
AcDbLine
 10
-15.822215392
 20
19.8024958597
 30
0.0
 11
-14.574265392
 21
21.0285958597
 31
0.0
  0
LINE
  5
130
330
1F
100
AcDbEntity
  8
0
  6
CONTINUOUS
 62
     7
100
AcDbLine
 10
-14.574265392
 20
21.0285958597
 30
0.0
 11
-13.174915392
 21
22.4437958597
 31
0.0
  0
LINE
  5
131
330
1F
100
AcDbEntity
  8
0
  6
CONTINUOUS
 62
     7
100
AcDbLine
 10
-13.174915392
 20
22.4437958597
 30
0.0
 11
-12.587165392
 21
23.0671458597
 31
0.0
  0
LINE
  5
132
330
1F
100
AcDbEntity
  8
0
  6
CONTINUOUS
 62
     7
100
AcDbLine
 10
-12.587165392
 20
23.0671458597
 30
0.0
 11
-12.163915392
 21
23.5515958597
 31
0.0
  0
LINE
  5
133
330
1F
100
AcDbEntity
  8
0
  6
CONTINUOUS
 62
     7
100
AcDbLine
 10
-12.163915392
 20
23.5515958597
 30
0.0
 11
-12.070315392
 21
23.6399958597
 31
0.0
  0
LINE
  5
134
330
1F
100
AcDbEntity
  8
0
  6
CONTINUOUS
 62
     7
100
AcDbLine
 10
-12.070315392
 20
23.6399958597
 30
0.0
 11
-11.949815392
 21
23.7076458597
 31
0.0
  0
LINE
  5
135
330
1F
100
AcDbEntity
  8
0
  6
CONTINUOUS
 62
     7
100
AcDbLine
 10
-11.949815392
 20
23.7076458597
 30
0.0
 11
-11.803765392
 21
23.7562958597
 31
0.0
  0
LINE
  5
136
330
1F
100
AcDbEntity
  8
0
  6
CONTINUOUS
 62
     7
100
AcDbLine
 10
-11.803765392
 20
23.7562958597
 30
0.0
 11
-11.633665392
 21
23.7877458597
 31
0.0
  0
LINE
  5
137
330
1F
100
AcDbEntity
  8
0
  6
CONTINUOUS
 62
     7
100
AcDbLine
 10
-11.633665392
 20
23.7877458597
 30
0.0
 11
-11.227065392
 21
23.8058958597
 31
0.0
  0
LINE
  5
138
330
1F
100
AcDbEntity
  8
0
  6
CONTINUOUS
 62
     7
100
AcDbLine
 10
-11.227065392
 20
23.8058958597
 30
0.0
 11
-10.741565392
 21
23.7760458597
 31
0.0
  0
LINE
  5
139
330
1F
100
AcDbEntity
  8
0
  6
CONTINUOUS
 62
     7
100
AcDbLine
 10
-10.741565392
 20
23.7760458597
 30
0.0
 11
-9.580265392
 21
23.6283958597
 31
0.0
  0
LINE
  5
13A
330
1F
100
AcDbEntity
  8
0
  6
CONTINUOUS
 62
     7
100
AcDbLine
 10
-9.580265392
 20
23.6283958597
 30
0.0
 11
-8.927565392
 21
23.5385458597
 31
0.0
  0
LINE
  5
13B
330
1F
100
AcDbEntity
  8
0
  6
CONTINUOUS
 62
     7
100
AcDbLine
 10
-8.927565392
 20
23.5385458597
 30
0.0
 11
-8.242315392
 21
23.4566958597
 31
0.0
  0
LINE
  5
13C
330
1F
100
AcDbEntity
  8
0
  6
CONTINUOUS
 62
     7
100
AcDbLine
 10
-8.242315392
 20
23.4566958597
 30
0.0
 11
-7.536065392
 21
23.3967958597
 31
0.0
  0
LINE
  5
13D
330
1F
100
AcDbEntity
  8
0
  6
CONTINUOUS
 62
     7
100
AcDbLine
 10
-7.536065392
 20
23.3967958597
 30
0.0
 11
-6.820365392
 21
23.3728458597
 31
0.0
  0
LINE
  5
13E
330
1F
100
AcDbEntity
  8
0
  6
CONTINUOUS
 62
     7
100
AcDbLine
 10
-6.820365392
 20
23.3728458597
 30
0.0
 11
-6.106815392
 21
23.3988458597
 31
0.0
  0
LINE
  5
13F
330
1F
100
AcDbEntity
  8
0
  6
CONTINUOUS
 62
     7
100
AcDbLine
 10
-6.106815392
 20
23.3988458597
 30
0.0
 11
-5.754465392
 21
23.4349458597
 31
0.0
  0
LINE
  5
140
330
1F
100
AcDbEntity
  8
0
  6
CONTINUOUS
 62
     7
100
AcDbLine
 10
-5.754465392
 20
23.4349458597
 30
0.0
 11
-5.406965392
 21
23.4887958597
 31
0.0
  0
LINE
  5
141
330
1F
100
AcDbEntity
  8
0
  6
CONTINUOUS
 62
     7
100
AcDbLine
 10
-5.406965392
 20
23.4887958597
 30
0.0
 11
-5.065815392
 21
23.5620958597
 31
0.0
  0
LINE
  5
142
330
1F
100
AcDbEntity
  8
0
  6
CONTINUOUS
 62
     7
100
AcDbLine
 10
-5.065815392
 20
23.5620958597
 30
0.0
 11
-4.732465392
 21
23.6566458597
 31
0.0
  0
LINE
  5
143
330
1F
100
AcDbEntity
  8
0
  6
CONTINUOUS
 62
     7
100
AcDbLine
 10
-4.732465392
 20
23.6566458597
 30
0.0
 11
-4.408315392
 21
23.7741458597
 31
0.0
  0
LINE
  5
144
330
1F
100
AcDbEntity
  8
0
  6
CONTINUOUS
 62
     7
100
AcDbLine
 10
-4.408315392
 20
23.7741458597
 30
0.0
 11
-4.094815392
 21
23.9163958597
 31
0.0
  0
LINE
  5
145
330
1F
100
AcDbEntity
  8
0
  6
CONTINUOUS
 62
     7
100
AcDbLine
 10
-4.094815392
 20
23.9163958597
 30
0.0
 11
-3.793415392
 21
24.0850958597
 31
0.0
  0
LINE
  5
146
330
1F
100
AcDbEntity
  8
0
  6
CONTINUOUS
 62
     7
100
AcDbLine
 10
-3.793415392
 20
24.0850958597
 30
0.0
 11
-3.505615392
 21
24.2820458597
 31
0.0
  0
LINE
  5
147
330
1F
100
AcDbEntity
  8
0
  6
CONTINUOUS
 62
     7
100
AcDbLine
 10
-3.505615392
 20
24.2820458597
 30
0.0
 11
-3.232765392
 21
24.5089458597
 31
0.0
  0
LINE
  5
148
330
1F
100
AcDbEntity
  8
0
  6
CONTINUOUS
 62
     7
100
AcDbLine
 10
-3.232765392
 20
24.5089458597
 30
0.0
 11
-2.976415392
 21
24.7675458597
 31
0.0
  0
LINE
  5
149
330
1F
100
AcDbEntity
  8
0
  6
CONTINUOUS
 62
     7
100
AcDbLine
 10
-2.976415392
 20
24.7675458597
 30
0.0
 11
-2.895165392
 21
24.9645458597
 31
0.0
  0
LINE
  5
14A
330
1F
100
AcDbEntity
  8
0
  6
CONTINUOUS
 62
     7
100
AcDbLine
 10
-2.895165392
 20
24.9645458597
 30
0.0
 11
-2.788715392
 21
25.1543458597
 31
0.0
  0
LINE
  5
14B
330
1F
100
AcDbEntity
  8
0
  6
CONTINUOUS
 62
     7
100
AcDbLine
 10
-2.788715392
 20
25.1543458597
 30
0.0
 11
-2.625065392
 21
25.3590958597
 31
0.0
  0
LINE
  5
14C
330
1F
100
AcDbEntity
  8
0
  6
CONTINUOUS
 62
     7
100
AcDbLine
 10
-2.625065392
 20
25.3590958597
 30
0.0
 11
-2.518715392
 21
25.4563958597
 31
0.0
  0
LINE
  5
14D
330
1F
100
AcDbEntity
  8
0
  6
CONTINUOUS
 62
     7
100
AcDbLine
 10
-2.518715392
 20
25.4563958597
 30
0.0
 11
-2.394315392
 21
25.5444958597
 31
0.0
  0
LINE
  5
14E
330
1F
100
AcDbEntity
  8
0
  6
CONTINUOUS
 62
     7
100
AcDbLine
 10
-2.394315392
 20
25.5444958597
 30
0.0
 11
-2.250665392
 21
25.6191458597
 31
0.0
  0
LINE
  5
14F
330
1F
100
AcDbEntity
  8
0
  6
CONTINUOUS
 62
     7
100
AcDbLine
 10
-2.250665392
 20
25.6191458597
 30
0.0
 11
-2.086515392
 21
25.6760958597
 31
0.0
  0
LINE
  5
150
330
1F
100
AcDbEntity
  8
0
  6
CONTINUOUS
 62
     7
100
AcDbLine
 10
-2.086515392
 20
25.6760958597
 30
0.0
 11
-1.900615392
 21
25.7109958597
 31
0.0
  0
LINE
  5
151
330
1F
100
AcDbEntity
  8
0
  6
CONTINUOUS
 62
     7
100
AcDbLine
 10
-1.900615392
 20
25.7109958597
 30
0.0
 11
-1.691765392
 21
25.7195458597
 31
0.0
  0
LINE
  5
152
330
1F
100
AcDbEntity
  8
0
  6
CONTINUOUS
 62
     7
100
AcDbLine
 10
-1.691765392
 20
25.7195458597
 30
0.0
 11
-1.458615392
 21
25.6974958597
 31
0.0
  0
LINE
  5
153
330
1F
100
AcDbEntity
  8
0
  6
CONTINUOUS
 62
     7
100
AcDbLine
 10
-1.458615392
 20
25.6974958597
 30
0.0
 11
-1.200015392
 21
25.6404458597
 31
0.0
  0
LINE
  5
154
330
1F
100
AcDbEntity
  8
0
  6
CONTINUOUS
 62
     7
100
AcDbLine
 10
-1.200015392
 20
25.6404458597
 30
0.0
 11
-0.847465392
 21
25.5687458597
 31
0.0
  0
LINE
  5
155
330
1F
100
AcDbEntity
  8
0
  6
CONTINUOUS
 62
     7
100
AcDbLine
 10
-0.847465392
 20
25.5687458597
 30
0.0
 11
-0.340815392
 21
25.5076458597
 31
0.0
  0
LINE
  5
156
330
1F
100
AcDbEntity
  8
0
  6
CONTINUOUS
 62
     7
100
AcDbLine
 10
-0.340815392
 20
25.5076458597
 30
0.0
 11
0.306034608
 21
25.4622958597
 31
0.0
  0
LINE
  5
157
330
1F
100
AcDbEntity
  8
0
  6
CONTINUOUS
 62
     7
100
AcDbLine
 10
0.306034608
 20
25.4622958597
 30
0.0
 11
1.079384608
 21
25.4378958597
 31
0.0
  0
LINE
  5
158
330
1F
100
AcDbEntity
  8
0
  6
CONTINUOUS
 62
     7
100
AcDbLine
 10
1.079384608
 20
25.4378958597
 30
0.0
 11
1.965384608
 21
25.4396958597
 31
0.0
  0
LINE
  5
159
330
1F
100
AcDbEntity
  8
0
  6
CONTINUOUS
 62
     7
100
AcDbLine
 10
1.965384608
 20
25.4396958597
 30
0.0
 11
2.950284608
 21
25.4728458597
 31
0.0
  0
LINE
  5
15A
330
1F
100
AcDbEntity
  8
0
  6
CONTINUOUS
 62
     7
100
AcDbLine
 10
2.950284608
 20
25.4728458597
 30
0.0
 11
4.020184608
 21
25.5424958597
 31
0.0
  0
LINE
  5
15B
330
1F
100
AcDbEntity
  8
0
  6
CONTINUOUS
 62
     7
100
AcDbLine
 10
4.020184608
 20
25.5424958597
 30
0.0
 11
5.161434608
 21
25.6539458597
 31
0.0
  0
LINE
  5
15C
330
1F
100
AcDbEntity
  8
0
  6
CONTINUOUS
 62
     7
100
AcDbLine
 10
5.161434608
 20
25.6539458597
 30
0.0
 11
6.360134608
 21
25.8122958597
 31
0.0
  0
LINE
  5
15D
330
1F
100
AcDbEntity
  8
0
  6
CONTINUOUS
 62
     7
100
AcDbLine
 10
6.360134608
 20
25.8122958597
 30
0.0
 11
7.602534608
 21
26.0227458597
 31
0.0
  0
LINE
  5
15E
330
1F
100
AcDbEntity
  8
0
  6
CONTINUOUS
 62
     7
100
AcDbLine
 10
7.602534608
 20
26.0227458597
 30
0.0
 11
8.874834608
 21
26.2905458597
 31
0.0
  0
LINE
  5
15F
330
1F
100
AcDbEntity
  8
0
  6
CONTINUOUS
 62
     7
100
AcDbLine
 10
8.874834608
 20
26.2905458597
 30
0.0
 11
9.517884608
 21
26.4475458597
 31
0.0
  0
LINE
  5
160
330
1F
100
AcDbEntity
  8
0
  6
CONTINUOUS
 62
     7
100
AcDbLine
 10
9.517884608
 20
26.4475458597
 30
0.0
 11
10.163234608
 21
26.6208458597
 31
0.0
  0
LINE
  5
161
330
1F
100
AcDbEntity
  8
0
  6
CONTINUOUS
 62
     7
100
AcDbLine
 10
10.163234608
 20
26.6208458597
 30
0.0
 11
10.809184608
 21
26.8110458597
 31
0.0
  0
LINE
  5
162
330
1F
100
AcDbEntity
  8
0
  6
CONTINUOUS
 62
     7
100
AcDbLine
 10
10.809184608
 20
26.8110458597
 30
0.0
 11
11.453984608
 21
27.0188458597
 31
0.0
  0
LINE
  5
163
330
1F
100
AcDbEntity
  8
0
  6
CONTINUOUS
 62
     7
100
AcDbLine
 10
11.453984608
 20
27.0188458597
 30
0.0
 11
12.095884608
 21
27.2448458597
 31
0.0
  0
LINE
  5
164
330
1F
100
AcDbEntity
  8
0
  6
CONTINUOUS
 62
     7
100
AcDbLine
 10
12.095884608
 20
27.2448458597
 30
0.0
 11
12.733184608
 21
27.4897458597
 31
0.0
  0
LINE
  5
165
330
1F
100
AcDbEntity
  8
0
  6
CONTINUOUS
 62
     7
100
AcDbLine
 10
12.733184608
 20
27.4897458597
 30
0.0
 11
13.364184608
 21
27.7541458597
 31
0.0
  0
LINE
  5
166
330
1F
100
AcDbEntity
  8
0
  6
CONTINUOUS
 62
     7
100
AcDbLine
 10
13.364184608
 20
27.7541458597
 30
0.0
 11
13.987184608
 21
28.0387458597
 31
0.0
  0
LINE
  5
167
330
1F
100
AcDbEntity
  8
0
  6
CONTINUOUS
 62
     7
100
AcDbLine
 10
13.987184608
 20
28.0387458597
 30
0.0
 11
14.600334608
 21
28.3441458597
 31
0.0
  0
LINE
  5
168
330
1F
100
AcDbEntity
  8
0
  6
CONTINUOUS
 62
     7
100
AcDbLine
 10
14.600334608
 20
28.3441458597
 30
0.0
 11
15.202034608
 21
28.6710458597
 31
0.0
  0
LINE
  5
169
330
1F
100
AcDbEntity
  8
0
  6
CONTINUOUS
 62
     7
100
AcDbLine
 10
15.202034608
 20
28.6710458597
 30
0.0
 11
15.291584608
 21
29.0300458597
 31
0.0
  0
LINE
  5
16A
330
1F
100
AcDbEntity
  8
0
  6
CONTINUOUS
 62
     7
100
AcDbLine
 10
15.291584608
 20
29.0300458597
 30
0.0
 11
15.352534608
 21
29.3794958597
 31
0.0
  0
LINE
  5
16B
330
1F
100
AcDbEntity
  8
0
  6
CONTINUOUS
 62
     7
100
AcDbLine
 10
15.352534608
 20
29.3794958597
 30
0.0
 11
15.370784608
 21
29.5706458597
 31
0.0
  0
LINE
  5
16C
330
1F
100
AcDbEntity
  8
0
  6
CONTINUOUS
 62
     7
100
AcDbLine
 10
15.370784608
 20
29.5706458597
 30
0.0
 11
15.374634608
 21
29.7628458597
 31
0.0
  0
LINE
  5
16D
330
1F
100
AcDbEntity
  8
0
  6
CONTINUOUS
 62
     7
100
AcDbLine
 10
15.374634608
 20
29.7628458597
 30
0.0
 11
15.359484608
 21
29.9485958597
 31
0.0
  0
LINE
  5
16E
330
1F
100
AcDbEntity
  8
0
  6
CONTINUOUS
 62
     7
100
AcDbLine
 10
15.359484608
 20
29.9485958597
 30
0.0
 11
15.320684608
 21
30.1204958597
 31
0.0
  0
LINE
  5
16F
330
1F
100
AcDbEntity
  8
0
  6
CONTINUOUS
 62
     7
100
AcDbLine
 10
15.320684608
 20
30.1204958597
 30
0.0
 11
15.253484608
 21
30.2710958597
 31
0.0
  0
LINE
  5
170
330
1F
100
AcDbEntity
  8
0
  6
CONTINUOUS
 62
     7
100
AcDbLine
 10
15.253484608
 20
30.2710958597
 30
0.0
 11
15.153384608
 21
30.3929458597
 31
0.0
  0
LINE
  5
171
330
1F
100
AcDbEntity
  8
0
  6
CONTINUOUS
 62
     7
100
AcDbLine
 10
15.153384608
 20
30.3929458597
 30
0.0
 11
15.015584608
 21
30.4785958597
 31
0.0
  0
LINE
  5
172
330
1F
100
AcDbEntity
  8
0
  6
CONTINUOUS
 62
     7
100
AcDbLine
 10
15.015584608
 20
30.4785958597
 30
0.0
 11
14.835484608
 21
30.5205958597
 31
0.0
  0
LINE
  5
173
330
1F
100
AcDbEntity
  8
0
  6
CONTINUOUS
 62
     7
100
AcDbLine
 10
14.835484608
 20
30.5205958597
 30
0.0
 11
14.608484608
 21
30.5115458597
 31
0.0
  0
LINE
  5
174
330
1F
100
AcDbEntity
  8
0
  6
CONTINUOUS
 62
     7
100
AcDbLine
 10
14.608484608
 20
30.5115458597
 30
0.0
 11
14.329834608
 21
30.4439458597
 31
0.0
  0
LINE
  5
175
330
1F
100
AcDbEntity
  8
0
  6
CONTINUOUS
 62
     7
100
AcDbLine
 10
14.329834608
 20
30.4439458597
 30
0.0
 11
13.566184608
 21
30.2071458597
 31
0.0
  0
LINE
  5
176
330
1F
100
AcDbEntity
  8
0
  6
CONTINUOUS
 62
     7
100
AcDbLine
 10
13.566184608
 20
30.2071458597
 30
0.0
 11
12.592934608
 21
29.9369958597
 31
0.0
  0
LINE
  5
177
330
1F
100
AcDbEntity
  8
0
  6
CONTINUOUS
 62
     7
100
AcDbLine
 10
12.592934608
 20
29.9369958597
 30
0.0
 11
12.069934608
 21
29.8109958597
 31
0.0
  0
LINE
  5
178
330
1F
100
AcDbEntity
  8
0
  6
CONTINUOUS
 62
     7
100
AcDbLine
 10
12.069934608
 20
29.8109958597
 30
0.0
 11
11.545234608
 21
29.7024958597
 31
0.0
  0
LINE
  5
179
330
1F
100
AcDbEntity
  8
0
  6
CONTINUOUS
 62
     7
100
AcDbLine
 10
11.545234608
 20
29.7024958597
 30
0.0
 11
11.035684608
 21
29.6201958597
 31
0.0
  0
LINE
  5
17A
330
1F
100
AcDbEntity
  8
0
  6
CONTINUOUS
 62
     7
100
AcDbLine
 10
11.035684608
 20
29.6201958597
 30
0.0
 11
10.558234608
 21
29.5726958597
 31
0.0
  0
LINE
  5
17B
330
1F
100
AcDbEntity
  8
0
  6
CONTINUOUS
 62
     7
100
AcDbLine
 10
10.558234608
 20
29.5726958597
 30
0.0
 11
10.129684608
 21
29.5685958597
 31
0.0
  0
LINE
  5
17C
330
1F
100
AcDbEntity
  8
0
  6
CONTINUOUS
 62
     7
100
AcDbLine
 10
10.129684608
 20
29.5685958597
 30
0.0
 11
9.939034608
 21
29.5854958597
 31
0.0
  0
LINE
  5
17D
330
1F
100
AcDbEntity
  8
0
  6
CONTINUOUS
 62
     7
100
AcDbLine
 10
9.939034608
 20
29.5854958597
 30
0.0
 11
9.766984608
 21
29.6164958597
 31
0.0
  0
LINE
  5
17E
330
1F
100
AcDbEntity
  8
0
  6
CONTINUOUS
 62
     7
100
AcDbLine
 10
9.766984608
 20
29.6164958597
 30
0.0
 11
9.615584608
 21
29.6626958597
 31
0.0
  0
LINE
  5
17F
330
1F
100
AcDbEntity
  8
0
  6
CONTINUOUS
 62
     7
100
AcDbLine
 10
9.615584608
 20
29.6626958597
 30
0.0
 11
9.487034608
 21
29.7251458597
 31
0.0
  0
LINE
  5
180
330
1F
100
AcDbEntity
  8
0
  6
CONTINUOUS
 62
     7
100
AcDbLine
 10
9.487034608
 20
29.7251458597
 30
0.0
 11
9.383334608
 21
29.8048958597
 31
0.0
  0
LINE
  5
181
330
1F
100
AcDbEntity
  8
0
  6
CONTINUOUS
 62
     7
100
AcDbLine
 10
9.383334608
 20
29.8048958597
 30
0.0
 11
9.306684608
 21
29.9030458597
 31
0.0
  0
LINE
  5
182
330
1F
100
AcDbEntity
  8
0
  6
CONTINUOUS
 62
     7
100
AcDbLine
 10
9.306684608
 20
29.9030458597
 30
0.0
 11
9.259134608
 21
30.0206458597
 31
0.0
  0
LINE
  5
183
330
1F
100
AcDbEntity
  8
0
  6
CONTINUOUS
 62
     7
100
AcDbLine
 10
9.259134608
 20
30.0206458597
 30
0.0
 11
9.242884608
 21
30.1588458597
 31
0.0
  0
LINE
  5
184
330
1F
100
AcDbEntity
  8
0
  6
CONTINUOUS
 62
     7
100
AcDbLine
 10
9.242884608
 20
30.1588458597
 30
0.0
 11
9.259934608
 21
30.3186458597
 31
0.0
  0
LINE
  5
185
330
1F
100
AcDbEntity
  8
0
  6
CONTINUOUS
 62
     7
100
AcDbLine
 10
9.259934608
 20
30.3186458597
 30
0.0
 11
9.312434608
 21
30.5011958597
 31
0.0
  0
LINE
  5
186
330
1F
100
AcDbEntity
  8
0
  6
CONTINUOUS
 62
     7
100
AcDbLine
 10
9.312434608
 20
30.5011958597
 30
0.0
 11
9.402534608
 21
30.7075458597
 31
0.0
  0
LINE
  5
187
330
1F
100
AcDbEntity
  8
0
  6
CONTINUOUS
 62
     7
100
AcDbLine
 10
9.402534608
 20
30.7075458597
 30
0.0
 11
9.532334608
 21
30.9387458597
 31
0.0
  0
LINE
  5
188
330
1F
100
AcDbEntity
  8
0
  6
CONTINUOUS
 62
     7
100
AcDbLine
 10
9.532334608
 20
30.9387458597
 30
0.0
 11
9.703934608
 21
31.1958958597
 31
0.0
  0
LINE
  5
189
330
1F
100
AcDbEntity
  8
0
  6
CONTINUOUS
 62
     7
100
AcDbLine
 10
9.703934608
 20
31.1958958597
 30
0.0
 11
9.919434608
 21
31.4800458597
 31
0.0
  0
LINE
  5
18A
330
1F
100
AcDbEntity
  8
0
  6
CONTINUOUS
 62
     7
100
AcDbLine
 10
9.919434608
 20
31.4800458597
 30
0.0
 11
10.378484608
 21
32.0363958597
 31
0.0
  0
LINE
  5
18B
330
1F
100
AcDbEntity
  8
0
  6
CONTINUOUS
 62
     7
100
AcDbLine
 10
10.378484608
 20
32.0363958597
 30
0.0
 11
10.803634608
 21
32.5169958597
 31
0.0
  0
LINE
  5
18C
330
1F
100
AcDbEntity
  8
0
  6
CONTINUOUS
 62
     7
100
AcDbLine
 10
10.803634608
 20
32.5169958597
 30
0.0
 11
11.195434608
 21
32.9273958597
 31
0.0
  0
LINE
  5
18D
330
1F
100
AcDbEntity
  8
0
  6
CONTINUOUS
 62
     7
100
AcDbLine
 10
11.195434608
 20
32.9273958597
 30
0.0
 11
11.554534608
 21
33.2730958597
 31
0.0
  0
LINE
  5
18E
330
1F
100
AcDbEntity
  8
0
  6
CONTINUOUS
 62
     7
100
AcDbLine
 10
11.554534608
 20
33.2730958597
 30
0.0
 11
11.881684608
 21
33.5596958597
 31
0.0
  0
LINE
  5
18F
330
1F
100
AcDbEntity
  8
0
  6
CONTINUOUS
 62
     7
100
AcDbLine
 10
11.881684608
 20
33.5596958597
 30
0.0
 11
12.177534608
 21
33.7927458597
 31
0.0
  0
LINE
  5
190
330
1F
100
AcDbEntity
  8
0
  6
CONTINUOUS
 62
     7
100
AcDbLine
 10
12.177534608
 20
33.7927458597
 30
0.0
 11
12.442684608
 21
33.9777458597
 31
0.0
  0
LINE
  5
191
330
1F
100
AcDbEntity
  8
0
  6
CONTINUOUS
 62
     7
100
AcDbLine
 10
12.442684608
 20
33.9777458597
 30
0.0
 11
12.677834608
 21
34.1203458597
 31
0.0
  0
LINE
  5
192
330
1F
100
AcDbEntity
  8
0
  6
CONTINUOUS
 62
     7
100
AcDbLine
 10
12.677834608
 20
34.1203458597
 30
0.0
 11
13.060734608
 21
34.3002458597
 31
0.0
  0
LINE
  5
193
330
1F
100
AcDbEntity
  8
0
  6
CONTINUOUS
 62
     7
100
AcDbLine
 10
13.060734608
 20
34.3002458597
 30
0.0
 11
13.331584608
 21
34.3768958597
 31
0.0
  0
LINE
  5
194
330
1F
100
AcDbEntity
  8
0
  6
CONTINUOUS
 62
     7
100
AcDbLine
 10
13.331584608
 20
34.3768958597
 30
0.0
 11
13.495684608
 21
34.3947458597
 31
0.0
  0
LINE
  5
195
330
1F
100
AcDbEntity
  8
0
  6
CONTINUOUS
 62
     7
100
AcDbLine
 10
13.495684608
 20
34.3947458597
 30
0.0
 11
13.558284608
 21
34.3980958597
 31
0.0
  0
LINE
  5
196
330
1F
100
AcDbEntity
  8
0
  6
CONTINUOUS
 62
     7
100
AcDbLine
 10
13.558284608
 20
34.3980958597
 30
0.0
 11
13.535334608
 21
34.5099458597
 31
0.0
  0
LINE
  5
197
330
1F
100
AcDbEntity
  8
0
  6
CONTINUOUS
 62
     7
100
AcDbLine
 10
13.535334608
 20
34.5099458597
 30
0.0
 11
13.473384608
 21
34.7860458597
 31
0.0
  0
LINE
  5
198
330
1F
100
AcDbEntity
  8
0
  6
CONTINUOUS
 62
     7
100
AcDbLine
 10
13.473384608
 20
34.7860458597
 30
0.0
 11
13.362334608
 21
35.1529458597
 31
0.0
  0
LINE
  5
199
330
1F
100
AcDbEntity
  8
0
  6
CONTINUOUS
 62
     7
100
AcDbLine
 10
13.362334608
 20
35.1529458597
 30
0.0
 11
13.285134608
 21
35.3474958597
 31
0.0
  0
LINE
  5
19A
330
1F
100
AcDbEntity
  8
0
  6
CONTINUOUS
 62
     7
100
AcDbLine
 10
13.285134608
 20
35.3474958597
 30
0.0
 11
13.191834608
 21
35.5372458597
 31
0.0
  0
LINE
  5
19B
330
1F
100
AcDbEntity
  8
0
  6
CONTINUOUS
 62
     7
100
AcDbLine
 10
13.191834608
 20
35.5372458597
 30
0.0
 11
13.081084608
 21
35.7128958597
 31
0.0
  0
LINE
  5
19C
330
1F
100
AcDbEntity
  8
0
  6
CONTINUOUS
 62
     7
100
AcDbLine
 10
13.081084608
 20
35.7128958597
 30
0.0
 11
12.951684608
 21
35.8653458597
 31
0.0
  0
LINE
  5
19D
330
1F
100
AcDbEntity
  8
0
  6
CONTINUOUS
 62
     7
100
AcDbLine
 10
12.951684608
 20
35.8653458597
 30
0.0
 11
12.802334608
 21
35.9853958597
 31
0.0
  0
LINE
  5
19E
330
1F
100
AcDbEntity
  8
0
  6
CONTINUOUS
 62
     7
100
AcDbLine
 10
12.802334608
 20
35.9853958597
 30
0.0
 11
12.631684608
 21
36.0637958597
 31
0.0
  0
LINE
  5
19F
330
1F
100
AcDbEntity
  8
0
  6
CONTINUOUS
 62
     7
100
AcDbLine
 10
12.631684608
 20
36.0637958597
 30
0.0
 11
12.438534608
 21
36.0914958597
 31
0.0
  0
LINE
  5
1A0
330
1F
100
AcDbEntity
  8
0
  6
CONTINUOUS
 62
     7
100
AcDbLine
 10
12.438534608
 20
36.0914958597
 30
0.0
 11
12.333084608
 21
36.0833958597
 31
0.0
  0
LINE
  5
1A1
330
1F
100
AcDbEntity
  8
0
  6
CONTINUOUS
 62
     7
100
AcDbLine
 10
12.333084608
 20
36.0833958597
 30
0.0
 11
12.221534608
 21
36.0591958597
 31
0.0
  0
LINE
  5
1A2
330
1F
100
AcDbEntity
  8
0
  6
CONTINUOUS
 62
     7
100
AcDbLine
 10
12.221534608
 20
36.0591958597
 30
0.0
 11
11.979484608
 21
35.9577458597
 31
0.0
  0
LINE
  5
1A3
330
1F
100
AcDbEntity
  8
0
  6
CONTINUOUS
 62
     7
100
AcDbLine
 10
11.979484608
 20
35.9577458597
 30
0.0
 11
11.711084608
 21
35.7779458597
 31
0.0
  0
LINE
  5
1A4
330
1F
100
AcDbEntity
  8
0
  6
CONTINUOUS
 62
     7
100
AcDbLine
 10
11.711084608
 20
35.7779458597
 30
0.0
 11
11.007384608
 21
35.2248958597
 31
0.0
  0
LINE
  5
1A5
330
1F
100
AcDbEntity
  8
0
  6
CONTINUOUS
 62
     7
100
AcDbLine
 10
11.007384608
 20
35.2248958597
 30
0.0
 11
10.088184608
 21
34.5307458597
 31
0.0
  0
LINE
  5
1A6
330
1F
100
AcDbEntity
  8
0
  6
CONTINUOUS
 62
     7
100
AcDbLine
 10
10.088184608
 20
34.5307458597
 30
0.0
 11
9.577884608
 21
34.1639458597
 31
0.0
  0
LINE
  5
1A7
330
1F
100
AcDbEntity
  8
0
  6
CONTINUOUS
 62
     7
100
AcDbLine
 10
9.577884608
 20
34.1639458597
 30
0.0
 11
9.049934608
 21
33.8017458597
 31
0.0
  0
LINE
  5
1A8
330
1F
100
AcDbEntity
  8
0
  6
CONTINUOUS
 62
     7
100
AcDbLine
 10
9.049934608
 20
33.8017458597
 30
0.0
 11
8.516384608
 21
33.4573458597
 31
0.0
  0
LINE
  5
1A9
330
1F
100
AcDbEntity
  8
0
  6
CONTINUOUS
 62
     7
100
AcDbLine
 10
8.516384608
 20
33.4573458597
 30
0.0
 11
7.989184608
 21
33.1440458597
 31
0.0
  0
LINE
  5
1AA
330
1F
100
AcDbEntity
  8
0
  6
CONTINUOUS
 62
     7
100
AcDbLine
 10
7.989184608
 20
33.1440458597
 30
0.0
 11
7.480534608
 21
32.8750958597
 31
0.0
  0
LINE
  5
1AB
330
1F
100
AcDbEntity
  8
0
  6
CONTINUOUS
 62
     7
100
AcDbLine
 10
7.480534608
 20
32.8750958597
 30
0.0
 11
7.002434608
 21
32.6638458597
 31
0.0
  0
LINE
  5
1AC
330
1F
100
AcDbEntity
  8
0
  6
CONTINUOUS
 62
     7
100
AcDbLine
 10
7.002434608
 20
32.6638458597
 30
0.0
 11
6.778584608
 21
32.5839458597
 31
0.0
  0
LINE
  5
1AD
330
1F
100
AcDbEntity
  8
0
  6
CONTINUOUS
 62
     7
100
AcDbLine
 10
6.778584608
 20
32.5839458597
 30
0.0
 11
6.566934608
 21
32.5234958597
 31
0.0
  0
LINE
  5
1AE
330
1F
100
AcDbEntity
  8
0
  6
CONTINUOUS
 62
     7
100
AcDbLine
 10
6.566934608
 20
32.5234958597
 30
0.0
 11
6.368884608
 21
32.4840458597
 31
0.0
  0
LINE
  5
1AF
330
1F
100
AcDbEntity
  8
0
  6
CONTINUOUS
 62
     7
100
AcDbLine
 10
6.368884608
 20
32.4840458597
 30
0.0
 11
6.186084608
 21
32.4673458597
 31
0.0
  0
LINE
  5
1B0
330
1F
100
AcDbEntity
  8
0
  6
CONTINUOUS
 62
     7
100
AcDbLine
 10
6.186084608
 20
32.4673458597
 30
0.0
 11
6.019934608
 21
32.4749458597
 31
0.0
  0
LINE
  5
1B1
330
1F
100
AcDbEntity
  8
0
  6
CONTINUOUS
 62
     7
100
AcDbLine
 10
6.019934608
 20
32.4749458597
 30
0.0
 11
5.871984608
 21
32.5086458597
 31
0.0
  0
LINE
  5
1B2
330
1F
100
AcDbEntity
  8
0
  6
CONTINUOUS
 62
     7
100
AcDbLine
 10
5.871984608
 20
32.5086458597
 30
0.0
 11
5.743734608
 21
32.5699958597
 31
0.0
  0
LINE
  5
1B3
330
1F
100
AcDbEntity
  8
0
  6
CONTINUOUS
 62
     7
100
AcDbLine
 10
5.743734608
 20
32.5699958597
 30
0.0
 11
5.636684608
 21
32.6606958597
 31
0.0
  0
LINE
  5
1B4
330
1F
100
AcDbEntity
  8
0
  6
CONTINUOUS
 62
     7
100
AcDbLine
 10
5.636684608
 20
32.6606958597
 30
0.0
 11
5.552334608
 21
32.7824458597
 31
0.0
  0
LINE
  5
1B5
330
1F
100
AcDbEntity
  8
0
  6
CONTINUOUS
 62
     7
100
AcDbLine
 10
5.552334608
 20
32.7824458597
 30
0.0
 11
5.492184608
 21
32.9367958597
 31
0.0
  0
LINE
  5
1B6
330
1F
100
AcDbEntity
  8
0
  6
CONTINUOUS
 62
     7
100
AcDbLine
 10
5.492184608
 20
32.9367958597
 30
0.0
 11
5.457834608
 21
33.1254958597
 31
0.0
  0
LINE
  5
1B7
330
1F
100
AcDbEntity
  8
0
  6
CONTINUOUS
 62
     7
100
AcDbLine
 10
5.457834608
 20
33.1254958597
 30
0.0
 11
5.450684608
 21
33.3501958597
 31
0.0
  0
LINE
  5
1B8
330
1F
100
AcDbEntity
  8
0
  6
CONTINUOUS
 62
     7
100
AcDbLine
 10
5.450684608
 20
33.3501958597
 30
0.0
 11
5.544384608
 21
35.4149458597
 31
0.0
  0
LINE
  5
1B9
330
1F
100
AcDbEntity
  8
0
  6
CONTINUOUS
 62
     7
100
AcDbLine
 10
5.544384608
 20
35.4149458597
 30
0.0
 11
5.679184608
 21
37.4392958597
 31
0.0
  0
LINE
  5
1BA
330
1F
100
AcDbEntity
  8
0
  6
CONTINUOUS
 62
     7
100
AcDbLine
 10
5.679184608
 20
37.4392958597
 30
0.0
 11
5.855534608
 21
39.6348958597
 31
0.0
  0
LINE
  5
1BB
330
1F
100
AcDbEntity
  8
0
  6
CONTINUOUS
 62
     7
100
AcDbLine
 10
5.855534608
 20
39.6348958597
 30
0.0
 11
5.640234608
 21
39.6319958597
 31
0.0
  0
LINE
  5
1BC
330
1F
100
AcDbEntity
  8
0
  6
CONTINUOUS
 62
     7
100
AcDbLine
 10
5.640234608
 20
39.6319958597
 30
0.0
 11
5.401384608
 21
39.6144458597
 31
0.0
  0
LINE
  5
1BD
330
1F
100
AcDbEntity
  8
0
  6
CONTINUOUS
 62
     7
100
AcDbLine
 10
5.401384608
 20
39.6144458597
 30
0.0
 11
5.089134608
 21
39.5700958597
 31
0.0
  0
LINE
  5
1BE
330
1F
100
AcDbEntity
  8
0
  6
CONTINUOUS
 62
     7
100
AcDbLine
 10
5.089134608
 20
39.5700958597
 30
0.0
 11
4.714234608
 21
39.4868458597
 31
0.0
  0
LINE
  5
1BF
330
1F
100
AcDbEntity
  8
0
  6
CONTINUOUS
 62
     7
100
AcDbLine
 10
4.714234608
 20
39.4868458597
 30
0.0
 11
4.287234608
 21
39.3525958597
 31
0.0
  0
LINE
  5
1C0
330
1F
100
AcDbEntity
  8
0
  6
CONTINUOUS
 62
     7
100
AcDbLine
 10
4.287234608
 20
39.3525958597
 30
0.0
 11
3.818734608
 21
39.1552958597
 31
0.0
  0
LINE
  5
1C1
330
1F
100
AcDbEntity
  8
0
  6
CONTINUOUS
 62
     7
100
AcDbLine
 10
3.818734608
 20
39.1552958597
 30
0.0
 11
3.572284608
 21
39.0291958597
 31
0.0
  0
LINE
  5
1C2
330
1F
100
AcDbEntity
  8
0
  6
CONTINUOUS
 62
     7
100
AcDbLine
 10
3.572284608
 20
39.0291958597
 30
0.0
 11
2.661184608
 21
38.5006458597
 31
0.0
  0
LINE
  5
1C3
330
1F
100
AcDbEntity
  8
0
  6
CONTINUOUS
 62
     7
100
AcDbLine
 10
2.661184608
 20
38.5006458597
 30
0.0
 11
1.788334608
 21
38.0391958597
 31
0.0
  0
LINE
  5
1C4
330
1F
100
AcDbEntity
  8
0
  6
CONTINUOUS
 62
     7
100
AcDbLine
 10
1.788334608
 20
38.0391958597
 30
0.0
 11
1.308434608
 21
37.8054958597
 31
0.0
  0
LINE
  5
1C5
330
1F
100
AcDbEntity
  8
0
  6
CONTINUOUS
 62
     7
100
AcDbLine
 10
1.308434608
 20
37.8054958597
 30
0.0
 11
0.819334608
 21
37.5840458597
 31
0.0
  0
LINE
  5
1C6
330
1F
100
AcDbEntity
  8
0
  6
CONTINUOUS
 62
     7
100
AcDbLine
 10
0.819334608
 20
37.5840458597
 30
0.0
 11
0.335834608
 21
37.3855458597
 31
0.0
  0
LINE
  5
1C7
330
1F
100
AcDbEntity
  8
0
  6
CONTINUOUS
 62
     7
100
AcDbLine
 10
0.335834608
 20
37.3855458597
 30
0.0
 11
-0.127265392
 21
37.2206958597
 31
0.0
  0
LINE
  5
1C8
330
1F
100
AcDbEntity
  8
0
  6
CONTINUOUS
 62
     7
100
AcDbLine
 10
-0.127265392
 20
37.2206958597
 30
0.0
 11
-0.555215392
 21
37.1001458597
 31
0.0
  0
LINE
  5
1C9
330
1F
100
AcDbEntity
  8
0
  6
CONTINUOUS
 62
     7
100
AcDbLine
 10
-0.555215392
 20
37.1001458597
 30
0.0
 11
-0.933115392
 21
37.0346958597
 31
0.0
  0
LINE
  5
1CA
330
1F
100
AcDbEntity
  8
0
  6
CONTINUOUS
 62
     7
100
AcDbLine
 10
-0.933115392
 20
37.0346958597
 30
0.0
 11
-1.098665392
 21
37.0258958597
 31
0.0
  0
LINE
  5
1CB
330
1F
100
AcDbEntity
  8
0
  6
CONTINUOUS
 62
     7
100
AcDbLine
 10
-1.098665392
 20
37.0258958597
 30
0.0
 11
-1.246165392
 21
37.0348958597
 31
0.0
  0
LINE
  5
1CC
330
1F
100
AcDbEntity
  8
0
  6
CONTINUOUS
 62
     7
100
AcDbLine
 10
-1.246165392
 20
37.0348958597
 30
0.0
 11
-1.373765392
 21
37.0629958597
 31
0.0
  0
LINE
  5
1CD
330
1F
100
AcDbEntity
  8
0
  6
CONTINUOUS
 62
     7
100
AcDbLine
 10
-1.373765392
 20
37.0629958597
 30
0.0
 11
-1.479615392
 21
37.1115458597
 31
0.0
  0
LINE
  5
1CE
330
1F
100
AcDbEntity
  8
0
  6
CONTINUOUS
 62
     7
100
AcDbLine
 10
-1.479615392
 20
37.1115458597
 30
0.0
 11
-1.561865392
 21
37.1818458597
 31
0.0
  0
LINE
  5
1CF
330
1F
100
AcDbEntity
  8
0
  6
CONTINUOUS
 62
     7
100
AcDbLine
 10
-1.561865392
 20
37.1818458597
 30
0.0
 11
-1.618615392
 21
37.2752958597
 31
0.0
  0
LINE
  5
1D0
330
1F
100
AcDbEntity
  8
0
  6
CONTINUOUS
 62
     7
100
AcDbLine
 10
-1.618615392
 20
37.2752958597
 30
0.0
 11
-1.648065392
 21
37.3931458597
 31
0.0
  0
LINE
  5
1D1
330
1F
100
AcDbEntity
  8
0
  6
CONTINUOUS
 62
     7
100
AcDbLine
 10
-1.648065392
 20
37.3931458597
 30
0.0
 11
-1.648365392
 21
37.5367958597
 31
0.0
  0
LINE
  5
1D2
330
1F
100
AcDbEntity
  8
0
  6
CONTINUOUS
 62
     7
100
AcDbLine
 10
-1.648365392
 20
37.5367958597
 30
0.0
 11
-1.617615392
 21
37.7075958597
 31
0.0
  0
LINE
  5
1D3
330
1F
100
AcDbEntity
  8
0
  6
CONTINUOUS
 62
     7
100
AcDbLine
 10
-1.617615392
 20
37.7075958597
 30
0.0
 11
-1.554065392
 21
37.9068458597
 31
0.0
  0
LINE
  5
1D4
330
1F
100
AcDbEntity
  8
0
  6
CONTINUOUS
 62
     7
100
AcDbLine
 10
-1.554065392
 20
37.9068458597
 30
0.0
 11
-1.455765392
 21
38.1358458597
 31
0.0
  0
LINE
  5
1D5
330
1F
100
AcDbEntity
  8
0
  6
CONTINUOUS
 62
     7
100
AcDbLine
 10
-1.455765392
 20
38.1358458597
 30
0.0
 11
-1.320865392
 21
38.3960458597
 31
0.0
  0
LINE
  5
1D6
330
1F
100
AcDbEntity
  8
0
  6
CONTINUOUS
 62
     7
100
AcDbLine
 10
-1.320865392
 20
38.3960458597
 30
0.0
 11
-0.718065392
 21
39.5245958597
 31
0.0
  0
LINE
  5
1D7
330
1F
100
AcDbEntity
  8
0
  6
CONTINUOUS
 62
     7
100
AcDbLine
 10
-0.718065392
 20
39.5245958597
 30
0.0
 11
-0.110365392
 21
40.6690458597
 31
0.0
  0
LINE
  5
1D8
330
1F
100
AcDbEntity
  8
0
  6
CONTINUOUS
 62
     7
100
AcDbLine
 10
-0.110365392
 20
40.6690458597
 30
0.0
 11
0.207684608
 21
41.2362458597
 31
0.0
  0
LINE
  5
1D9
330
1F
100
AcDbEntity
  8
0
  6
CONTINUOUS
 62
     7
100
AcDbLine
 10
0.207684608
 20
41.2362458597
 30
0.0
 11
0.541784608
 21
41.7941958597
 31
0.0
  0
LINE
  5
1DA
330
1F
100
AcDbEntity
  8
0
  6
CONTINUOUS
 62
     7
100
AcDbLine
 10
0.541784608
 20
41.7941958597
 30
0.0
 11
0.896834608
 21
42.3385458597
 31
0.0
  0
LINE
  5
1DB
330
1F
100
AcDbEntity
  8
0
  6
CONTINUOUS
 62
     7
100
AcDbLine
 10
0.896834608
 20
42.3385458597
 30
0.0
 11
1.277834608
 21
42.8647958597
 31
0.0
  0
LINE
  5
1DC
330
1F
100
AcDbEntity
  8
0
  6
CONTINUOUS
 62
     7
100
AcDbLine
 10
1.277834608
 20
42.8647958597
 30
0.0
 11
1.689684608
 21
43.3685458597
 31
0.0
  0
LINE
  5
1DD
330
1F
100
AcDbEntity
  8
0
  6
CONTINUOUS
 62
     7
100
AcDbLine
 10
1.689684608
 20
43.3685458597
 30
0.0
 11
2.137384608
 21
43.8454958597
 31
0.0
  0
LINE
  5
1DE
330
1F
100
AcDbEntity
  8
0
  6
CONTINUOUS
 62
     7
100
AcDbLine
 10
2.137384608
 20
43.8454958597
 30
0.0
 11
2.625784608
 21
44.2911458597
 31
0.0
  0
LINE
  5
1DF
330
1F
100
AcDbEntity
  8
0
  6
CONTINUOUS
 62
     7
100
AcDbLine
 10
2.625784608
 20
44.2911458597
 30
0.0
 11
2.886834608
 21
44.5008458597
 31
0.0
  0
LINE
  5
1E0
330
1F
100
AcDbEntity
  8
0
  6
CONTINUOUS
 62
     7
100
AcDbLine
 10
2.886834608
 20
44.5008458597
 30
0.0
 11
3.159884608
 21
44.7010958597
 31
0.0
  0
LINE
  5
1E1
330
1F
100
AcDbEntity
  8
0
  6
CONTINUOUS
 62
     7
100
AcDbLine
 10
3.159884608
 20
44.7010958597
 30
0.0
 11
3.445634608
 21
44.8913458597
 31
0.0
  0
LINE
  5
1E2
330
1F
100
AcDbEntity
  8
0
  6
CONTINUOUS
 62
     7
100
AcDbLine
 10
3.445634608
 20
44.8913458597
 30
0.0
 11
3.744634608
 21
45.0709958597
 31
0.0
  0
LINE
  5
1E3
330
1F
100
AcDbEntity
  8
0
  6
CONTINUOUS
 62
     7
100
AcDbLine
 10
3.744634608
 20
45.0709958597
 30
0.0
 11
4.057534608
 21
45.2394958597
 31
0.0
  0
LINE
  5
1E4
330
1F
100
AcDbEntity
  8
0
  6
CONTINUOUS
 62
     7
100
AcDbLine
 10
4.057534608
 20
45.2394958597
 30
0.0
 11
4.384934608
 21
45.3963458597
 31
0.0
  0
LINE
  5
1E5
330
1F
100
AcDbEntity
  8
0
  6
CONTINUOUS
 62
     7
100
AcDbLine
 10
4.384934608
 20
45.3963458597
 30
0.0
 11
4.727484608
 21
45.5409958597
 31
0.0
  0
LINE
  5
1E6
330
1F
100
AcDbEntity
  8
0
  6
CONTINUOUS
 62
     7
100
AcDbLine
 10
4.727484608
 20
45.5409958597
 30
0.0
 11
5.085784608
 21
45.6728458597
 31
0.0
  0
LINE
  5
1E7
330
1F
100
AcDbEntity
  8
0
  6
CONTINUOUS
 62
     7
100
AcDbLine
 10
5.085784608
 20
45.6728458597
 30
0.0
 11
5.460434608
 21
45.7913958597
 31
0.0
  0
LINE
  5
1E8
330
1F
100
AcDbEntity
  8
0
  6
CONTINUOUS
 62
     7
100
AcDbLine
 10
5.460434608
 20
45.7913958597
 30
0.0
 11
5.852034608
 21
45.8960458597
 31
0.0
  0
LINE
  5
1E9
330
1F
100
AcDbEntity
  8
0
  6
CONTINUOUS
 62
     7
100
AcDbLine
 10
5.852034608
 20
45.8960458597
 30
0.0
 11
5.914884608
 21
46.0077958597
 31
0.0
  0
LINE
  5
1EA
330
1F
100
AcDbEntity
  8
0
  6
CONTINUOUS
 62
     7
100
AcDbLine
 10
5.914884608
 20
46.0077958597
 30
0.0
 11
6.063734608
 21
46.2848458597
 31
0.0
  0
LINE
  5
1EB
330
1F
100
AcDbEntity
  8
0
  6
CONTINUOUS
 62
     7
100
AcDbLine
 10
6.063734608
 20
46.2848458597
 30
0.0
 11
6.226684608
 21
46.6583958597
 31
0.0
  0
LINE
  5
1EC
330
1F
100
AcDbEntity
  8
0
  6
CONTINUOUS
 62
     7
100
AcDbLine
 10
6.226684608
 20
46.6583958597
 30
0.0
 11
6.290934608
 21
46.8599458597
 31
0.0
  0
LINE
  5
1ED
330
1F
100
AcDbEntity
  8
0
  6
CONTINUOUS
 62
     7
100
AcDbLine
 10
6.290934608
 20
46.8599458597
 30
0.0
 11
6.331684608
 21
47.0598458597
 31
0.0
  0
LINE
  5
1EE
330
1F
100
AcDbEntity
  8
0
  6
CONTINUOUS
 62
     7
100
AcDbLine
 10
6.331684608
 20
47.0598458597
 30
0.0
 11
6.340034608
 21
47.2495958597
 31
0.0
  0
LINE
  5
1EF
330
1F
100
AcDbEntity
  8
0
  6
CONTINUOUS
 62
     7
100
AcDbLine
 10
6.340034608
 20
47.2495958597
 30
0.0
 11
6.306884608
 21
47.4204958597
 31
0.0
  0
LINE
  5
1F0
330
1F
100
AcDbEntity
  8
0
  6
CONTINUOUS
 62
     7
100
AcDbLine
 10
6.306884608
 20
47.4204958597
 30
0.0
 11
6.271934608
 21
47.4962458597
 31
0.0
  0
LINE
  5
1F1
330
1F
100
AcDbEntity
  8
0
  6
CONTINUOUS
 62
     7
100
AcDbLine
 10
6.271934608
 20
47.4962458597
 30
0.0
 11
6.223234608
 21
47.5640958597
 31
0.0
  0
LINE
  5
1F2
330
1F
100
AcDbEntity
  8
0
  6
CONTINUOUS
 62
     7
100
AcDbLine
 10
6.223234608
 20
47.5640958597
 30
0.0
 11
6.159684608
 21
47.6229458597
 31
0.0
  0
LINE
  5
1F3
330
1F
100
AcDbEntity
  8
0
  6
CONTINUOUS
 62
     7
100
AcDbLine
 10
6.159684608
 20
47.6229458597
 30
0.0
 11
6.080184608
 21
47.6716958597
 31
0.0
  0
LINE
  5
1F4
330
1F
100
AcDbEntity
  8
0
  6
CONTINUOUS
 62
     7
100
AcDbLine
 10
6.080184608
 20
47.6716958597
 30
0.0
 11
5.983534608
 21
47.7093458597
 31
0.0
  0
LINE
  5
1F5
330
1F
100
AcDbEntity
  8
0
  6
CONTINUOUS
 62
     7
100
AcDbLine
 10
5.983534608
 20
47.7093458597
 30
0.0
 11
5.868634608
 21
47.7347958597
 31
0.0
  0
LINE
  5
1F6
330
1F
100
AcDbEntity
  8
0
  6
CONTINUOUS
 62
     7
100
AcDbLine
 10
5.868634608
 20
47.7347958597
 30
0.0
 11
5.734384608
 21
47.7469458597
 31
0.0
  0
LINE
  5
1F7
330
1F
100
AcDbEntity
  8
0
  6
CONTINUOUS
 62
     7
100
AcDbLine
 10
5.734384608
 20
47.7469458597
 30
0.0
 11
5.579634608
 21
47.7447958597
 31
0.0
  0
LINE
  5
1F8
330
1F
100
AcDbEntity
  8
0
  6
CONTINUOUS
 62
     7
100
AcDbLine
 10
5.579634608
 20
47.7447958597
 30
0.0
 11
5.204184608
 21
47.6930458597
 31
0.0
  0
LINE
  5
1F9
330
1F
100
AcDbEntity
  8
0
  6
CONTINUOUS
 62
     7
100
AcDbLine
 10
5.204184608
 20
47.6930458597
 30
0.0
 11
4.733284608
 21
47.5710458597
 31
0.0
  0
LINE
  5
1FA
330
1F
100
AcDbEntity
  8
0
  6
CONTINUOUS
 62
     7
100
AcDbLine
 10
4.733284608
 20
47.5710458597
 30
0.0
 11
4.184534608
 21
47.3848958597
 31
0.0
  0
LINE
  5
1FB
330
1F
100
AcDbEntity
  8
0
  6
CONTINUOUS
 62
     7
100
AcDbLine
 10
4.184534608
 20
47.3848958597
 30
0.0
 11
3.586484608
 21
47.1481458597
 31
0.0
  0
LINE
  5
1FC
330
1F
100
AcDbEntity
  8
0
  6
CONTINUOUS
 62
     7
100
AcDbLine
 10
3.586484608
 20
47.1481458597
 30
0.0
 11
2.949034608
 21
46.8610958597
 31
0.0
  0
LINE
  5
1FD
330
1F
100
AcDbEntity
  8
0
  6
CONTINUOUS
 62
     7
100
AcDbLine
 10
2.949034608
 20
46.8610958597
 30
0.0
 11
2.282034608
 21
46.5239958597
 31
0.0
  0
LINE
  5
1FE
330
1F
100
AcDbEntity
  8
0
  6
CONTINUOUS
 62
     7
100
AcDbLine
 10
2.282034608
 20
46.5239958597
 30
0.0
 11
1.595384608
 21
46.1371958597
 31
0.0
  0
LINE
  5
1FF
330
1F
100
AcDbEntity
  8
0
  6
CONTINUOUS
 62
     7
100
AcDbLine
 10
1.595384608
 20
46.1371958597
 30
0.0
 11
0.898934608
 21
45.7009958597
 31
0.0
  0
LINE
  5
200
330
1F
100
AcDbEntity
  8
0
  6
CONTINUOUS
 62
     7
100
AcDbLine
 10
0.898934608
 20
45.7009958597
 30
0.0
 11
0.202634608
 21
45.2157458597
 31
0.0
  0
LINE
  5
201
330
1F
100
AcDbEntity
  8
0
  6
CONTINUOUS
 62
     7
100
AcDbLine
 10
0.202634608
 20
45.2157458597
 30
0.0
 11
-0.483715392
 21
44.6816958597
 31
0.0
  0
LINE
  5
202
330
1F
100
AcDbEntity
  8
0
  6
CONTINUOUS
 62
     7
100
AcDbLine
 10
-0.483715392
 20
44.6816958597
 30
0.0
 11
-1.150215392
 21
44.0992458597
 31
0.0
  0
LINE
  5
203
330
1F
100
AcDbEntity
  8
0
  6
CONTINUOUS
 62
     7
100
AcDbLine
 10
-1.150215392
 20
44.0992458597
 30
0.0
 11
-1.786965392
 21
43.4686458597
 31
0.0
  0
LINE
  5
204
330
1F
100
AcDbEntity
  8
0
  6
CONTINUOUS
 62
     7
100
AcDbLine
 10
-1.786965392
 20
43.4686458597
 30
0.0
 11
-2.091065392
 21
43.1353958597
 31
0.0
  0
LINE
  5
205
330
1F
100
AcDbEntity
  8
0
  6
CONTINUOUS
 62
     7
100
AcDbLine
 10
-2.091065392
 20
43.1353958597
 30
0.0
 11
-2.384065392
 21
42.7901958597
 31
0.0
  0
LINE
  5
206
330
1F
100
AcDbEntity
  8
0
  6
CONTINUOUS
 62
     7
100
AcDbLine
 10
-2.384065392
 20
42.7901958597
 30
0.0
 11
-2.664715392
 21
42.4331458597
 31
0.0
  0
LINE
  5
207
330
1F
100
AcDbEntity
  8
0
  6
CONTINUOUS
 62
     7
100
AcDbLine
 10
-2.664715392
 20
42.4331458597
 30
0.0
 11
-2.931715392
 21
42.0642958597
 31
0.0
  0
LINE
  5
208
330
1F
100
AcDbEntity
  8
0
  6
CONTINUOUS
 62
     7
100
AcDbLine
 10
-2.931715392
 20
42.0642958597
 30
0.0
 11
-3.183915392
 21
41.6835958597
 31
0.0
  0
LINE
  5
209
330
1F
100
AcDbEntity
  8
0
  6
CONTINUOUS
 62
     7
100
AcDbLine
 10
-3.183915392
 20
41.6835958597
 30
0.0
 11
-3.420015392
 21
41.2911958597
 31
0.0
  0
LINE
  5
20A
330
1F
100
AcDbEntity
  8
0
  6
CONTINUOUS
 62
     7
100
AcDbLine
 10
-3.420015392
 20
41.2911958597
 30
0.0
 11
-3.638815392
 21
40.8870458597
 31
0.0
  0
LINE
  5
20B
330
1F
100
AcDbEntity
  8
0
  6
CONTINUOUS
 62
     7
100
AcDbLine
 10
-3.638815392
 20
40.8870458597
 30
0.0
 11
-3.839065392
 21
40.4711958597
 31
0.0
  0
LINE
  5
20C
330
1F
100
AcDbEntity
  8
0
  6
CONTINUOUS
 62
     7
100
AcDbLine
 10
-3.839065392
 20
40.4711958597
 30
0.0
 11
-4.019515392
 21
40.0436958597
 31
0.0
  0
LINE
  5
20D
330
1F
100
AcDbEntity
  8
0
  6
CONTINUOUS
 62
     7
100
AcDbLine
 10
-4.019515392
 20
40.0436958597
 30
0.0
 11
-4.178965392
 21
39.6046458597
 31
0.0
  0
LINE
  5
20E
330
1F
100
AcDbEntity
  8
0
  6
CONTINUOUS
 62
     7
100
AcDbLine
 10
-4.178965392
 20
39.6046458597
 30
0.0
 11
-4.316165392
 21
39.1539958597
 31
0.0
  0
LINE
  5
20F
330
1F
100
AcDbEntity
  8
0
  6
CONTINUOUS
 62
     7
100
AcDbLine
 10
-4.316165392
 20
39.1539958597
 30
0.0
 11
-4.639465392
 21
37.8366458597
 31
0.0
  0
LINE
  5
210
330
1F
100
AcDbEntity
  8
0
  6
CONTINUOUS
 62
     7
100
AcDbLine
 10
-4.639465392
 20
37.8366458597
 30
0.0
 11
-4.862065392
 21
37.1348958597
 31
0.0
  0
LINE
  5
211
330
1F
100
AcDbEntity
  8
0
  6
CONTINUOUS
 62
     7
100
AcDbLine
 10
-4.862065392
 20
37.1348958597
 30
0.0
 11
-5.095365392
 21
36.5729458597
 31
0.0
  0
LINE
  5
212
330
1F
100
AcDbEntity
  8
0
  6
CONTINUOUS
 62
     7
100
AcDbLine
 10
-5.095365392
 20
36.5729458597
 30
0.0
 11
-5.215315392
 21
36.3400958597
 31
0.0
  0
LINE
  5
213
330
1F
100
AcDbEntity
  8
0
  6
CONTINUOUS
 62
     7
100
AcDbLine
 10
-5.215315392
 20
36.3400958597
 30
0.0
 11
-5.337115392
 21
36.1370958597
 31
0.0
  0
LINE
  5
214
330
1F
100
AcDbEntity
  8
0
  6
CONTINUOUS
 62
     7
100
AcDbLine
 10
-5.337115392
 20
36.1370958597
 30
0.0
 11
-5.460465392
 21
35.9621958597
 31
0.0
  0
LINE
  5
215
330
1F
100
AcDbEntity
  8
0
  6
CONTINUOUS
 62
     7
100
AcDbLine
 10
-5.460465392
 20
35.9621958597
 30
0.0
 11
-5.585065392
 21
35.8136958597
 31
0.0
  0
LINE
  5
216
330
1F
100
AcDbEntity
  8
0
  6
CONTINUOUS
 62
     7
100
AcDbLine
 10
-5.585065392
 20
35.8136958597
 30
0.0
 11
-5.710615392
 21
35.6898958597
 31
0.0
  0
LINE
  5
217
330
1F
100
AcDbEntity
  8
0
  6
CONTINUOUS
 62
     7
100
AcDbLine
 10
-5.710615392
 20
35.6898958597
 30
0.0
 11
-5.836915392
 21
35.5891458597
 31
0.0
  0
LINE
  5
218
330
1F
100
AcDbEntity
  8
0
  6
CONTINUOUS
 62
     7
100
AcDbLine
 10
-5.836915392
 20
35.5891458597
 30
0.0
 11
-5.963615392
 21
35.5096458597
 31
0.0
  0
LINE
  5
219
330
1F
100
AcDbEntity
  8
0
  6
CONTINUOUS
 62
     7
100
AcDbLine
 10
-5.963615392
 20
35.5096458597
 30
0.0
 11
-6.090415392
 21
35.4496958597
 31
0.0
  0
LINE
  5
21A
330
1F
100
AcDbEntity
  8
0
  6
CONTINUOUS
 62
     7
100
AcDbLine
 10
-6.090415392
 20
35.4496958597
 30
0.0
 11
-6.343365392
 21
35.3817958597
 31
0.0
  0
LINE
  5
21B
330
1F
100
AcDbEntity
  8
0
  6
CONTINUOUS
 62
     7
100
AcDbLine
 10
-6.343365392
 20
35.3817958597
 30
0.0
 11
-6.593365392
 21
35.3716958597
 31
0.0
  0
LINE
  5
21C
330
1F
100
AcDbEntity
  8
0
  6
CONTINUOUS
 62
     7
100
AcDbLine
 10
-6.593365392
 20
35.3716958597
 30
0.0
 11
-6.838315392
 21
35.4058458597
 31
0.0
  0
LINE
  5
21D
330
1F
100
AcDbEntity
  8
0
  6
CONTINUOUS
 62
     7
100
AcDbLine
 10
-6.838315392
 20
35.4058458597
 30
0.0
 11
-7.303615392
 21
35.5519958597
 31
0.0
  0
LINE
  5
21E
330
1F
100
AcDbEntity
  8
0
  6
CONTINUOUS
 62
     7
100
AcDbLine
 10
-7.303615392
 20
35.5519958597
 30
0.0
 11
-7.721215392
 21
35.7110958597
 31
0.0
  0
LINE
  5
21F
330
1F
100
AcDbEntity
  8
0
  6
CONTINUOUS
 62
     7
100
AcDbLine
 10
-7.721215392
 20
35.7110958597
 30
0.0
 11
-7.906465392
 21
35.7612958597
 31
0.0
  0
LINE
  5
220
330
1F
100
AcDbEntity
  8
0
  6
CONTINUOUS
 62
     7
100
AcDbLine
 10
-7.906465392
 20
35.7612958597
 30
0.0
 11
-8.072965392
 21
35.7737958597
 31
0.0
  0
LINE
  5
221
330
1F
100
AcDbEntity
  8
0
  6
CONTINUOUS
 62
     7
100
AcDbLine
 10
-8.072965392
 20
35.7737958597
 30
0.0
 11
-8.266915392
 21
35.7728458597
 31
0.0
  0
LINE
  5
222
330
1F
100
AcDbEntity
  8
0
  6
CONTINUOUS
 62
     7
100
AcDbLine
 10
-8.266915392
 20
35.7728458597
 30
0.0
 11
-8.527865392
 21
35.7959458597
 31
0.0
  0
LINE
  5
223
330
1F
100
AcDbEntity
  8
0
  6
CONTINUOUS
 62
     7
100
AcDbLine
 10
-8.527865392
 20
35.7959458597
 30
0.0
 11
-8.841065392
 21
35.8469958597
 31
0.0
  0
LINE
  5
224
330
1F
100
AcDbEntity
  8
0
  6
CONTINUOUS
 62
     7
100
AcDbLine
 10
-8.841065392
 20
35.8469958597
 30
0.0
 11
-9.191965392
 21
35.9299458597
 31
0.0
  0
LINE
  5
225
330
1F
100
AcDbEntity
  8
0
  6
CONTINUOUS
 62
     7
100
AcDbLine
 10
-9.191965392
 20
35.9299458597
 30
0.0
 11
-9.565815392
 21
36.0486958597
 31
0.0
  0
LINE
  5
226
330
1F
100
AcDbEntity
  8
0
  6
CONTINUOUS
 62
     7
100
AcDbLine
 10
-9.565815392
 20
36.0486958597
 30
0.0
 11
-9.948015392
 21
36.2070958597
 31
0.0
  0
LINE
  5
227
330
1F
100
AcDbEntity
  8
0
  6
CONTINUOUS
 62
     7
100
AcDbLine
 10
-9.948015392
 20
36.2070958597
 30
0.0
 11
-10.323915392
 21
36.4090958597
 31
0.0
  0
LINE
  5
228
330
1F
100
AcDbEntity
  8
0
  6
CONTINUOUS
 62
     7
100
AcDbLine
 10
-10.323915392
 20
36.4090958597
 30
0.0
 11
-10.678765392
 21
36.6585458597
 31
0.0
  0
LINE
  5
229
330
1F
100
AcDbEntity
  8
0
  6
CONTINUOUS
 62
     7
100
AcDbLine
 10
-10.678765392
 20
36.6585458597
 30
0.0
 11
-10.843765392
 21
36.8022458597
 31
0.0
  0
LINE
  5
22A
330
1F
100
AcDbEntity
  8
0
  6
CONTINUOUS
 62
     7
100
AcDbLine
 10
-10.843765392
 20
36.8022458597
 30
0.0
 11
-10.997965392
 21
36.9593458597
 31
0.0
  0
LINE
  5
22B
330
1F
100
AcDbEntity
  8
0
  6
CONTINUOUS
 62
     7
100
AcDbLine
 10
-10.997965392
 20
36.9593458597
 30
0.0
 11
-11.139615392
 21
37.1302458597
 31
0.0
  0
LINE
  5
22C
330
1F
100
AcDbEntity
  8
0
  6
CONTINUOUS
 62
     7
100
AcDbLine
 10
-11.139615392
 20
37.1302458597
 30
0.0
 11
-11.266865392
 21
37.3153958597
 31
0.0
  0
LINE
  5
22D
330
1F
100
AcDbEntity
  8
0
  6
CONTINUOUS
 62
     7
100
AcDbLine
 10
-11.266865392
 20
37.3153958597
 30
0.0
 11
-11.377865392
 21
37.5153958597
 31
0.0
  0
LINE
  5
22E
330
1F
100
AcDbEntity
  8
0
  6
CONTINUOUS
 62
     7
100
AcDbLine
 10
-11.377865392
 20
37.5153958597
 30
0.0
 11
-11.470815392
 21
37.7306458597
 31
0.0
  0
LINE
  5
22F
330
1F
100
AcDbEntity
  8
0
  6
CONTINUOUS
 62
     7
100
AcDbLine
 10
-11.470815392
 20
37.7306458597
 30
0.0
 11
-11.543815392
 21
37.9616958597
 31
0.0
  0
LINE
  5
230
330
1F
100
AcDbEntity
  8
0
  6
CONTINUOUS
 62
     7
100
AcDbLine
 10
-11.543815392
 20
37.9616958597
 30
0.0
 11
-11.595115392
 21
38.2089458597
 31
0.0
  0
LINE
  5
231
330
1F
100
AcDbEntity
  8
0
  6
CONTINUOUS
 62
     7
100
AcDbLine
 10
-11.595115392
 20
38.2089458597
 30
0.0
 11
-11.622815392
 21
38.4729958597
 31
0.0
  0
LINE
  5
232
330
1F
100
AcDbEntity
  8
0
  6
CONTINUOUS
 62
     7
100
AcDbLine
 10
-11.622815392
 20
38.4729958597
 30
0.0
 11
-11.625115392
 21
38.7541958597
 31
0.0
  0
LINE
  5
233
330
1F
100
AcDbEntity
  8
0
  6
CONTINUOUS
 62
     7
100
AcDbLine
 10
-11.625115392
 20
38.7541958597
 30
0.0
 11
-11.600215392
 21
39.0531958597
 31
0.0
  0
LINE
  5
234
330
1F
100
AcDbEntity
  8
0
  6
CONTINUOUS
 62
     7
100
AcDbLine
 10
-11.600215392
 20
39.0531958597
 30
0.0
 11
-11.546165392
 21
39.3703458597
 31
0.0
  0
LINE
  5
235
330
1F
100
AcDbEntity
  8
0
  6
CONTINUOUS
 62
     7
100
AcDbLine
 10
-11.546165392
 20
39.3703458597
 30
0.0
 11
-11.461265392
 21
39.7061958597
 31
0.0
  0
LINE
  5
236
330
1F
100
AcDbEntity
  8
0
  6
CONTINUOUS
 62
     7
100
AcDbLine
 10
-11.461265392
 20
39.7061958597
 30
0.0
 11
-11.343615392
 21
40.0611958597
 31
0.0
  0
LINE
  5
237
330
1F
100
AcDbEntity
  8
0
  6
CONTINUOUS
 62
     7
100
AcDbLine
 10
-11.343615392
 20
40.0611958597
 30
0.0
 11
-11.191415392
 21
40.4358958597
 31
0.0
  0
LINE
  5
238
330
1F
100
AcDbEntity
  8
0
  6
CONTINUOUS
 62
     7
100
AcDbLine
 10
-11.191415392
 20
40.4358958597
 30
0.0
 11
-11.002815392
 21
40.8307458597
 31
0.0
  0
LINE
  5
239
330
1F
100
AcDbEntity
  8
0
  6
CONTINUOUS
 62
     7
100
AcDbLine
 10
-11.002815392
 20
40.8307458597
 30
0.0
 11
-10.593015392
 21
41.5938958597
 31
0.0
  0
LINE
  5
23A
330
1F
100
AcDbEntity
  8
0
  6
CONTINUOUS
 62
     7
100
AcDbLine
 10
-10.593015392
 20
41.5938958597
 30
0.0
 11
-10.193465392
 21
42.2654958597
 31
0.0
  0
LINE
  5
23B
330
1F
100
AcDbEntity
  8
0
  6
CONTINUOUS
 62
     7
100
AcDbLine
 10
-10.193465392
 20
42.2654958597
 30
0.0
 11
-9.806315392
 21
42.8514458597
 31
0.0
  0
LINE
  5
23C
330
1F
100
AcDbEntity
  8
0
  6
CONTINUOUS
 62
     7
100
AcDbLine
 10
-9.806315392
 20
42.8514458597
 30
0.0
 11
-9.433765392
 21
43.3576458597
 31
0.0
  0
LINE
  5
23D
330
1F
100
AcDbEntity
  8
0
  6
CONTINUOUS
 62
     7
100
AcDbLine
 10
-9.433765392
 20
43.3576458597
 30
0.0
 11
-9.077915392
 21
43.7899958597
 31
0.0
  0
LINE
  5
23E
330
1F
100
AcDbEntity
  8
0
  6
CONTINUOUS
 62
     7
100
AcDbLine
 10
-9.077915392
 20
43.7899958597
 30
0.0
 11
-8.741015392
 21
44.1544458597
 31
0.0
  0
LINE
  5
23F
330
1F
100
AcDbEntity
  8
0
  6
CONTINUOUS
 62
     7
100
AcDbLine
 10
-8.741015392
 20
44.1544458597
 30
0.0
 11
-8.425165392
 21
44.4569458597
 31
0.0
  0
LINE
  5
240
330
1F
100
AcDbEntity
  8
0
  6
CONTINUOUS
 62
     7
100
AcDbLine
 10
-8.425165392
 20
44.4569458597
 30
0.0
 11
-8.132565392
 21
44.7033458597
 31
0.0
  0
LINE
  5
241
330
1F
100
AcDbEntity
  8
0
  6
CONTINUOUS
 62
     7
100
AcDbLine
 10
-8.132565392
 20
44.7033458597
 30
0.0
 11
-7.865365392
 21
44.8995458597
 31
0.0
  0
LINE
  5
242
330
1F
100
AcDbEntity
  8
0
  6
CONTINUOUS
 62
     7
100
AcDbLine
 10
-7.865365392
 20
44.8995458597
 30
0.0
 11
-7.625715392
 21
45.0515958597
 31
0.0
  0
LINE
  5
243
330
1F
100
AcDbEntity
  8
0
  6
CONTINUOUS
 62
     7
100
AcDbLine
 10
-7.625715392
 20
45.0515958597
 30
0.0
 11
-7.237865392
 21
45.2465958597
 31
0.0
  0
LINE
  5
244
330
1F
100
AcDbEntity
  8
0
  6
CONTINUOUS
 62
     7
100
AcDbLine
 10
-7.237865392
 20
45.2465958597
 30
0.0
 11
-6.986215392
 21
45.3356458597
 31
0.0
  0
LINE
  5
245
330
1F
100
AcDbEntity
  8
0
  6
CONTINUOUS
 62
     7
100
AcDbLine
 10
-6.986215392
 20
45.3356458597
 30
0.0
 11
-6.888215392
 21
45.3661458597
 31
0.0
  0
LINE
  5
246
330
1F
100
AcDbEntity
  8
0
  6
CONTINUOUS
 62
     7
100
AcDbLine
 10
-6.888215392
 20
45.3661458597
 30
0.0
 11
-6.651215392
 21
45.7011958597
 31
0.0
  0
LINE
  5
247
330
1F
100
AcDbEntity
  8
0
  6
CONTINUOUS
 62
     7
100
AcDbLine
 10
-6.651215392
 20
45.7011958597
 30
0.0
 11
-6.444565392
 21
46.0309458597
 31
0.0
  0
LINE
  5
248
330
1F
100
AcDbEntity
  8
0
  6
CONTINUOUS
 62
     7
100
AcDbLine
 10
-6.444565392
 20
46.0309458597
 30
0.0
 11
-6.259115392
 21
46.3989958597
 31
0.0
  0
LINE
  5
249
330
1F
100
AcDbEntity
  8
0
  6
CONTINUOUS
 62
     7
100
AcDbLine
 10
-6.259115392
 20
46.3989958597
 30
0.0
 11
-6.193065392
 21
46.5809958597
 31
0.0
  0
LINE
  5
24A
330
1F
100
AcDbEntity
  8
0
  6
CONTINUOUS
 62
     7
100
AcDbLine
 10
-6.193065392
 20
46.5809958597
 30
0.0
 11
-6.154715392
 21
46.7528958597
 31
0.0
  0
LINE
  5
24B
330
1F
100
AcDbEntity
  8
0
  6
CONTINUOUS
 62
     7
100
AcDbLine
 10
-6.154715392
 20
46.7528958597
 30
0.0
 11
-6.151665392
 21
46.9080958597
 31
0.0
  0
LINE
  5
24C
330
1F
100
AcDbEntity
  8
0
  6
CONTINUOUS
 62
     7
100
AcDbLine
 10
-6.151665392
 20
46.9080958597
 30
0.0
 11
-6.191315392
 21
47.0401458597
 31
0.0
  0
LINE
  5
24D
330
1F
100
AcDbEntity
  8
0
  6
CONTINUOUS
 62
     7
100
AcDbLine
 10
-6.191315392
 20
47.0401458597
 30
0.0
 11
-6.229515392
 21
47.0953958597
 31
0.0
  0
LINE
  5
24E
330
1F
100
AcDbEntity
  8
0
  6
CONTINUOUS
 62
     7
100
AcDbLine
 10
-6.229515392
 20
47.0953958597
 30
0.0
 11
-6.281215392
 21
47.1423958597
 31
0.0
  0
LINE
  5
24F
330
1F
100
AcDbEntity
  8
0
  6
CONTINUOUS
 62
     7
100
AcDbLine
 10
-6.281215392
 20
47.1423958597
 30
0.0
 11
-6.347315392
 21
47.1802958597
 31
0.0
  0
LINE
  5
250
330
1F
100
AcDbEntity
  8
0
  6
CONTINUOUS
 62
     7
100
AcDbLine
 10
-6.347315392
 20
47.1802958597
 30
0.0
 11
-6.428815392
 21
47.2083458597
 31
0.0
  0
LINE
  5
251
330
1F
100
AcDbEntity
  8
0
  6
CONTINUOUS
 62
     7
100
AcDbLine
 10
-6.428815392
 20
47.2083458597
 30
0.0
 11
-6.641615392
 21
47.2313958597
 31
0.0
  0
LINE
  5
252
330
1F
100
AcDbEntity
  8
0
  6
CONTINUOUS
 62
     7
100
AcDbLine
 10
-6.641615392
 20
47.2313958597
 30
0.0
 11
-6.927115392
 21
47.2050458597
 31
0.0
  0
LINE
  5
253
330
1F
100
AcDbEntity
  8
0
  6
CONTINUOUS
 62
     7
100
AcDbLine
 10
-6.927115392
 20
47.2050458597
 30
0.0
 11
-7.268365392
 21
47.1277458597
 31
0.0
  0
LINE
  5
254
330
1F
100
AcDbEntity
  8
0
  6
CONTINUOUS
 62
     7
100
AcDbLine
 10
-7.268365392
 20
47.1277458597
 30
0.0
 11
-7.638215392
 21
47.0060958597
 31
0.0
  0
LINE
  5
255
330
1F
100
AcDbEntity
  8
0
  6
CONTINUOUS
 62
     7
100
AcDbLine
 10
-7.638215392
 20
47.0060958597
 30
0.0
 11
-8.031465392
 21
46.8428458597
 31
0.0
  0
LINE
  5
256
330
1F
100
AcDbEntity
  8
0
  6
CONTINUOUS
 62
     7
100
AcDbLine
 10
-8.031465392
 20
46.8428458597
 30
0.0
 11
-8.442715392
 21
46.6408458597
 31
0.0
  0
LINE
  5
257
330
1F
100
AcDbEntity
  8
0
  6
CONTINUOUS
 62
     7
100
AcDbLine
 10
-8.442715392
 20
46.6408458597
 30
0.0
 11
-8.866665392
 21
46.4028458597
 31
0.0
  0
LINE
  5
258
330
1F
100
AcDbEntity
  8
0
  6
CONTINUOUS
 62
     7
100
AcDbLine
 10
-8.866665392
 20
46.4028458597
 30
0.0
 11
-9.298015392
 21
46.1317458597
 31
0.0
  0
LINE
  5
259
330
1F
100
AcDbEntity
  8
0
  6
CONTINUOUS
 62
     7
100
AcDbLine
 10
-9.298015392
 20
46.1317458597
 30
0.0
 11
-9.731465392
 21
45.8302458597
 31
0.0
  0
LINE
  5
25A
330
1F
100
AcDbEntity
  8
0
  6
CONTINUOUS
 62
     7
100
AcDbLine
 10
-9.731465392
 20
45.8302458597
 30
0.0
 11
-10.161665392
 21
45.5012458597
 31
0.0
  0
LINE
  5
25B
330
1F
100
AcDbEntity
  8
0
  6
CONTINUOUS
 62
     7
100
AcDbLine
 10
-10.161665392
 20
45.5012458597
 30
0.0
 11
-10.583315392
 21
45.1474458597
 31
0.0
  0
LINE
  5
25C
330
1F
100
AcDbEntity
  8
0
  6
CONTINUOUS
 62
     7
100
AcDbLine
 10
-10.583315392
 20
45.1474458597
 30
0.0
 11
-10.991115392
 21
44.7717458597
 31
0.0
  0
LINE
  5
25D
330
1F
100
AcDbEntity
  8
0
  6
CONTINUOUS
 62
     7
100
AcDbLine
 10
-10.991115392
 20
44.7717458597
 30
0.0
 11
-11.379765392
 21
44.3769458597
 31
0.0
  0
LINE
  5
25E
330
1F
100
AcDbEntity
  8
0
  6
CONTINUOUS
 62
     7
100
AcDbLine
 10
-11.379765392
 20
44.3769458597
 30
0.0
 11
-11.743915392
 21
43.9657958597
 31
0.0
  0
LINE
  5
25F
330
1F
100
AcDbEntity
  8
0
  6
CONTINUOUS
 62
     7
100
AcDbLine
 10
-11.743915392
 20
43.9657958597
 30
0.0
 11
-12.078265392
 21
43.5411458597
 31
0.0
  0
LINE
  5
260
330
1F
100
AcDbEntity
  8
0
  6
CONTINUOUS
 62
     7
100
AcDbLine
 10
-12.078265392
 20
43.5411458597
 30
0.0
 11
-12.377465392
 21
43.1057458597
 31
0.0
  0
LINE
  5
261
330
1F
100
AcDbEntity
  8
0
  6
CONTINUOUS
 62
     7
100
AcDbLine
 10
-12.377465392
 20
43.1057458597
 30
0.0
 11
-12.636265392
 21
42.6624458597
 31
0.0
  0
LINE
  5
262
330
1F
100
AcDbEntity
  8
0
  6
CONTINUOUS
 62
     7
100
AcDbLine
 10
-12.636265392
 20
42.6624458597
 30
0.0
 11
-12.849315392
 21
42.2140958597
 31
0.0
  0
LINE
  5
263
330
1F
100
AcDbEntity
  8
0
  6
CONTINUOUS
 62
     7
100
AcDbLine
 10
-12.849315392
 20
42.2140958597
 30
0.0
 11
-12.951465392
 21
42.1315458597
 31
0.0
  0
LINE
  5
264
330
1F
100
AcDbEntity
  8
0
  6
CONTINUOUS
 62
     7
100
AcDbLine
 10
-12.951465392
 20
42.1315458597
 30
0.0
 11
-13.205315392
 21
41.9328958597
 31
0.0
  0
LINE
  5
265
330
1F
100
AcDbEntity
  8
0
  6
CONTINUOUS
 62
     7
100
AcDbLine
 10
-13.205315392
 20
41.9328958597
 30
0.0
 11
-13.552465392
 21
41.6977458597
 31
0.0
  0
LINE
  5
266
330
1F
100
AcDbEntity
  8
0
  6
CONTINUOUS
 62
     7
100
AcDbLine
 10
-13.552465392
 20
41.6977458597
 30
0.0
 11
-13.742665392
 21
41.5913458597
 31
0.0
  0
LINE
  5
267
330
1F
100
AcDbEntity
  8
0
  6
CONTINUOUS
 62
     7
100
AcDbLine
 10
-13.742665392
 20
41.5913458597
 30
0.0
 11
-13.934265392
 21
41.5055958597
 31
0.0
  0
LINE
  5
268
330
1F
100
AcDbEntity
  8
0
  6
CONTINUOUS
 62
     7
100
AcDbLine
 10
-13.934265392
 20
41.5055958597
 30
0.0
 11
-14.119865392
 21
41.4505958597
 31
0.0
  0
LINE
  5
269
330
1F
100
AcDbEntity
  8
0
  6
CONTINUOUS
 62
     7
100
AcDbLine
 10
-14.119865392
 20
41.4505958597
 30
0.0
 11
-14.292215392
 21
41.4361458597
 31
0.0
  0
LINE
  5
26A
330
1F
100
AcDbEntity
  8
0
  6
CONTINUOUS
 62
     7
100
AcDbLine
 10
-14.292215392
 20
41.4361458597
 30
0.0
 11
-14.371115392
 21
41.4472458597
 31
0.0
  0
LINE
  5
26B
330
1F
100
AcDbEntity
  8
0
  6
CONTINUOUS
 62
     7
100
AcDbLine
 10
-14.371115392
 20
41.4472458597
 30
0.0
 11
-14.443965392
 21
41.4722458597
 31
0.0
  0
LINE
  5
26C
330
1F
100
AcDbEntity
  8
0
  6
CONTINUOUS
 62
     7
100
AcDbLine
 10
-14.443965392
 20
41.4722458597
 30
0.0
 11
-14.509815392
 21
41.5123458597
 31
0.0
  0
LINE
  5
26D
330
1F
100
AcDbEntity
  8
0
  6
CONTINUOUS
 62
     7
100
AcDbLine
 10
-14.509815392
 20
41.5123458597
 30
0.0
 11
-14.567765392
 21
41.5688458597
 31
0.0
  0
LINE
  5
26E
330
1F
100
AcDbEntity
  8
0
  6
CONTINUOUS
 62
     7
100
AcDbLine
 10
-14.567765392
 20
41.5688458597
 30
0.0
 11
-14.616915392
 21
41.6429458597
 31
0.0
  0
LINE
  5
26F
330
1F
100
AcDbEntity
  8
0
  6
CONTINUOUS
 62
     7
100
AcDbLine
 10
-14.616915392
 20
41.6429458597
 30
0.0
 11
-14.656365392
 21
41.7358958597
 31
0.0
  0
LINE
  5
270
330
1F
100
AcDbEntity
  8
0
  6
CONTINUOUS
 62
     7
100
AcDbLine
 10
-14.656365392
 20
41.7358958597
 30
0.0
 11
-14.685165392
 21
41.8489458597
 31
0.0
  0
LINE
  5
271
330
1F
100
AcDbEntity
  8
0
  6
CONTINUOUS
 62
     7
100
AcDbLine
 10
-14.685165392
 20
41.8489458597
 30
0.0
 11
-14.702415392
 21
41.9833458597
 31
0.0
  0
LINE
  5
272
330
1F
100
AcDbEntity
  8
0
  6
CONTINUOUS
 62
     7
100
AcDbLine
 10
-14.702415392
 20
41.9833458597
 30
0.0
 11
-14.698565392
 21
42.3211458597
 31
0.0
  0
LINE
  5
273
330
1F
100
AcDbEntity
  8
0
  6
CONTINUOUS
 62
     7
100
AcDbLine
 10
-14.698565392
 20
42.3211458597
 30
0.0
 11
-14.637515392
 21
42.7591958597
 31
0.0
  0
LINE
  5
274
330
1F
100
AcDbEntity
  8
0
  6
CONTINUOUS
 62
     7
100
AcDbLine
 10
-14.637515392
 20
42.7591958597
 30
0.0
 11
-14.535365392
 21
43.2824958597
 31
0.0
  0
LINE
  5
275
330
1F
100
AcDbEntity
  8
0
  6
CONTINUOUS
 62
     7
100
AcDbLine
 10
-14.535365392
 20
43.2824958597
 30
0.0
 11
-14.405715392
 21
43.8642958597
 31
0.0
  0
LINE
  5
276
330
1F
100
AcDbEntity
  8
0
  6
CONTINUOUS
 62
     7
100
AcDbLine
 10
-14.405715392
 20
43.8642958597
 30
0.0
 11
-14.240165392
 21
44.4950958597
 31
0.0
  0
LINE
  5
277
330
1F
100
AcDbEntity
  8
0
  6
CONTINUOUS
 62
     7
100
AcDbLine
 10
-14.240165392
 20
44.4950958597
 30
0.0
 11
-14.030265392
 21
45.1654958597
 31
0.0
  0
LINE
  5
278
330
1F
100
AcDbEntity
  8
0
  6
CONTINUOUS
 62
     7
100
AcDbLine
 10
-14.030265392
 20
45.1654958597
 30
0.0
 11
-13.767515392
 21
45.8659958597
 31
0.0
  0
LINE
  5
279
330
1F
100
AcDbEntity
  8
0
  6
CONTINUOUS
 62
     7
100
AcDbLine
 10
-13.767515392
 20
45.8659958597
 30
0.0
 11
-13.443465392
 21
46.5871958597
 31
0.0
  0
LINE
  5
27A
330
1F
100
AcDbEntity
  8
0
  6
CONTINUOUS
 62
     7
100
AcDbLine
 10
-13.443465392
 20
46.5871958597
 30
0.0
 11
-13.255815392
 21
46.9525458597
 31
0.0
  0
LINE
  5
27B
330
1F
100
AcDbEntity
  8
0
  6
CONTINUOUS
 62
     7
100
AcDbLine
 10
-13.255815392
 20
46.9525458597
 30
0.0
 11
-13.049715392
 21
47.3195458597
 31
0.0
  0
LINE
  5
27C
330
1F
100
AcDbEntity
  8
0
  6
CONTINUOUS
 62
     7
100
AcDbLine
 10
-13.049715392
 20
47.3195458597
 30
0.0
 11
-12.824015392
 21
47.6869958597
 31
0.0
  0
LINE
  5
27D
330
1F
100
AcDbEntity
  8
0
  6
CONTINUOUS
 62
     7
100
AcDbLine
 10
-12.824015392
 20
47.6869958597
 30
0.0
 11
-12.577715392
 21
48.0536458597
 31
0.0
  0
LINE
  5
27E
330
1F
100
AcDbEntity
  8
0
  6
CONTINUOUS
 62
     7
100
AcDbLine
 10
-12.577715392
 20
48.0536458597
 30
0.0
 11
-12.309765392
 21
48.4183958597
 31
0.0
  0
LINE
  5
27F
330
1F
100
AcDbEntity
  8
0
  6
CONTINUOUS
 62
     7
100
AcDbLine
 10
-12.309765392
 20
48.4183958597
 30
0.0
 11
-12.019065392
 21
48.7800458597
 31
0.0
  0
LINE
  5
280
330
1F
100
AcDbEntity
  8
0
  6
CONTINUOUS
 62
     7
100
AcDbLine
 10
-12.019065392
 20
48.7800458597
 30
0.0
 11
-11.704615392
 21
49.1373958597
 31
0.0
  0
LINE
  5
281
330
1F
100
AcDbEntity
  8
0
  6
CONTINUOUS
 62
     7
100
AcDbLine
 10
-11.704615392
 20
49.1373958597
 30
0.0
 11
-11.365315392
 21
49.4892958597
 31
0.0
  0
LINE
  5
282
330
1F
100
AcDbEntity
  8
0
  6
CONTINUOUS
 62
     7
100
AcDbLine
 10
-11.365315392
 20
49.4892958597
 30
0.0
 11
-11.000115392
 21
49.8344958597
 31
0.0
  0
LINE
  5
283
330
1F
100
AcDbEntity
  8
0
  6
CONTINUOUS
 62
     7
100
AcDbLine
 10
-11.000115392
 20
49.8344958597
 30
0.0
 11
-10.607965392
 21
50.1718958597
 31
0.0
  0
LINE
  5
284
330
1F
100
AcDbEntity
  8
0
  6
CONTINUOUS
 62
     7
100
AcDbLine
 10
-10.607965392
 20
50.1718958597
 30
0.0
 11
-10.187815392
 21
50.5002458597
 31
0.0
  0
LINE
  5
285
330
1F
100
AcDbEntity
  8
0
  6
CONTINUOUS
 62
     7
100
AcDbLine
 10
-10.187815392
 20
50.5002458597
 30
0.0
 11
-9.738615392
 21
50.8183958597
 31
0.0
  0
LINE
  5
286
330
1F
100
AcDbEntity
  8
0
  6
CONTINUOUS
 62
     7
100
AcDbLine
 10
-9.738615392
 20
50.8183958597
 30
0.0
 11
-9.259265392
 21
51.1251458597
 31
0.0
  0
LINE
  5
287
330
1F
100
AcDbEntity
  8
0
  6
CONTINUOUS
 62
     7
100
AcDbLine
 10
-9.259265392
 20
51.1251458597
 30
0.0
 11
-8.748715392
 21
51.4193458597
 31
0.0
  0
LINE
  5
288
330
1F
100
AcDbEntity
  8
0
  6
CONTINUOUS
 62
     7
100
AcDbLine
 10
-8.748715392
 20
51.4193458597
 30
0.0
 11
-8.205965392
 21
51.6997958597
 31
0.0
  0
LINE
  5
289
330
1F
100
AcDbEntity
  8
0
  6
CONTINUOUS
 62
     7
100
AcDbLine
 10
-8.205965392
 20
51.6997958597
 30
0.0
 11
-7.629915392
 21
51.9652958597
 31
0.0
  0
LINE
  5
28A
330
1F
100
AcDbEntity
  8
0
  6
CONTINUOUS
 62
     7
100
AcDbLine
 10
-7.629915392
 20
51.9652958597
 30
0.0
 11
-7.019515392
 21
52.2146958597
 31
0.0
  0
LINE
  5
28B
330
1F
100
AcDbEntity
  8
0
  6
CONTINUOUS
 62
     7
100
AcDbLine
 10
-7.019515392
 20
52.2146958597
 30
0.0
 11
-6.373665392
 21
52.4467958597
 31
0.0
  0
LINE
  5
28C
330
1F
100
AcDbEntity
  8
0
  6
CONTINUOUS
 62
     7
100
AcDbLine
 10
-6.373665392
 20
52.4467958597
 30
0.0
 11
-5.691365392
 21
52.6603958597
 31
0.0
  0
LINE
  5
28D
330
1F
100
AcDbEntity
  8
0
  6
CONTINUOUS
 62
     7
100
AcDbLine
 10
-5.691365392
 20
52.6603958597
 30
0.0
 11
-4.971565392
 21
52.8543458597
 31
0.0
  0
LINE
  5
28E
330
1F
100
AcDbEntity
  8
0
  6
CONTINUOUS
 62
     7
100
AcDbLine
 10
-4.971565392
 20
52.8543458597
 30
0.0
 11
-4.951915392
 21
53.1809458597
 31
0.0
  0
LINE
  5
28F
330
1F
100
AcDbEntity
  8
0
  6
CONTINUOUS
 62
     7
100
AcDbLine
 10
-4.951915392
 20
53.1809458597
 30
0.0
 11
-4.953465392
 21
53.4986458597
 31
0.0
  0
LINE
  5
290
330
1F
100
AcDbEntity
  8
0
  6
CONTINUOUS
 62
     7
100
AcDbLine
 10
-4.953465392
 20
53.4986458597
 30
0.0
 11
-4.990615392
 21
53.8468958597
 31
0.0
  0
LINE
  5
291
330
1F
100
AcDbEntity
  8
0
  6
CONTINUOUS
 62
     7
100
AcDbLine
 10
-4.990615392
 20
53.8468958597
 30
0.0
 11
-5.029115392
 21
54.0155458597
 31
0.0
  0
LINE
  5
292
330
1F
100
AcDbEntity
  8
0
  6
CONTINUOUS
 62
     7
100
AcDbLine
 10
-5.029115392
 20
54.0155458597
 30
0.0
 11
-5.084365392
 21
54.1713958597
 31
0.0
  0
LINE
  5
293
330
1F
100
AcDbEntity
  8
0
  6
CONTINUOUS
 62
     7
100
AcDbLine
 10
-5.084365392
 20
54.1713958597
 30
0.0
 11
-5.158965392
 21
54.3077958597
 31
0.0
  0
LINE
  5
294
330
1F
100
AcDbEntity
  8
0
  6
CONTINUOUS
 62
     7
100
AcDbLine
 10
-5.158965392
 20
54.3077958597
 30
0.0
 11
-5.255615392
 21
54.4178458597
 31
0.0
  0
LINE
  5
295
330
1F
100
AcDbEntity
  8
0
  6
CONTINUOUS
 62
     7
100
AcDbLine
 10
-5.255615392
 20
54.4178458597
 30
0.0
 11
-5.376865392
 21
54.4947958597
 31
0.0
  0
LINE
  5
296
330
1F
100
AcDbEntity
  8
0
  6
CONTINUOUS
 62
     7
100
AcDbLine
 10
-5.376865392
 20
54.4947958597
 30
0.0
 11
-5.525365392
 21
54.5318958597
 31
0.0
  0
LINE
  5
297
330
1F
100
AcDbEntity
  8
0
  6
CONTINUOUS
 62
     7
100
AcDbLine
 10
-5.525365392
 20
54.5318958597
 30
0.0
 11
-5.703765392
 21
54.5222958597
 31
0.0
  0
LINE
  5
298
330
1F
100
AcDbEntity
  8
0
  6
CONTINUOUS
 62
     7
100
AcDbLine
 10
-5.703765392
 20
54.5222958597
 30
0.0
 11
-5.914615392
 21
54.4591958597
 31
0.0
  0
LINE
  5
299
330
1F
100
AcDbEntity
  8
0
  6
CONTINUOUS
 62
     7
100
AcDbLine
 10
-5.914615392
 20
54.4591958597
 30
0.0
 11
-6.662515392
 21
54.2248458597
 31
0.0
  0
LINE
  5
29A
330
1F
100
AcDbEntity
  8
0
  6
CONTINUOUS
 62
     7
100
AcDbLine
 10
-6.662515392
 20
54.2248458597
 30
0.0
 11
-7.227065392
 21
54.0548958597
 31
0.0
  0
LINE
  5
29B
330
1F
100
AcDbEntity
  8
0
  6
CONTINUOUS
 62
     7
100
AcDbLine
 10
-7.227065392
 20
54.0548958597
 30
0.0
 11
-7.894515392
 21
53.8332458597
 31
0.0
  0
LINE
  5
29C
330
1F
100
AcDbEntity
  8
0
  6
CONTINUOUS
 62
     7
100
AcDbLine
 10
-7.894515392
 20
53.8332458597
 30
0.0
 11
-8.646565392
 21
53.5476958597
 31
0.0
  0
LINE
  5
29D
330
1F
100
AcDbEntity
  8
0
  6
CONTINUOUS
 62
     7
100
AcDbLine
 10
-8.646565392
 20
53.5476958597
 30
0.0
 11
-9.465115392
 21
53.1858958597
 31
0.0
  0
LINE
  5
29E
330
1F
100
AcDbEntity
  8
0
  6
CONTINUOUS
 62
     7
100
AcDbLine
 10
-9.465115392
 20
53.1858958597
 30
0.0
 11
-9.893615392
 21
52.9725458597
 31
0.0
  0
LINE
  5
29F
330
1F
100
AcDbEntity
  8
0
  6
CONTINUOUS
 62
     7
100
AcDbLine
 10
-9.893615392
 20
52.9725458597
 30
0.0
 11
-10.331915392
 21
52.7355458597
 31
0.0
  0
LINE
  5
2A0
330
1F
100
AcDbEntity
  8
0
  6
CONTINUOUS
 62
     7
100
AcDbLine
 10
-10.331915392
 20
52.7355458597
 30
0.0
 11
-10.777715392
 21
52.4732958597
 31
0.0
  0
LINE
  5
2A1
330
1F
100
AcDbEntity
  8
0
  6
CONTINUOUS
 62
     7
100
AcDbLine
 10
-10.777715392
 20
52.4732958597
 30
0.0
 11
-11.228765392
 21
52.1842958597
 31
0.0
  0
LINE
  5
2A2
330
1F
100
AcDbEntity
  8
0
  6
CONTINUOUS
 62
     7
100
AcDbLine
 10
-11.228765392
 20
52.1842958597
 30
0.0
 11
-11.682765392
 21
51.8669958597
 31
0.0
  0
LINE
  5
2A3
330
1F
100
AcDbEntity
  8
0
  6
CONTINUOUS
 62
     7
100
AcDbLine
 10
-11.682765392
 20
51.8669958597
 30
0.0
 11
-12.137515392
 21
51.5198958597
 31
0.0
  0
LINE
  5
2A4
330
1F
100
AcDbEntity
  8
0
  6
CONTINUOUS
 62
     7
100
AcDbLine
 10
-12.137515392
 20
51.5198958597
 30
0.0
 11
-12.590615392
 21
51.1413958597
 31
0.0
  0
LINE
  5
2A5
330
1F
100
AcDbEntity
  8
0
  6
CONTINUOUS
 62
     7
100
AcDbLine
 10
-12.590615392
 20
51.1413958597
 30
0.0
 11
-13.039915392
 21
50.7299958597
 31
0.0
  0
LINE
  5
2A6
330
1F
100
AcDbEntity
  8
0
  6
CONTINUOUS
 62
     7
100
AcDbLine
 10
-13.039915392
 20
50.7299958597
 30
0.0
 11
-13.483065392
 21
50.2841458597
 31
0.0
  0
LINE
  5
2A7
330
1F
100
AcDbEntity
  8
0
  6
CONTINUOUS
 62
     7
100
AcDbLine
 10
-13.483065392
 20
50.2841458597
 30
0.0
 11
-13.917815392
 21
49.8023458597
 31
0.0
  0
LINE
  5
2A8
330
1F
100
AcDbEntity
  8
0
  6
CONTINUOUS
 62
     7
100
AcDbLine
 10
-13.917815392
 20
49.8023458597
 30
0.0
 11
-14.341865392
 21
49.2829958597
 31
0.0
  0
LINE
  5
2A9
330
1F
100
AcDbEntity
  8
0
  6
CONTINUOUS
 62
     7
100
AcDbLine
 10
-14.341865392
 20
49.2829958597
 30
0.0
 11
-14.753015392
 21
48.7245458597
 31
0.0
  0
LINE
  5
2AA
330
1F
100
AcDbEntity
  8
0
  6
CONTINUOUS
 62
     7
100
AcDbLine
 10
-14.753015392
 20
48.7245458597
 30
0.0
 11
-15.148865392
 21
48.1255458597
 31
0.0
  0
LINE
  5
2AB
330
1F
100
AcDbEntity
  8
0
  6
CONTINUOUS
 62
     7
100
AcDbLine
 10
-15.148865392
 20
48.1255458597
 30
0.0
 11
-15.527265392
 21
47.4843458597
 31
0.0
  0
LINE
  5
2AC
330
1F
100
AcDbEntity
  8
0
  6
CONTINUOUS
 62
     7
100
AcDbLine
 10
-15.527265392
 20
47.4843458597
 30
0.0
 11
-15.885915392
 21
46.7994958597
 31
0.0
  0
LINE
  5
2AD
330
1F
100
AcDbEntity
  8
0
  6
CONTINUOUS
 62
     7
100
AcDbLine
 10
-15.885915392
 20
46.7994958597
 30
0.0
 11
-16.222465392
 21
46.0694458597
 31
0.0
  0
LINE
  5
2AE
330
1F
100
AcDbEntity
  8
0
  6
CONTINUOUS
 62
     7
100
AcDbLine
 10
-16.222465392
 20
46.0694458597
 30
0.0
 11
-16.534715392
 21
45.2925958597
 31
0.0
  0
LINE
  5
2AF
330
1F
100
AcDbEntity
  8
0
  6
CONTINUOUS
 62
     7
100
AcDbLine
 10
-16.534715392
 20
45.2925958597
 30
0.0
 11
-16.820365392
 21
44.4674458597
 31
0.0
  0
LINE
  5
2B0
330
1F
100
AcDbEntity
  8
0
  6
CONTINUOUS
 62
     7
100
AcDbLine
 10
-16.820365392
 20
44.4674458597
 30
0.0
 11
-17.077165392
 21
43.5924958597
 31
0.0
  0
LINE
  5
2B1
330
1F
100
AcDbEntity
  8
0
  6
CONTINUOUS
 62
     7
100
AcDbLine
 10
-17.077165392
 20
43.5924958597
 30
0.0
 11
-17.302815392
 21
42.6661458597
 31
0.0
  0
LINE
  5
2B2
330
1F
100
AcDbEntity
  8
0
  6
CONTINUOUS
 62
     7
100
AcDbLine
 10
-17.302815392
 20
42.6661458597
 30
0.0
 11
-17.351415392
 21
42.5508958597
 31
0.0
  0
LINE
  5
2B3
330
1F
100
AcDbEntity
  8
0
  6
CONTINUOUS
 62
     7
100
AcDbLine
 10
-17.351415392
 20
42.5508958597
 30
0.0
 11
-17.475315392
 21
42.2714458597
 31
0.0
  0
LINE
  5
2B4
330
1F
100
AcDbEntity
  8
0
  6
CONTINUOUS
 62
     7
100
AcDbLine
 10
-17.475315392
 20
42.2714458597
 30
0.0
 11
-17.661415392
 21
41.9286458597
 31
0.0
  0
LINE
  5
2B5
330
1F
100
AcDbEntity
  8
0
  6
CONTINUOUS
 62
     7
100
AcDbLine
 10
-17.661415392
 20
41.9286458597
 30
0.0
 11
-17.773715392
 21
41.7649958597
 31
0.0
  0
LINE
  5
2B6
330
1F
100
AcDbEntity
  8
0
  6
CONTINUOUS
 62
     7
100
AcDbLine
 10
-17.773715392
 20
41.7649958597
 30
0.0
 11
-17.896665392
 21
41.6233458597
 31
0.0
  0
LINE
  5
2B7
330
1F
100
AcDbEntity
  8
0
  6
CONTINUOUS
 62
     7
100
AcDbLine
 10
-17.896665392
 20
41.6233458597
 30
0.0
 11
-18.028615392
 21
41.5162458597
 31
0.0
  0
LINE
  5
2B8
330
1F
100
AcDbEntity
  8
0
  6
CONTINUOUS
 62
     7
100
AcDbLine
 10
-18.028615392
 20
41.5162458597
 30
0.0
 11
-18.167965392
 21
41.4563958597
 31
0.0
  0
LINE
  5
2B9
330
1F
100
AcDbEntity
  8
0
  6
CONTINUOUS
 62
     7
100
AcDbLine
 10
-18.167965392
 20
41.4563958597
 30
0.0
 11
-18.239865392
 21
41.4481458597
 31
0.0
  0
LINE
  5
2BA
330
1F
100
AcDbEntity
  8
0
  6
CONTINUOUS
 62
     7
100
AcDbLine
 10
-18.239865392
 20
41.4481458597
 30
0.0
 11
-18.313015392
 21
41.4563458597
 31
0.0
  0
LINE
  5
2BB
330
1F
100
AcDbEntity
  8
0
  6
CONTINUOUS
 62
     7
100
AcDbLine
 10
-18.313015392
 20
41.4563458597
 30
0.0
 11
-18.387215392
 21
41.4826958597
 31
0.0
  0
LINE
  5
2BC
330
1F
100
AcDbEntity
  8
0
  6
CONTINUOUS
 62
     7
100
AcDbLine
 10
-18.387215392
 20
41.4826958597
 30
0.0
 11
-18.462215392
 21
41.5287458597
 31
0.0
  0
LINE
  5
2BD
330
1F
100
AcDbEntity
  8
0
  6
CONTINUOUS
 62
     7
100
AcDbLine
 10
-18.462215392
 20
41.5287458597
 30
0.0
 11
-18.537865392
 21
41.5960458597
 31
0.0
  0
LINE
  5
2BE
330
1F
100
AcDbEntity
  8
0
  6
CONTINUOUS
 62
     7
100
AcDbLine
 10
-18.537865392
 20
41.5960458597
 30
0.0
 11
-18.613915392
 21
41.6861458597
 31
0.0
  0
LINE
  5
2BF
330
1F
100
AcDbEntity
  8
0
  6
CONTINUOUS
 62
     7
100
AcDbLine
 10
-18.613915392
 20
41.6861458597
 30
0.0
 11
-18.766415392
 21
41.9411958597
 31
0.0
  0
LINE
  5
2C0
330
1F
100
AcDbEntity
  8
0
  6
CONTINUOUS
 62
     7
100
AcDbLine
 10
-18.766415392
 20
41.9411958597
 30
0.0
 11
-18.918115392
 21
42.3064958597
 31
0.0
  0
LINE
  5
2C1
330
1F
100
AcDbEntity
  8
0
  6
CONTINUOUS
 62
     7
100
AcDbLine
 10
-18.918115392
 20
42.3064958597
 30
0.0
 11
-19.067415392
 21
42.7946458597
 31
0.0
  0
LINE
  5
2C2
330
1F
100
AcDbEntity
  8
0
  6
CONTINUOUS
 62
     7
100
AcDbLine
 10
-19.067415392
 20
42.7946458597
 30
0.0
 11
-19.222615392
 21
43.3897958597
 31
0.0
  0
LINE
  5
2C3
330
1F
100
AcDbEntity
  8
0
  6
CONTINUOUS
 62
     7
100
AcDbLine
 10
-19.222615392
 20
43.3897958597
 30
0.0
 11
-19.385115392
 21
44.0604958597
 31
0.0
  0
LINE
  5
2C4
330
1F
100
AcDbEntity
  8
0
  6
CONTINUOUS
 62
     7
100
AcDbLine
 10
-19.385115392
 20
44.0604958597
 30
0.0
 11
-19.540965392
 21
44.7979958597
 31
0.0
  0
LINE
  5
2C5
330
1F
100
AcDbEntity
  8
0
  6
CONTINUOUS
 62
     7
100
AcDbLine
 10
-19.540965392
 20
44.7979958597
 30
0.0
 11
-19.675965392
 21
45.5933958597
 31
0.0
  0
LINE
  5
2C6
330
1F
100
AcDbEntity
  8
0
  6
CONTINUOUS
 62
     7
100
AcDbLine
 10
-19.675965392
 20
45.5933958597
 30
0.0
 11
-19.776215392
 21
46.4379958597
 31
0.0
  0
LINE
  5
2C7
330
1F
100
AcDbEntity
  8
0
  6
CONTINUOUS
 62
     7
100
AcDbLine
 10
-19.776215392
 20
46.4379958597
 30
0.0
 11
-19.808915392
 21
46.8759958597
 31
0.0
  0
LINE
  5
2C8
330
1F
100
AcDbEntity
  8
0
  6
CONTINUOUS
 62
     7
100
AcDbLine
 10
-19.808915392
 20
46.8759958597
 30
0.0
 11
-19.827665392
 21
47.3229458597
 31
0.0
  0
LINE
  5
2C9
330
1F
100
AcDbEntity
  8
0
  6
CONTINUOUS
 62
     7
100
AcDbLine
 10
-19.827665392
 20
47.3229458597
 30
0.0
 11
-19.830665392
 21
47.7777958597
 31
0.0
  0
LINE
  5
2CA
330
1F
100
AcDbEntity
  8
0
  6
CONTINUOUS
 62
     7
100
AcDbLine
 10
-19.830665392
 20
47.7777958597
 30
0.0
 11
-19.816165392
 21
48.2394458597
 31
0.0
  0
LINE
  5
2CB
330
1F
100
AcDbEntity
  8
0
  6
CONTINUOUS
 62
     7
100
AcDbLine
 10
-19.816165392
 20
48.2394458597
 30
0.0
 11
-19.782465392
 21
48.7067458597
 31
0.0
  0
LINE
  5
2CC
330
1F
100
AcDbEntity
  8
0
  6
CONTINUOUS
 62
     7
100
AcDbLine
 10
-19.782465392
 20
48.7067458597
 30
0.0
 11
-19.727815392
 21
49.1786458597
 31
0.0
  0
LINE
  5
2CD
330
1F
100
AcDbEntity
  8
0
  6
CONTINUOUS
 62
     7
100
AcDbLine
 10
-19.727815392
 20
49.1786458597
 30
0.0
 11
-19.650415392
 21
49.6540458597
 31
0.0
  0
LINE
  5
2CE
330
1F
100
AcDbEntity
  8
0
  6
CONTINUOUS
 62
     7
100
AcDbLine
 10
-19.650415392
 20
49.6540458597
 30
0.0
 11
-19.548465392
 21
50.1317958597
 31
0.0
  0
LINE
  5
2CF
330
1F
100
AcDbEntity
  8
0
  6
CONTINUOUS
 62
     7
100
AcDbLine
 10
-19.548465392
 20
50.1317958597
 30
0.0
 11
-19.420315392
 21
50.6108458597
 31
0.0
  0
LINE
  5
2D0
330
1F
100
AcDbEntity
  8
0
  6
CONTINUOUS
 62
     7
100
AcDbLine
 10
-19.420315392
 20
50.6108458597
 30
0.0
 11
-19.264165392
 21
51.0900958597
 31
0.0
  0
LINE
  5
2D1
330
1F
100
AcDbEntity
  8
0
  6
CONTINUOUS
 62
     7
100
AcDbLine
 10
-19.264165392
 20
51.0900958597
 30
0.0
 11
-19.078265392
 21
51.5683958597
 31
0.0
  0
LINE
  5
2D2
330
1F
100
AcDbEntity
  8
0
  6
CONTINUOUS
 62
     7
100
AcDbLine
 10
-19.078265392
 20
51.5683958597
 30
0.0
 11
-18.860815392
 21
52.0446958597
 31
0.0
  0
LINE
  5
2D3
330
1F
100
AcDbEntity
  8
0
  6
CONTINUOUS
 62
     7
100
AcDbLine
 10
-18.860815392
 20
52.0446958597
 30
0.0
 11
-18.610115392
 21
52.5178958597
 31
0.0
  0
LINE
  5
2D4
330
1F
100
AcDbEntity
  8
0
  6
CONTINUOUS
 62
     7
100
AcDbLine
 10
-18.610115392
 20
52.5178958597
 30
0.0
 11
-18.324415392
 21
52.9868458597
 31
0.0
  0
LINE
  5
2D5
330
1F
100
AcDbEntity
  8
0
  6
CONTINUOUS
 62
     7
100
AcDbLine
 10
-18.324415392
 20
52.9868458597
 30
0.0
 11
-18.001915392
 21
53.4504458597
 31
0.0
  0
LINE
  5
2D6
330
1F
100
AcDbEntity
  8
0
  6
CONTINUOUS
 62
     7
100
AcDbLine
 10
-18.001915392
 20
53.4504458597
 30
0.0
 11
-17.640915392
 21
53.9076458597
 31
0.0
  0
LINE
  5
2D7
330
1F
100
AcDbEntity
  8
0
  6
CONTINUOUS
 62
     7
100
AcDbLine
 10
-17.640915392
 20
53.9076458597
 30
0.0
 11
-17.239615392
 21
54.3573458597
 31
0.0
  0
LINE
  5
2D8
330
1F
100
AcDbEntity
  8
0
  6
CONTINUOUS
 62
     7
100
AcDbLine
 10
-17.239615392
 20
54.3573458597
 30
0.0
 11
-16.796265392
 21
54.7983958597
 31
0.0
  0
LINE
  5
2D9
330
1F
100
AcDbEntity
  8
0
  6
CONTINUOUS
 62
     7
100
AcDbLine
 10
-16.796265392
 20
54.7983958597
 30
0.0
 11
-16.309115392
 21
55.2296958597
 31
0.0
  0
LINE
  5
2DA
330
1F
100
AcDbEntity
  8
0
  6
CONTINUOUS
 62
     7
100
AcDbLine
 10
-16.309115392
 20
55.2296958597
 30
0.0
 11
-15.776415392
 21
55.6502458597
 31
0.0
  0
LINE
  5
2DB
330
1F
100
AcDbEntity
  8
0
  6
CONTINUOUS
 62
     7
100
AcDbLine
 10
-15.776415392
 20
55.6502458597
 30
0.0
 11
-15.196465392
 21
56.0587958597
 31
0.0
  0
LINE
  5
2DC
330
1F
100
AcDbEntity
  8
0
  6
CONTINUOUS
 62
     7
100
AcDbLine
 10
-15.196465392
 20
56.0587958597
 30
0.0
 11
-14.567415392
 21
56.4543458597
 31
0.0
  0
LINE
  5
2DD
330
1F
100
AcDbEntity
  8
0
  6
CONTINUOUS
 62
     7
100
AcDbLine
 10
-14.567415392
 20
56.4543458597
 30
0.0
 11
-14.426665392
 21
56.8581458597
 31
0.0
  0
LINE
  5
2DE
330
1F
100
AcDbEntity
  8
0
  6
CONTINUOUS
 62
     7
100
AcDbLine
 10
-14.426665392
 20
56.8581458597
 30
0.0
 11
-14.314665392
 21
57.2521458597
 31
0.0
  0
LINE
  5
2DF
330
1F
100
AcDbEntity
  8
0
  6
CONTINUOUS
 62
     7
100
AcDbLine
 10
-14.314665392
 20
57.2521458597
 30
0.0
 11
-14.234415392
 21
57.6861458597
 31
0.0
  0
LINE
  5
2E0
330
1F
100
AcDbEntity
  8
0
  6
CONTINUOUS
 62
     7
100
AcDbLine
 10
-14.234415392
 20
57.6861458597
 30
0.0
 11
-14.220165392
 21
57.8974958597
 31
0.0
  0
LINE
  5
2E1
330
1F
100
AcDbEntity
  8
0
  6
CONTINUOUS
 62
     7
100
AcDbLine
 10
-14.220165392
 20
57.8974958597
 30
0.0
 11
-14.230615392
 21
58.0939958597
 31
0.0
  0
LINE
  5
2E2
330
1F
100
AcDbEntity
  8
0
  6
CONTINUOUS
 62
     7
100
AcDbLine
 10
-14.230615392
 20
58.0939958597
 30
0.0
 11
-14.271315392
 21
58.2674458597
 31
0.0
  0
LINE
  5
2E3
330
1F
100
AcDbEntity
  8
0
  6
CONTINUOUS
 62
     7
100
AcDbLine
 10
-14.271315392
 20
58.2674458597
 30
0.0
 11
-14.347865392
 21
58.4095958597
 31
0.0
  0
LINE
  5
2E4
330
1F
100
AcDbEntity
  8
0
  6
CONTINUOUS
 62
     7
100
AcDbLine
 10
-14.347865392
 20
58.4095958597
 30
0.0
 11
-14.401315392
 21
58.4662958597
 31
0.0
  0
LINE
  5
2E5
330
1F
100
AcDbEntity
  8
0
  6
CONTINUOUS
 62
     7
100
AcDbLine
 10
-14.401315392
 20
58.4662958597
 30
0.0
 11
-14.465865392
 21
58.5120958597
 31
0.0
  0
LINE
  5
2E6
330
1F
100
AcDbEntity
  8
0
  6
CONTINUOUS
 62
     7
100
AcDbLine
 10
-14.465865392
 20
58.5120958597
 30
0.0
 11
-14.542165392
 21
58.5459458597
 31
0.0
  0
LINE
  5
2E7
330
1F
100
AcDbEntity
  8
0
  6
CONTINUOUS
 62
     7
100
AcDbLine
 10
-14.542165392
 20
58.5459458597
 30
0.0
 11
-14.630915392
 21
58.5667958597
 31
0.0
  0
LINE
  5
2E8
330
1F
100
AcDbEntity
  8
0
  6
CONTINUOUS
 62
     7
100
AcDbLine
 10
-14.630915392
 20
58.5667958597
 30
0.0
 11
-14.732765392
 21
58.5735958597
 31
0.0
  0
LINE
  5
2E9
330
1F
100
AcDbEntity
  8
0
  6
CONTINUOUS
 62
     7
100
AcDbLine
 10
-14.732765392
 20
58.5735958597
 30
0.0
 11
-14.848515392
 21
58.5653458597
 31
0.0
  0
LINE
  5
2EA
330
1F
100
AcDbEntity
  8
0
  6
CONTINUOUS
 62
     7
100
AcDbLine
 10
-14.848515392
 20
58.5653458597
 30
0.0
 11
-15.124315392
 21
58.4994958597
 31
0.0
  0
LINE
  5
2EB
330
1F
100
AcDbEntity
  8
0
  6
CONTINUOUS
 62
     7
100
AcDbLine
 10
-15.124315392
 20
58.4994958597
 30
0.0
 11
-15.526515392
 21
58.3417458597
 31
0.0
  0
LINE
  5
2EC
330
1F
100
AcDbEntity
  8
0
  6
CONTINUOUS
 62
     7
100
AcDbLine
 10
-15.526515392
 20
58.3417458597
 30
0.0
 11
-16.094765392
 21
58.0606958597
 31
0.0
  0
LINE
  5
2ED
330
1F
100
AcDbEntity
  8
0
  6
CONTINUOUS
 62
     7
100
AcDbLine
 10
-16.094765392
 20
58.0606958597
 30
0.0
 11
-16.428965392
 21
57.8722958597
 31
0.0
  0
LINE
  5
2EE
330
1F
100
AcDbEntity
  8
0
  6
CONTINUOUS
 62
     7
100
AcDbLine
 10
-16.428965392
 20
57.8722958597
 30
0.0
 11
-16.790015392
 21
57.6510458597
 31
0.0
  0
LINE
  5
2EF
330
1F
100
AcDbEntity
  8
0
  6
CONTINUOUS
 62
     7
100
AcDbLine
 10
-16.790015392
 20
57.6510458597
 30
0.0
 11
-17.172965392
 21
57.3962958597
 31
0.0
  0
LINE
  5
2F0
330
1F
100
AcDbEntity
  8
0
  6
CONTINUOUS
 62
     7
100
AcDbLine
 10
-17.172965392
 20
57.3962958597
 30
0.0
 11
-17.573065392
 21
57.1073458597
 31
0.0
  0
LINE
  5
2F1
330
1F
100
AcDbEntity
  8
0
  6
CONTINUOUS
 62
     7
100
AcDbLine
 10
-17.573065392
 20
57.1073458597
 30
0.0
 11
-17.985315392
 21
56.7835458597
 31
0.0
  0
LINE
  5
2F2
330
1F
100
AcDbEntity
  8
0
  6
CONTINUOUS
 62
     7
100
AcDbLine
 10
-17.985315392
 20
56.7835458597
 30
0.0
 11
-18.404815392
 21
56.4241958597
 31
0.0
  0
LINE
  5
2F3
330
1F
100
AcDbEntity
  8
0
  6
CONTINUOUS
 62
     7
100
AcDbLine
 10
-18.404815392
 20
56.4241958597
 30
0.0
 11
-18.826765392
 21
56.0286958597
 31
0.0
  0
LINE
  5
2F4
330
1F
100
AcDbEntity
  8
0
  6
CONTINUOUS
 62
     7
100
AcDbLine
 10
-18.826765392
 20
56.0286958597
 30
0.0
 11
-19.246265392
 21
55.5962958597
 31
0.0
  0
LINE
  5
2F5
330
1F
100
AcDbEntity
  8
0
  6
CONTINUOUS
 62
     7
100
AcDbLine
 10
-19.246265392
 20
55.5962958597
 30
0.0
 11
-19.658365392
 21
55.1263458597
 31
0.0
  0
LINE
  5
2F6
330
1F
100
AcDbEntity
  8
0
  6
CONTINUOUS
 62
     7
100
AcDbLine
 10
-19.658365392
 20
55.1263458597
 30
0.0
 11
-20.058165392
 21
54.6181958597
 31
0.0
  0
LINE
  5
2F7
330
1F
100
AcDbEntity
  8
0
  6
CONTINUOUS
 62
     7
100
AcDbLine
 10
-20.058165392
 20
54.6181958597
 30
0.0
 11
-20.440865392
 21
54.0711458597
 31
0.0
  0
LINE
  5
2F8
330
1F
100
AcDbEntity
  8
0
  6
CONTINUOUS
 62
     7
100
AcDbLine
 10
-20.440865392
 20
54.0711458597
 30
0.0
 11
-20.801515392
 21
53.4845458597
 31
0.0
  0
LINE
  5
2F9
330
1F
100
AcDbEntity
  8
0
  6
CONTINUOUS
 62
     7
100
AcDbLine
 10
-20.801515392
 20
53.4845458597
 30
0.0
 11
-21.135215392
 21
52.8577458597
 31
0.0
  0
LINE
  5
2FA
330
1F
100
AcDbEntity
  8
0
  6
CONTINUOUS
 62
     7
100
AcDbLine
 10
-21.135215392
 20
52.8577458597
 30
0.0
 11
-21.437115392
 21
52.1899958597
 31
0.0
  0
LINE
  5
2FB
330
1F
100
AcDbEntity
  8
0
  6
CONTINUOUS
 62
     7
100
AcDbLine
 10
-21.437115392
 20
52.1899958597
 30
0.0
 11
-21.702315392
 21
51.4806458597
 31
0.0
  0
LINE
  5
2FC
330
1F
100
AcDbEntity
  8
0
  6
CONTINUOUS
 62
     7
100
AcDbLine
 10
-21.702315392
 20
51.4806458597
 30
0.0
 11
-21.925915392
 21
50.7290958597
 31
0.0
  0
LINE
  5
2FD
330
1F
100
AcDbEntity
  8
0
  6
CONTINUOUS
 62
     7
100
AcDbLine
 10
-21.925915392
 20
50.7290958597
 30
0.0
 11
-22.103065392
 21
49.9345958597
 31
0.0
  0
LINE
  5
2FE
330
1F
100
AcDbEntity
  8
0
  6
CONTINUOUS
 62
     7
100
AcDbLine
 10
-22.103065392
 20
49.9345958597
 30
0.0
 11
-22.172665392
 21
49.5210458597
 31
0.0
  0
LINE
  5
2FF
330
1F
100
AcDbEntity
  8
0
  6
CONTINUOUS
 62
     7
100
AcDbLine
 10
-22.172665392
 20
49.5210458597
 30
0.0
 11
-22.228815392
 21
49.0964958597
 31
0.0
  0
LINE
  5
300
330
1F
100
AcDbEntity
  8
0
  6
CONTINUOUS
 62
     7
100
AcDbLine
 10
-22.228815392
 20
49.0964958597
 30
0.0
 11
-22.270915392
 21
48.6608958597
 31
0.0
  0
LINE
  5
301
330
1F
100
AcDbEntity
  8
0
  6
CONTINUOUS
 62
     7
100
AcDbLine
 10
-22.270915392
 20
48.6608958597
 30
0.0
 11
-22.298315392
 21
48.2140958597
 31
0.0
  0
LINE
  5
302
330
1F
100
AcDbEntity
  8
0
  6
CONTINUOUS
 62
     7
100
AcDbLine
 10
-22.298315392
 20
48.2140958597
 30
0.0
 11
-22.310415392
 21
47.7560958597
 31
0.0
  0
LINE
  5
303
330
1F
100
AcDbEntity
  8
0
  6
CONTINUOUS
 62
     7
100
AcDbLine
 10
-22.310415392
 20
47.7560958597
 30
0.0
 11
-22.306665392
 21
47.2867958597
 31
0.0
  0
LINE
  5
304
330
1F
100
AcDbEntity
  8
0
  6
CONTINUOUS
 62
     7
100
AcDbLine
 10
-22.306665392
 20
47.2867958597
 30
0.0
 11
-22.286365392
 21
46.8060958597
 31
0.0
  0
LINE
  5
305
330
1F
100
AcDbEntity
  8
0
  6
CONTINUOUS
 62
     7
100
AcDbLine
 10
-22.286365392
 20
46.8060958597
 30
0.0
 11
-22.248965392
 21
46.3138958597
 31
0.0
  0
LINE
  5
306
330
1F
100
AcDbEntity
  8
0
  6
CONTINUOUS
 62
     7
100
AcDbLine
 10
-22.248965392
 20
46.3138958597
 30
0.0
 11
-22.193815392
 21
45.8100958597
 31
0.0
  0
LINE
  5
307
330
1F
100
AcDbEntity
  8
0
  6
CONTINUOUS
 62
     7
100
AcDbLine
 10
-22.193815392
 20
45.8100958597
 30
0.0
 11
-22.120365392
 21
45.2946458597
 31
0.0
  0
LINE
  5
308
330
1F
100
AcDbEntity
  8
0
  6
CONTINUOUS
 62
     7
100
AcDbLine
 10
-22.120365392
 20
45.2946458597
 30
0.0
 11
-22.027915392
 21
44.7674958597
 31
0.0
  0
LINE
  5
309
330
1F
100
AcDbEntity
  8
0
  6
CONTINUOUS
 62
     7
100
AcDbLine
 10
-22.027915392
 20
44.7674958597
 30
0.0
 11
-21.915915392
 21
44.2284958597
 31
0.0
  0
LINE
  5
30A
330
1F
100
AcDbEntity
  8
0
  6
CONTINUOUS
 62
     7
100
AcDbLine
 10
-21.915915392
 20
44.2284958597
 30
0.0
 11
-21.783765392
 21
43.6775458597
 31
0.0
  0
LINE
  5
30B
330
1F
100
AcDbEntity
  8
0
  6
CONTINUOUS
 62
     7
100
AcDbLine
 10
-21.783765392
 20
43.6775458597
 30
0.0
 11
-21.630815392
 21
43.1146458597
 31
0.0
  0
LINE
  5
30C
330
1F
100
AcDbEntity
  8
0
  6
CONTINUOUS
 62
     7
100
AcDbLine
 10
-21.630815392
 20
43.1146458597
 30
0.0
 11
-21.456415392
 21
42.5396958597
 31
0.0
  0
LINE
  5
30D
330
1F
100
AcDbEntity
  8
0
  6
CONTINUOUS
 62
     7
100
AcDbLine
 10
-21.456415392
 20
42.5396958597
 30
0.0
 11
-21.260065392
 21
41.9525458597
 31
0.0
  0
LINE
  5
30E
330
1F
100
AcDbEntity
  8
0
  6
CONTINUOUS
 62
     7
100
AcDbLine
 10
-21.260065392
 20
41.9525458597
 30
0.0
 11
-21.041065392
 21
41.3531458597
 31
0.0
  0
LINE
  5
30F
330
1F
100
AcDbEntity
  8
0
  6
CONTINUOUS
 62
     7
100
AcDbLine
 10
-21.041065392
 20
41.3531458597
 30
0.0
 11
-20.798865392
 21
40.7414458597
 31
0.0
  0
LINE
  5
310
330
1F
100
AcDbEntity
  8
0
  6
CONTINUOUS
 62
     7
100
AcDbLine
 10
-20.798865392
 20
40.7414458597
 30
0.0
 11
-20.532815392
 21
40.1173458597
 31
0.0
  0
LINE
  5
311
330
1F
100
AcDbEntity
  8
0
  6
CONTINUOUS
 62
     7
100
AcDbLine
 10
-20.532815392
 20
40.1173458597
 30
0.0
 11
-20.242265392
 21
39.4806958597
 31
0.0
  0
LINE
  5
312
330
1F
100
AcDbEntity
  8
0
  6
CONTINUOUS
 62
     7
100
AcDbLine
 10
-20.242265392
 20
39.4806958597
 30
0.0
 11
-19.926715392
 21
38.8314958597
 31
0.0
  0
LINE
  5
313
330
1F
100
AcDbEntity
  8
0
  6
CONTINUOUS
 62
     7
100
AcDbLine
 10
-19.926715392
 20
38.8314958597
 30
0.0
 11
-19.585465392
 21
38.1696458597
 31
0.0
  0
LINE
  5
314
330
1F
100
AcDbEntity
  8
0
  6
CONTINUOUS
 62
     7
100
AcDbLine
 10
-19.585465392
 20
38.1696458597
 30
0.0
 11
-19.313915392
 21
37.6561958597
 31
0.0
  0
LINE
  5
315
330
1F
100
AcDbEntity
  8
0
  6
CONTINUOUS
 62
     7
100
AcDbLine
 10
-19.313915392
 20
37.6561958597
 30
0.0
 11
-19.070515392
 21
37.1441958597
 31
0.0
  0
LINE
  5
316
330
1F
100
AcDbEntity
  8
0
  6
CONTINUOUS
 62
     7
100
AcDbLine
 10
-19.070515392
 20
37.1441958597
 30
0.0
 11
-18.839215392
 21
36.5615458597
 31
0.0
  0
LINE
  5
317
330
1F
100
AcDbEntity
  8
0
  6
CONTINUOUS
 62
     7
100
AcDbLine
 10
-18.839215392
 20
36.5615458597
 30
0.0
 11
-18.747765392
 21
36.2670958597
 31
0.0
  0
LINE
  5
318
330
1F
100
AcDbEntity
  8
0
  6
CONTINUOUS
 62
     7
100
AcDbLine
 10
-18.747765392
 20
36.2670958597
 30
0.0
 11
-18.682915392
 21
35.9829458597
 31
0.0
  0
LINE
  5
319
330
1F
100
AcDbEntity
  8
0
  6
CONTINUOUS
 62
     7
100
AcDbLine
 10
-18.682915392
 20
35.9829458597
 30
0.0
 11
-18.652565392
 21
35.7184958597
 31
0.0
  0
LINE
  5
31A
330
1F
100
AcDbEntity
  8
0
  6
CONTINUOUS
 62
     7
100
AcDbLine
 10
-18.652565392
 20
35.7184958597
 30
0.0
 11
-18.664515392
 21
35.4830958597
 31
0.0
  0
LINE
  5
31B
330
1F
100
AcDbEntity
  8
0
  6
CONTINUOUS
 62
     7
100
AcDbLine
 10
-18.664515392
 20
35.4830958597
 30
0.0
 11
-18.688865392
 21
35.3791458597
 31
0.0
  0
LINE
  5
31C
330
1F
100
AcDbEntity
  8
0
  6
CONTINUOUS
 62
     7
100
AcDbLine
 10
-18.688865392
 20
35.3791458597
 30
0.0
 11
-18.726715392
 21
35.2859958597
 31
0.0
  0
LINE
  5
31D
330
1F
100
AcDbEntity
  8
0
  6
CONTINUOUS
 62
     7
100
AcDbLine
 10
-18.726715392
 20
35.2859958597
 30
0.0
 11
-18.779065392
 21
35.2047458597
 31
0.0
  0
LINE
  5
31E
330
1F
100
AcDbEntity
  8
0
  6
CONTINUOUS
 62
     7
100
AcDbLine
 10
-18.779065392
 20
35.2047458597
 30
0.0
 11
-18.846965392
 21
35.1365958597
 31
0.0
  0
LINE
  5
31F
330
1F
100
AcDbEntity
  8
0
  6
CONTINUOUS
 62
     7
100
AcDbLine
 10
-18.846965392
 20
35.1365958597
 30
0.0
 11
-18.931315392
 21
35.0826958597
 31
0.0
  0
LINE
  5
320
330
1F
100
AcDbEntity
  8
0
  6
CONTINUOUS
 62
     7
100
AcDbLine
 10
-18.931315392
 20
35.0826958597
 30
0.0
 11
-19.033115392
 21
35.0442458597
 31
0.0
  0
LINE
  5
321
330
1F
100
AcDbEntity
  8
0
  6
CONTINUOUS
 62
     7
100
AcDbLine
 10
-19.033115392
 20
35.0442458597
 30
0.0
 11
-19.153415392
 21
35.0223458597
 31
0.0
  0
LINE
  5
322
330
1F
100
AcDbEntity
  8
0
  6
CONTINUOUS
 62
     7
100
AcDbLine
 10
-19.153415392
 20
35.0223458597
 30
0.0
 11
-19.293065392
 21
35.0182458597
 31
0.0
  0
LINE
  5
323
330
1F
100
AcDbEntity
  8
0
  6
CONTINUOUS
 62
     7
100
AcDbLine
 10
-19.293065392
 20
35.0182458597
 30
0.0
 11
-19.971865392
 21
34.8514958597
 31
0.0
  0
LINE
  5
324
330
1F
100
AcDbEntity
  8
0
  6
CONTINUOUS
 62
     7
100
AcDbLine
 10
-19.971865392
 20
34.8514958597
 30
0.0
 11
-20.703815392
 21
34.6829458597
 31
0.0
  0
LINE
  5
325
330
1F
100
AcDbEntity
  8
0
  6
CONTINUOUS
 62
     7
100
AcDbLine
 10
-20.703815392
 20
34.6829458597
 30
0.0
 11
-21.628515392
 21
34.4873458597
 31
0.0
  0
LINE
  5
326
330
1F
100
AcDbEntity
  8
0
  6
CONTINUOUS
 62
     7
100
AcDbLine
 10
-21.628515392
 20
34.4873458597
 30
0.0
 11
-22.694315392
 21
34.2869458597
 31
0.0
  0
LINE
  5
327
330
1F
100
AcDbEntity
  8
0
  6
CONTINUOUS
 62
     7
100
AcDbLine
 10
-22.694315392
 20
34.2869458597
 30
0.0
 11
-23.849415392
 21
34.1040458597
 31
0.0
  0
LINE
  5
328
330
1F
100
AcDbEntity
  8
0
  6
CONTINUOUS
 62
     7
100
AcDbLine
 10
-23.849415392
 20
34.1040458597
 30
0.0
 11
-25.042165392
 21
33.9609958597
 31
0.0
  0
LINE
  5
329
330
1F
100
AcDbEntity
  8
0
  6
CONTINUOUS
 62
     7
100
AcDbLine
 10
-25.042165392
 20
33.9609958597
 30
0.0
 11
-25.636515392
 21
33.9113458597
 31
0.0
  0
LINE
  5
32A
330
1F
100
AcDbEntity
  8
0
  6
CONTINUOUS
 62
     7
100
AcDbLine
 10
-25.636515392
 20
33.9113458597
 30
0.0
 11
-26.220865392
 21
33.8800458597
 31
0.0
  0
LINE
  5
32B
330
1F
100
AcDbEntity
  8
0
  6
CONTINUOUS
 62
     7
100
AcDbLine
 10
-26.220865392
 20
33.8800458597
 30
0.0
 11
-26.741365392
 21
33.9939958597
 31
0.0
  0
LINE
  5
32C
330
1F
100
AcDbEntity
  8
0
  6
CONTINUOUS
 62
     7
100
AcDbLine
 10
-26.741365392
 20
33.9939958597
 30
0.0
 11
-27.257015392
 21
34.0532958597
 31
0.0
  0
LINE
  5
32D
330
1F
100
AcDbEntity
  8
0
  6
CONTINUOUS
 62
     7
100
AcDbLine
 10
-27.257015392
 20
34.0532958597
 30
0.0
 11
-27.766115392
 21
34.0582958597
 31
0.0
  0
LINE
  5
32E
330
1F
100
AcDbEntity
  8
0
  6
CONTINUOUS
 62
     7
100
AcDbLine
 10
-27.766115392
 20
34.0582958597
 30
0.0
 11
-28.266965392
 21
34.0092958597
 31
0.0
  0
LINE
  5
32F
330
1F
100
AcDbEntity
  8
0
  6
CONTINUOUS
 62
     7
100
AcDbLine
 10
-28.266965392
 20
34.0092958597
 30
0.0
 11
-28.757865392
 21
33.9066958597
 31
0.0
  0
LINE
  5
330
330
1F
100
AcDbEntity
  8
0
  6
CONTINUOUS
 62
     7
100
AcDbLine
 10
-28.757865392
 20
33.9066958597
 30
0.0
 11
-29.237165392
 21
33.7508458597
 31
0.0
  0
LINE
  5
331
330
1F
100
AcDbEntity
  8
0
  6
CONTINUOUS
 62
     7
100
AcDbLine
 10
-29.237165392
 20
33.7508458597
 30
0.0
 11
-29.703165392
 21
33.5420958597
 31
0.0
  0
LINE
  5
332
330
1F
100
AcDbEntity
  8
0
  6
CONTINUOUS
 62
     7
100
AcDbLine
 10
-29.703165392
 20
33.5420958597
 30
0.0
 11
-30.154215392
 21
33.2807458597
 31
0.0
  0
LINE
  5
333
330
1F
100
AcDbEntity
  8
0
  6
CONTINUOUS
 62
     7
100
AcDbLine
 10
-30.154215392
 20
33.2807458597
 30
0.0
 11
-30.266015392
 21
33.1486958597
 31
0.0
  0
LINE
  5
334
330
1F
100
AcDbEntity
  8
0
  6
CONTINUOUS
 62
     7
100
AcDbLine
 10
-30.266015392
 20
33.1486958597
 30
0.0
 11
-30.355665392
 21
33.0045958597
 31
0.0
  0
LINE
  5
335
330
1F
100
AcDbEntity
  8
0
  6
CONTINUOUS
 62
     7
100
AcDbLine
 10
-30.355665392
 20
33.0045958597
 30
0.0
 11
-30.424565392
 21
32.8473458597
 31
0.0
  0
LINE
  5
336
330
1F
100
AcDbEntity
  8
0
  6
CONTINUOUS
 62
     7
100
AcDbLine
 10
-30.424565392
 20
32.8473458597
 30
0.0
 11
-30.474265392
 21
32.6760458597
 31
0.0
  0
LINE
  5
337
330
1F
100
AcDbEntity
  8
0
  6
CONTINUOUS
 62
     7
100
AcDbLine
 10
-30.474265392
 20
32.6760458597
 30
0.0
 11
-30.506165392
 21
32.4897458597
 31
0.0
  0
LINE
  5
338
330
1F
100
AcDbEntity
  8
0
  6
CONTINUOUS
 62
     7
100
AcDbLine
 10
-30.506165392
 20
32.4897458597
 30
0.0
 11
-30.521865392
 21
32.2873958597
 31
0.0
  0
LINE
  5
339
330
1F
100
AcDbEntity
  8
0
  6
CONTINUOUS
 62
     7
100
AcDbLine
 10
-30.521865392
 20
32.2873958597
 30
0.0
 11
-30.510465392
 21
31.8307458597
 31
0.0
  0
LINE
  5
33A
330
1F
100
AcDbEntity
  8
0
  6
CONTINUOUS
 62
     7
100
AcDbLine
 10
-30.510465392
 20
31.8307458597
 30
0.0
 11
-30.455665392
 21
31.7206458597
 31
0.0
  0
LINE
  5
33B
330
1F
100
AcDbEntity
  8
0
  6
CONTINUOUS
 62
     7
100
AcDbLine
 10
-30.455665392
 20
31.7206458597
 30
0.0
 11
-30.310415392
 21
31.4395458597
 31
0.0
  0
LINE
  5
33C
330
1F
100
AcDbEntity
  8
0
  6
CONTINUOUS
 62
     7
100
AcDbLine
 10
-30.310415392
 20
31.4395458597
 30
0.0
 11
-30.061665392
 21
31.0141458597
 31
0.0
  0
LINE
  5
33D
330
1F
100
AcDbEntity
  8
0
  6
CONTINUOUS
 62
     7
100
AcDbLine
 10
-30.061665392
 20
31.0141458597
 30
0.0
 11
-29.696415392
 21
30.4711958597
 31
0.0
  0
LINE
  5
33E
330
1F
100
AcDbEntity
  8
0
  6
CONTINUOUS
 62
     7
100
AcDbLine
 10
-29.696415392
 20
30.4711958597
 30
0.0
 11
-29.465965392
 21
30.1639458597
 31
0.0
  0
LINE
  5
33F
330
1F
100
AcDbEntity
  8
0
  6
CONTINUOUS
 62
     7
100
AcDbLine
 10
-29.465965392
 20
30.1639458597
 30
0.0
 11
-29.201515392
 21
29.8373958597
 31
0.0
  0
LINE
  5
340
330
1F
100
AcDbEntity
  8
0
  6
CONTINUOUS
 62
     7
100
AcDbLine
 10
-29.201515392
 20
29.8373958597
 30
0.0
 11
-28.901415392
 21
29.4947958597
 31
0.0
  0
LINE
  5
341
330
1F
100
AcDbEntity
  8
0
  6
CONTINUOUS
 62
     7
100
AcDbLine
 10
-28.901415392
 20
29.4947958597
 30
0.0
 11
-28.564015392
 21
29.1395458597
 31
0.0
  0
LINE
  5
342
330
1F
100
AcDbEntity
  8
0
  6
CONTINUOUS
 62
     7
100
AcDbLine
 10
-28.564015392
 20
29.1395458597
 30
0.0
 11
-28.187715392
 21
28.7749458597
 31
0.0
  0
LINE
  5
343
330
1F
100
AcDbEntity
  8
0
  6
CONTINUOUS
 62
     7
100
AcDbLine
 10
-28.187715392
 20
28.7749458597
 30
0.0
 11
-27.770915392
 21
28.4043458597
 31
0.0
  0
LINE
  5
344
330
1F
100
AcDbEntity
  8
0
  6
CONTINUOUS
 62
     7
100
AcDbLine
 10
-27.770915392
 20
28.4043458597
 30
0.0
 11
-27.311865392
 21
28.0310958597
 31
0.0
  0
LINE
  5
345
330
1F
100
AcDbEntity
  8
0
  6
CONTINUOUS
 62
     7
100
AcDbLine
 10
-27.311865392
 20
28.0310958597
 30
0.0
 11
-26.809065392
 21
27.6585458597
 31
0.0
  0
LINE
  5
346
330
1F
100
AcDbEntity
  8
0
  6
CONTINUOUS
 62
     7
100
AcDbLine
 10
-26.809065392
 20
27.6585458597
 30
0.0
 11
-25.859915392
 21
26.9637458597
 31
0.0
  0
LINE
  5
347
330
1F
100
AcDbEntity
  8
0
  6
CONTINUOUS
 62
     7
100
AcDbLine
 10
-25.859915392
 20
26.9637458597
 30
0.0
 11
-25.464565392
 21
26.6494958597
 31
0.0
  0
LINE
  5
348
330
1F
100
AcDbEntity
  8
0
  6
CONTINUOUS
 62
     7
100
AcDbLine
 10
-25.464565392
 20
26.6494958597
 30
0.0
 11
-25.123715392
 21
26.3539958597
 31
0.0
  0
LINE
  5
349
330
1F
100
AcDbEntity
  8
0
  6
CONTINUOUS
 62
     7
100
AcDbLine
 10
-25.123715392
 20
26.3539958597
 30
0.0
 11
-24.838715392
 21
26.0748958597
 31
0.0
  0
LINE
  5
34A
330
1F
100
AcDbEntity
  8
0
  6
CONTINUOUS
 62
     7
100
AcDbLine
 10
-24.838715392
 20
26.0748958597
 30
0.0
 11
-24.610865392
 21
25.8097458597
 31
0.0
  0
LINE
  5
34B
330
1F
100
AcDbEntity
  8
0
  6
CONTINUOUS
 62
     7
100
AcDbLine
 10
-24.610865392
 20
25.8097458597
 30
0.0
 11
-24.441465392
 21
25.5560958597
 31
0.0
  0
LINE
  5
34C
330
1F
100
AcDbEntity
  8
0
  6
CONTINUOUS
 62
     7
100
AcDbLine
 10
-24.441465392
 20
25.5560958597
 30
0.0
 11
-24.331915392
 21
25.3114958597
 31
0.0
  0
LINE
  5
34D
330
1F
100
AcDbEntity
  8
0
  6
CONTINUOUS
 62
     7
100
AcDbLine
 10
-24.331915392
 20
25.3114958597
 30
0.0
 11
-24.283415392
 21
25.0734958597
 31
0.0
  0
LINE
  5
34E
330
1F
100
AcDbEntity
  8
0
  6
CONTINUOUS
 62
     7
100
AcDbLine
 10
-24.283415392
 20
25.0734958597
 30
0.0
 11
-24.282465392
 21
24.9562458597
 31
0.0
  0
LINE
  5
34F
330
1F
100
AcDbEntity
  8
0
  6
CONTINUOUS
 62
     7
100
AcDbLine
 10
-24.282465392
 20
24.9562458597
 30
0.0
 11
-24.297315392
 21
24.8396958597
 31
0.0
  0
LINE
  5
350
330
1F
100
AcDbEntity
  8
0
  6
CONTINUOUS
 62
     7
100
AcDbLine
 10
-24.297315392
 20
24.8396958597
 30
0.0
 11
-24.328065392
 21
24.7235958597
 31
0.0
  0
LINE
  5
351
330
1F
100
AcDbEntity
  8
0
  6
CONTINUOUS
 62
     7
100
AcDbLine
 10
-24.328065392
 20
24.7235958597
 30
0.0
 11
-24.374915392
 21
24.6076458597
 31
0.0
  0
LINE
  5
352
330
1F
100
AcDbEntity
  8
0
  6
CONTINUOUS
 62
     7
100
AcDbLine
 10
-24.374915392
 20
24.6076458597
 30
0.0
 11
-24.517565392
 21
24.3749458597
 31
0.0
  0
LINE
  5
353
330
1F
100
AcDbEntity
  8
0
  6
CONTINUOUS
 62
     7
100
AcDbLine
 10
-24.517565392
 20
24.3749458597
 30
0.0
 11
-24.726515392
 21
24.1390958597
 31
0.0
  0
LINE
  5
354
330
1F
100
AcDbEntity
  8
0
  6
CONTINUOUS
 62
     7
100
AcDbLine
 10
-24.726515392
 20
24.1390958597
 30
0.0
 11
-25.003165392
 21
23.8976458597
 31
0.0
  0
LINE
  5
355
330
1F
100
AcDbEntity
  8
0
  6
CONTINUOUS
 62
     7
100
AcDbLine
 10
-25.003165392
 20
23.8976458597
 30
0.0
 11
-25.348765392
 21
23.6482458597
 31
0.0
  0
LINE
  5
356
330
1F
100
AcDbEntity
  8
0
  6
CONTINUOUS
 62
     7
100
AcDbLine
 10
-25.348765392
 20
23.6482458597
 30
0.0
 11
-25.764615392
 21
23.3883958597
 31
0.0
  0
LINE
  5
357
330
1F
100
AcDbEntity
  8
0
  6
CONTINUOUS
 62
     7
100
AcDbLine
 10
-25.764615392
 20
23.3883958597
 30
0.0
 11
-28.582265392
 21
21.7002958597
 31
0.0
  0
LINE
  5
358
330
1F
100
AcDbEntity
  8
0
  6
CONTINUOUS
 62
     7
100
AcDbLine
 10
-28.582265392
 20
21.7002958597
 30
0.0
 11
-32.438315392
 21
19.3603958597
 31
0.0
  0
LINE
  5
359
330
1F
100
AcDbEntity
  8
0
  6
CONTINUOUS
 62
     7
100
AcDbLine
 10
-32.438315392
 20
19.3603958597
 30
0.0
 11
-37.390315392
 21
16.3404458597
 31
0.0
  0
LINE
  5
35A
330
1F
100
AcDbEntity
  8
0
  6
CONTINUOUS
 62
     7
100
AcDbLine
 10
-37.390315392
 20
16.3404458597
 30
0.0
 11
-37.932615392
 21
16.0049458597
 31
0.0
  0
LINE
  5
35B
330
1F
100
AcDbEntity
  8
0
  6
CONTINUOUS
 62
     7
100
AcDbLine
 10
-37.932615392
 20
16.0049458597
 30
0.0
 11
-38.292615392
 21
15.7630458597
 31
0.0
  0
LINE
  5
35C
330
1F
100
AcDbEntity
  8
0
  6
CONTINUOUS
 62
     7
100
AcDbLine
 10
-38.292615392
 20
15.7630458597
 30
0.0
 11
-38.710165392
 21
15.4538458597
 31
0.0
  0
LINE
  5
35D
330
1F
100
AcDbEntity
  8
0
  6
CONTINUOUS
 62
     7
100
AcDbLine
 10
-38.710165392
 20
15.4538458597
 30
0.0
 11
-39.166165392
 21
15.0758958597
 31
0.0
  0
LINE
  5
35E
330
1F
100
AcDbEntity
  8
0
  6
CONTINUOUS
 62
     7
100
AcDbLine
 10
-39.166165392
 20
15.0758958597
 30
0.0
 11
-39.641265392
 21
14.6277458597
 31
0.0
  0
LINE
  5
35F
330
1F
100
AcDbEntity
  8
0
  6
CONTINUOUS
 62
     7
100
AcDbLine
 10
-39.641265392
 20
14.6277458597
 30
0.0
 11
-40.116365392
 21
14.1081458597
 31
0.0
  0
LINE
  5
360
330
1F
100
AcDbEntity
  8
0
  6
CONTINUOUS
 62
     7
100
AcDbLine
 10
-40.116365392
 20
14.1081458597
 30
0.0
 11
-40.347915392
 21
13.8210458597
 31
0.0
  0
LINE
  5
361
330
1F
100
AcDbEntity
  8
0
  6
CONTINUOUS
 62
     7
100
AcDbLine
 10
-40.347915392
 20
13.8210458597
 30
0.0
 11
-40.572215392
 21
13.5155458597
 31
0.0
  0
LINE
  5
362
330
1F
100
AcDbEntity
  8
0
  6
CONTINUOUS
 62
     7
100
AcDbLine
 10
-40.572215392
 20
13.5155458597
 30
0.0
 11
-40.786915392
 21
13.1914958597
 31
0.0
  0
LINE
  5
363
330
1F
100
AcDbEntity
  8
0
  6
CONTINUOUS
 62
     7
100
AcDbLine
 10
-40.786915392
 20
13.1914958597
 30
0.0
 11
-40.989565392
 21
12.8486458597
 31
0.0
  0
LINE
  5
364
330
1F
100
AcDbEntity
  8
0
  6
CONTINUOUS
 62
     7
100
AcDbLine
 10
-40.989565392
 20
12.8486458597
 30
0.0
 11
-41.177815392
 21
12.4868958597
 31
0.0
  0
LINE
  5
365
330
1F
100
AcDbEntity
  8
0
  6
CONTINUOUS
 62
     7
100
AcDbLine
 10
-41.177815392
 20
12.4868958597
 30
0.0
 11
-41.349215392
 21
12.1059958597
 31
0.0
  0
LINE
  5
366
330
1F
100
AcDbEntity
  8
0
  6
CONTINUOUS
 62
     7
100
AcDbLine
 10
-41.349215392
 20
12.1059958597
 30
0.0
 11
-41.501415392
 21
11.7058458597
 31
0.0
  0
LINE
  5
367
330
1F
100
AcDbEntity
  8
0
  6
CONTINUOUS
 62
     7
100
AcDbLine
 10
-41.501415392
 20
11.7058458597
 30
0.0
 11
-41.631965392
 21
11.2861958597
 31
0.0
  0
LINE
  5
368
330
1F
100
AcDbEntity
  8
0
  6
CONTINUOUS
 62
     7
100
AcDbLine
 10
-41.631965392
 20
11.2861958597
 30
0.0
 11
-41.738515392
 21
10.8469458597
 31
0.0
  0
LINE
  5
369
330
1F
100
AcDbEntity
  8
0
  6
CONTINUOUS
 62
     7
100
AcDbLine
 10
-41.738515392
 20
10.8469458597
 30
0.0
 11
-41.818615392
 21
10.3878958597
 31
0.0
  0
LINE
  5
36A
330
1F
100
AcDbEntity
  8
0
  6
CONTINUOUS
 62
     7
100
AcDbLine
 10
-41.818615392
 20
10.3878958597
 30
0.0
 11
-41.869915392
 21
9.9088958597
 31
0.0
  0
LINE
  5
36B
330
1F
100
AcDbEntity
  8
0
  6
CONTINUOUS
 62
     7
100
AcDbLine
 10
-41.869915392
 20
9.9088958597
 30
0.0
 11
-41.889965392
 21
9.4096958597
 31
0.0
  0
LINE
  5
36C
330
1F
100
AcDbEntity
  8
0
  6
CONTINUOUS
 62
     7
100
AcDbLine
 10
-41.889965392
 20
9.4096958597
 30
0.0
 11
-41.876365392
 21
8.8901458597
 31
0.0
  0
LINE
  5
36D
330
1F
100
AcDbEntity
  8
0
  6
CONTINUOUS
 62
     7
100
AcDbLine
 10
-41.876365392
 20
8.8901458597
 30
0.0
 11
-41.826715392
 21
8.3500958597
 31
0.0
  0
LINE
  5
36E
330
1F
100
AcDbEntity
  8
0
  6
CONTINUOUS
 62
     7
100
AcDbLine
 10
-41.826715392
 20
8.3500958597
 30
0.0
 11
-41.738665392
 21
7.7893958597
 31
0.0
  0
LINE
  5
36F
330
1F
100
AcDbEntity
  8
0
  6
CONTINUOUS
 62
     7
100
AcDbLine
 10
-41.738665392
 20
7.7893958597
 30
0.0
 11
-41.609765392
 21
7.2078458597
 31
0.0
  0
LINE
  5
370
330
1F
100
AcDbEntity
  8
0
  6
CONTINUOUS
 62
     7
100
AcDbLine
 10
-41.609765392
 20
7.2078458597
 30
0.0
 11
-41.603465392
 21
7.1504958597
 31
0.0
  0
LINE
  5
371
330
1F
100
AcDbEntity
  8
0
  6
CONTINUOUS
 62
     7
100
AcDbLine
 10
-41.603465392
 20
7.1504958597
 30
0.0
 11
-41.600765392
 21
7.0131458597
 31
0.0
  0
LINE
  5
372
330
1F
100
AcDbEntity
  8
0
  6
CONTINUOUS
 62
     7
100
AcDbLine
 10
-41.600765392
 20
7.0131458597
 30
0.0
 11
-41.621665392
 21
6.9326958597
 31
0.0
  0
LINE
  5
373
330
1F
100
AcDbEntity
  8
0
  6
CONTINUOUS
 62
     7
100
AcDbLine
 10
-41.621665392
 20
6.9326958597
 30
0.0
 11
-41.668565392
 21
6.8541458597
 31
0.0
  0
LINE
  5
374
330
1F
100
AcDbEntity
  8
0
  6
CONTINUOUS
 62
     7
100
AcDbLine
 10
-41.668565392
 20
6.8541458597
 30
0.0
 11
-41.749815392
 21
6.7847458597
 31
0.0
  0
LINE
  5
375
330
1F
100
AcDbEntity
  8
0
  6
CONTINUOUS
 62
     7
100
AcDbLine
 10
-41.749815392
 20
6.7847458597
 30
0.0
 11
-41.873815392
 21
6.7318458597
 31
0.0
  0
LINE
  5
376
330
1F
100
AcDbEntity
  8
0
  6
CONTINUOUS
 62
     7
100
AcDbLine
 10
-41.873815392
 20
6.7318458597
 30
0.0
 11
-42.048915392
 21
6.7026958597
 31
0.0
  0
LINE
  5
377
330
1F
100
AcDbEntity
  8
0
  6
CONTINUOUS
 62
     7
100
AcDbLine
 10
-42.048915392
 20
6.7026958597
 30
0.0
 11
-42.283515392
 21
6.7045458597
 31
0.0
  0
LINE
  5
378
330
1F
100
AcDbEntity
  8
0
  6
CONTINUOUS
 62
     7
100
AcDbLine
 10
-42.283515392
 20
6.7045458597
 30
0.0
 11
-42.585915392
 21
6.7447958597
 31
0.0
  0
LINE
  5
379
330
1F
100
AcDbEntity
  8
0
  6
CONTINUOUS
 62
     7
100
AcDbLine
 10
-42.585915392
 20
6.7447958597
 30
0.0
 11
-42.964515392
 21
6.8306958597
 31
0.0
  0
LINE
  5
37A
330
1F
100
AcDbEntity
  8
0
  6
CONTINUOUS
 62
     7
100
AcDbLine
 10
-42.964515392
 20
6.8306958597
 30
0.0
 11
-43.427715392
 21
6.9695458597
 31
0.0
  0
LINE
  5
37B
330
1F
100
AcDbEntity
  8
0
  6
CONTINUOUS
 62
     7
100
AcDbLine
 10
-43.427715392
 20
6.9695458597
 30
0.0
 11
-43.983815392
 21
7.1685958597
 31
0.0
  0
LINE
  5
37C
330
1F
100
AcDbEntity
  8
0
  6
CONTINUOUS
 62
     7
100
AcDbLine
 10
-43.983815392
 20
7.1685958597
 30
0.0
 11
-44.641265392
 21
7.4351958597
 31
0.0
  0
LINE
  5
37D
330
1F
100
AcDbEntity
  8
0
  6
CONTINUOUS
 62
     7
100
AcDbLine
 10
-44.641265392
 20
7.4351958597
 30
0.0
 11
-45.408365392
 21
7.7765958597
 31
0.0
  0
LINE
  5
37E
330
1F
100
AcDbEntity
  8
0
  6
CONTINUOUS
 62
     7
100
AcDbLine
 10
-45.408365392
 20
7.7765958597
 30
0.0
 11
-52.448665392
 21
10.7258958597
 31
0.0
  0
LINE
  5
37F
330
1F
100
AcDbEntity
  8
0
  6
CONTINUOUS
 62
     7
100
AcDbLine
 10
-52.448665392
 20
10.7258958597
 30
0.0
 11
-52.572715392
 21
10.7929458597
 31
0.0
  0
LINE
  5
380
330
1F
100
AcDbEntity
  8
0
  6
CONTINUOUS
 62
     7
100
AcDbLine
 10
-52.572715392
 20
10.7929458597
 30
0.0
 11
-52.887815392
 21
10.9548958597
 31
0.0
  0
LINE
  5
381
330
1F
100
AcDbEntity
  8
0
  6
CONTINUOUS
 62
     7
100
AcDbLine
 10
-52.887815392
 20
10.9548958597
 30
0.0
 11
-53.354815392
 21
11.1497458597
 31
0.0
  0
LINE
  5
382
330
1F
100
AcDbEntity
  8
0
  6
CONTINUOUS
 62
     7
100
AcDbLine
 10
-53.354815392
 20
11.1497458597
 30
0.0
 11
-53.633065392
 21
11.2401458597
 31
0.0
  0
LINE
  5
383
330
1F
100
AcDbEntity
  8
0
  6
CONTINUOUS
 62
     7
100
AcDbLine
 10
-53.633065392
 20
11.2401458597
 30
0.0
 11
-53.934715392
 21
11.3155458597
 31
0.0
  0
LINE
  5
384
330
1F
100
AcDbEntity
  8
0
  6
CONTINUOUS
 62
     7
100
AcDbLine
 10
-53.934715392
 20
11.3155458597
 30
0.0
 11
-54.254765392
 21
11.3682458597
 31
0.0
  0
LINE
  5
385
330
1F
100
AcDbEntity
  8
0
  6
CONTINUOUS
 62
     7
100
AcDbLine
 10
-54.254765392
 20
11.3682458597
 30
0.0
 11
-54.588415392
 21
11.3903958597
 31
0.0
  0
LINE
  5
386
330
1F
100
AcDbEntity
  8
0
  6
CONTINUOUS
 62
     7
100
AcDbLine
 10
-54.588415392
 20
11.3903958597
 30
0.0
 11
-54.930765392
 21
11.3743458597
 31
0.0
  0
LINE
  5
387
330
1F
100
AcDbEntity
  8
0
  6
CONTINUOUS
 62
     7
100
AcDbLine
 10
-54.930765392
 20
11.3743458597
 30
0.0
 11
-55.276965392
 21
11.3122958597
 31
0.0
  0
LINE
  5
388
330
1F
100
AcDbEntity
  8
0
  6
CONTINUOUS
 62
     7
100
AcDbLine
 10
-55.276965392
 20
11.3122958597
 30
0.0
 11
-55.622065392
 21
11.1965458597
 31
0.0
  0
LINE
  5
389
330
1F
100
AcDbEntity
  8
0
  6
CONTINUOUS
 62
     7
100
AcDbLine
 10
-55.622065392
 20
11.1965458597
 30
0.0
 11
-55.792665392
 21
11.1160958597
 31
0.0
  0
LINE
  5
38A
330
1F
100
AcDbEntity
  8
0
  6
CONTINUOUS
 62
     7
100
AcDbLine
 10
-55.792665392
 20
11.1160958597
 30
0.0
 11
-55.961165392
 21
11.0193458597
 31
0.0
  0
LINE
  5
38B
330
1F
100
AcDbEntity
  8
0
  6
CONTINUOUS
 62
     7
100
AcDbLine
 10
-55.961165392
 20
11.0193458597
 30
0.0
 11
-56.127015392
 21
10.9052458597
 31
0.0
  0
LINE
  5
38C
330
1F
100
AcDbEntity
  8
0
  6
CONTINUOUS
 62
     7
100
AcDbLine
 10
-56.127015392
 20
10.9052458597
 30
0.0
 11
-56.289515392
 21
10.7728958597
 31
0.0
  0
LINE
  5
38D
330
1F
100
AcDbEntity
  8
0
  6
CONTINUOUS
 62
     7
100
AcDbLine
 10
-56.289515392
 20
10.7728958597
 30
0.0
 11
-56.448065392
 21
10.6212958597
 31
0.0
  0
LINE
  5
38E
330
1F
100
AcDbEntity
  8
0
  6
CONTINUOUS
 62
     7
100
AcDbLine
 10
-56.448065392
 20
10.6212958597
 30
0.0
 11
-57.201765392
 21
9.7736458597
 31
0.0
  0
LINE
  5
38F
330
1F
100
AcDbEntity
  8
0
  6
CONTINUOUS
 62
     7
100
AcDbLine
 10
-57.201765392
 20
9.7736458597
 30
0.0
 11
-57.774515392
 21
9.2060458597
 31
0.0
  0
LINE
  5
390
330
1F
100
AcDbEntity
  8
0
  6
CONTINUOUS
 62
     7
100
AcDbLine
 10
-57.774515392
 20
9.2060458597
 30
0.0
 11
-58.304515392
 21
8.7407458597
 31
0.0
  0
LINE
  5
391
330
1F
100
AcDbEntity
  8
0
  6
CONTINUOUS
 62
     7
100
AcDbLine
 10
-58.304515392
 20
8.7407458597
 30
0.0
 11
-58.775865392
 21
8.3717458597
 31
0.0
  0
LINE
  5
392
330
1F
100
AcDbEntity
  8
0
  6
CONTINUOUS
 62
     7
100
AcDbLine
 10
-58.775865392
 20
8.3717458597
 30
0.0
 11
-59.479215392
 21
7.8983458597
 31
0.0
  0
LINE
  5
393
330
1F
100
AcDbEntity
  8
0
  6
CONTINUOUS
 62
     7
100
AcDbLine
 10
-59.479215392
 20
7.8983458597
 30
0.0
 11
-59.757665392
 21
7.7376958597
 31
0.0
  0
LINE
  5
394
330
1F
100
AcDbEntity
  8
0
  6
CONTINUOUS
 62
     7
100
AcDbLine
 10
-59.757665392
 20
7.7376958597
 30
0.0
 11
-59.836965392
 21
7.6569458597
 31
0.0
  0
LINE
  5
395
330
1F
100
AcDbEntity
  8
0
  6
CONTINUOUS
 62
     7
100
AcDbLine
 10
-59.836965392
 20
7.6569458597
 30
0.0
 11
-60.032715392
 21
7.4468958597
 31
0.0
  0
LINE
  5
396
330
1F
100
AcDbEntity
  8
0
  6
CONTINUOUS
 62
     7
100
AcDbLine
 10
-60.032715392
 20
7.4468958597
 30
0.0
 11
-60.292615392
 21
7.1078458597
 31
0.0
  0
LINE
  5
397
330
1F
100
AcDbEntity
  8
0
  6
CONTINUOUS
 62
     7
100
AcDbLine
 10
-60.292615392
 20
7.1078458597
 30
0.0
 11
-60.430315392
 21
6.8900458597
 31
0.0
  0
LINE
  5
398
330
1F
100
AcDbEntity
  8
0
  6
CONTINUOUS
 62
     7
100
AcDbLine
 10
-60.430315392
 20
6.8900458597
 30
0.0
 11
-60.564415392
 21
6.6401458597
 31
0.0
  0
LINE
  5
399
330
1F
100
AcDbEntity
  8
0
  6
CONTINUOUS
 62
     7
100
AcDbLine
 10
-60.564415392
 20
6.6401458597
 30
0.0
 11
-60.688415392
 21
6.3582458597
 31
0.0
  0
LINE
  5
39A
330
1F
100
AcDbEntity
  8
0
  6
CONTINUOUS
 62
     7
100
AcDbLine
 10
-60.688415392
 20
6.3582458597
 30
0.0
 11
-60.795765392
 21
6.0442958597
 31
0.0
  0
LINE
  5
39B
330
1F
100
AcDbEntity
  8
0
  6
CONTINUOUS
 62
     7
100
AcDbLine
 10
-60.795765392
 20
6.0442958597
 30
0.0
 11
-60.879965392
 21
5.6983958597
 31
0.0
  0
LINE
  5
39C
330
1F
100
AcDbEntity
  8
0
  6
CONTINUOUS
 62
     7
100
AcDbLine
 10
-60.879965392
 20
5.6983958597
 30
0.0
 11
-60.934415392
 21
5.3205958597
 31
0.0
  0
LINE
  5
39D
330
1F
100
AcDbEntity
  8
0
  6
CONTINUOUS
 62
     7
100
AcDbLine
 10
-60.934415392
 20
5.3205958597
 30
0.0
 11
-60.952615392
 21
4.9108958597
 31
0.0
  0
LINE
  5
39E
330
1F
100
AcDbEntity
  8
0
  6
CONTINUOUS
 62
     7
100
AcDbLine
 10
-60.952615392
 20
4.9108958597
 30
0.0
 11
-60.928015392
 21
4.4693958597
 31
0.0
  0
LINE
  5
39F
330
1F
100
AcDbEntity
  8
0
  6
CONTINUOUS
 62
     7
100
AcDbLine
 10
-60.928015392
 20
4.4693958597
 30
0.0
 11
-60.854115392
 21
3.9961458597
 31
0.0
  0
LINE
  5
3A0
330
1F
100
AcDbEntity
  8
0
  6
CONTINUOUS
 62
     7
100
AcDbLine
 10
-60.854115392
 20
3.9961458597
 30
0.0
 11
-60.724315392
 21
3.4911458597
 31
0.0
  0
LINE
  5
3A1
330
1F
100
AcDbEntity
  8
0
  6
CONTINUOUS
 62
     7
100
AcDbLine
 10
-60.724315392
 20
3.4911458597
 30
0.0
 11
-60.346015392
 21
2.1513958597
 31
0.0
  0
LINE
  5
3A2
330
1F
100
AcDbEntity
  8
0
  6
CONTINUOUS
 62
     7
100
AcDbLine
 10
-60.346015392
 20
2.1513958597
 30
0.0
 11
-59.821615392
 21
0.2851458597
 31
0.0
  0
LINE
  5
3A3
330
1F
100
AcDbEntity
  8
0
  6
CONTINUOUS
 62
     7
100
AcDbLine
 10
-59.821615392
 20
0.2851458597
 30
0.0
 11
-59.489315392
 21
-0.8142041403
 31
0.0
  0
LINE
  5
3A4
330
1F
100
AcDbEntity
  8
0
  6
CONTINUOUS
 62
     7
100
AcDbLine
 10
-59.489315392
 20
-0.8142041403
 30
0.0
 11
-59.102165392
 21
-2.0077041403
 31
0.0
  0
LINE
  5
3A5
330
1F
100
AcDbEntity
  8
0
  6
CONTINUOUS
 62
     7
100
AcDbLine
 10
-59.102165392
 20
-2.0077041403
 30
0.0
 11
-58.653915392
 21
-3.2828541403
 31
0.0
  0
LINE
  5
3A6
330
1F
100
AcDbEntity
  8
0
  6
CONTINUOUS
 62
     7
100
AcDbLine
 10
-58.653915392
 20
-3.2828541403
 30
0.0
 11
-58.138565392
 21
-4.6272541403
 31
0.0
  0
LINE
  5
3A7
330
1F
100
AcDbEntity
  8
0
  6
CONTINUOUS
 62
     7
100
AcDbLine
 10
-58.138565392
 20
-4.6272541403
 30
0.0
 11
-57.549915392
 21
-6.0283041403
 31
0.0
  0
LINE
  5
3A8
330
1F
100
AcDbEntity
  8
0
  6
CONTINUOUS
 62
     7
100
AcDbLine
 10
-57.549915392
 20
-6.0283041403
 30
0.0
 11
-57.226215392
 21
-6.7462041403
 31
0.0
  0
LINE
  5
3A9
330
1F
100
AcDbEntity
  8
0
  6
CONTINUOUS
 62
     7
100
AcDbLine
 10
-57.226215392
 20
-6.7462041403
 30
0.0
 11
-56.881915392
 21
-7.4736041403
 31
0.0
  0
LINE
  5
3AA
330
1F
100
AcDbEntity
  8
0
  6
CONTINUOUS
 62
     7
100
AcDbLine
 10
-56.881915392
 20
-7.4736041403
 30
0.0
 11
-56.516215392
 21
-8.2089541403
 31
0.0
  0
LINE
  5
3AB
330
1F
100
AcDbEntity
  8
0
  6
CONTINUOUS
 62
     7
100
AcDbLine
 10
-56.516215392
 20
-8.2089541403
 30
0.0
 11
-56.128365392
 21
-8.9506541403
 31
0.0
  0
LINE
  5
3AC
330
1F
100
AcDbEntity
  8
0
  6
CONTINUOUS
 62
     7
100
AcDbLine
 10
-56.128365392
 20
-8.9506541403
 30
0.0
 11
-55.717565392
 21
-9.6971541403
 31
0.0
  0
LINE
  5
3AD
330
1F
100
AcDbEntity
  8
0
  6
CONTINUOUS
 62
     7
100
AcDbLine
 10
-55.717565392
 20
-9.6971541403
 30
0.0
 11
-55.283115392
 21
-10.4469041403
 31
0.0
  0
LINE
  5
3AE
330
1F
100
AcDbEntity
  8
0
  6
CONTINUOUS
 62
     7
100
AcDbLine
 10
-55.283115392
 20
-10.4469041403
 30
0.0
 11
-54.824215392
 21
-11.1984041403
 31
0.0
  0
LINE
  5
3AF
330
1F
100
AcDbEntity
  8
0
  6
CONTINUOUS
 62
     7
100
AcDbLine
 10
-54.824215392
 20
-11.1984041403
 30
0.0
 11
-54.340115392
 21
-11.9499541403
 31
0.0
  0
LINE
  5
3B0
330
1F
100
AcDbEntity
  8
0
  6
CONTINUOUS
 62
     7
100
AcDbLine
 10
-54.340115392
 20
-11.9499541403
 30
0.0
 11
-53.830065392
 21
-12.7001041403
 31
0.0
  0
LINE
  5
3B1
330
1F
100
AcDbEntity
  8
0
  6
CONTINUOUS
 62
     7
100
AcDbLine
 10
-53.830065392
 20
-12.7001041403
 30
0.0
 11
-53.293215392
 21
-13.4473041403
 31
0.0
  0
LINE
  5
3B2
330
1F
100
AcDbEntity
  8
0
  6
CONTINUOUS
 62
     7
100
AcDbLine
 10
-53.293215392
 20
-13.4473041403
 30
0.0
 11
-52.728915392
 21
-14.1899041403
 31
0.0
  0
LINE
  5
3B3
330
1F
100
AcDbEntity
  8
0
  6
CONTINUOUS
 62
     7
100
AcDbLine
 10
-52.728915392
 20
-14.1899041403
 30
0.0
 11
-52.136315392
 21
-14.9264041403
 31
0.0
  0
LINE
  5
3B4
330
1F
100
AcDbEntity
  8
0
  6
CONTINUOUS
 62
     7
100
AcDbLine
 10
-52.136315392
 20
-14.9264041403
 30
0.0
 11
-51.514665392
 21
-15.6552041403
 31
0.0
  0
LINE
  5
3B5
330
1F
100
AcDbEntity
  8
0
  6
CONTINUOUS
 62
     7
100
AcDbLine
 10
-51.514665392
 20
-15.6552041403
 30
0.0
 11
-50.863215392
 21
-16.3748041403
 31
0.0
  0
LINE
  5
3B6
330
1F
100
AcDbEntity
  8
0
  6
CONTINUOUS
 62
     7
100
AcDbLine
 10
-50.863215392
 20
-16.3748041403
 30
0.0
 11
-50.785565392
 21
-16.5405041403
 31
0.0
  0
LINE
  5
3B7
330
1F
100
AcDbEntity
  8
0
  6
CONTINUOUS
 62
     7
100
AcDbLine
 10
-50.785565392
 20
-16.5405041403
 30
0.0
 11
-50.583115392
 21
-16.9606541403
 31
0.0
  0
LINE
  5
3B8
330
1F
100
AcDbEntity
  8
0
  6
CONTINUOUS
 62
     7
100
AcDbLine
 10
-50.583115392
 20
-16.9606541403
 30
0.0
 11
-50.254265392
 21
-17.5806041403
 31
0.0
  0
LINE
  5
3B9
330
1F
100
AcDbEntity
  8
0
  6
CONTINUOUS
 62
     7
100
AcDbLine
 10
-50.254265392
 20
-17.5806041403
 30
0.0
 11
-49.797465392
 21
-18.3456041403
 31
0.0
  0
LINE
  5
3BA
330
1F
100
AcDbEntity
  8
0
  6
CONTINUOUS
 62
     7
100
AcDbLine
 10
-49.797465392
 20
-18.3456041403
 30
0.0
 11
-49.520565392
 21
-18.7654541403
 31
0.0
  0
LINE
  5
3BB
330
1F
100
AcDbEntity
  8
0
  6
CONTINUOUS
 62
     7
100
AcDbLine
 10
-49.520565392
 20
-18.7654541403
 30
0.0
 11
-49.211115392
 21
-19.2010541403
 31
0.0
  0
LINE
  5
3BC
330
1F
100
AcDbEntity
  8
0
  6
CONTINUOUS
 62
     7
100
AcDbLine
 10
-49.211115392
 20
-19.2010541403
 30
0.0
 11
-48.868865392
 21
-19.6456041403
 31
0.0
  0
LINE
  5
3BD
330
1F
100
AcDbEntity
  8
0
  6
CONTINUOUS
 62
     7
100
AcDbLine
 10
-48.868865392
 20
-19.6456041403
 30
0.0
 11
-48.493665392
 21
-20.0922541403
 31
0.0
  0
LINE
  5
3BE
330
1F
100
AcDbEntity
  8
0
  6
CONTINUOUS
 62
     7
100
AcDbLine
 10
-48.493665392
 20
-20.0922541403
 30
0.0
 11
-48.085265392
 21
-20.5341541403
 31
0.0
  0
LINE
  5
3BF
330
1F
100
AcDbEntity
  8
0
  6
CONTINUOUS
 62
     7
100
AcDbLine
 10
-48.085265392
 20
-20.5341541403
 30
0.0
 11
-47.643465392
 21
-20.9644541403
 31
0.0
  0
LINE
  5
3C0
330
1F
100
AcDbEntity
  8
0
  6
CONTINUOUS
 62
     7
100
AcDbLine
 10
-47.643465392
 20
-20.9644541403
 30
0.0
 11
-47.168165392
 21
-21.3763541403
 31
0.0
  0
LINE
  5
3C1
330
1F
100
AcDbEntity
  8
0
  6
CONTINUOUS
 62
     7
100
AcDbLine
 10
-47.168165392
 20
-21.3763541403
 30
0.0
 11
-46.659065392
 21
-21.7630041403
 31
0.0
  0
LINE
  5
3C2
330
1F
100
AcDbEntity
  8
0
  6
CONTINUOUS
 62
     7
100
AcDbLine
 10
-46.659065392
 20
-21.7630041403
 30
0.0
 11
-46.403265392
 21
-21.2389541403
 31
0.0
  0
LINE
  5
3C3
330
1F
100
AcDbEntity
  8
0
  6
CONTINUOUS
 62
     7
100
AcDbLine
 10
-46.403265392
 20
-21.2389541403
 30
0.0
 11
-46.153565392
 21
-20.6706541403
 31
0.0
  0
LINE
  5
3C4
330
1F
100
AcDbEntity
  8
0
  6
CONTINUOUS
 62
     7
100
AcDbLine
 10
-46.153565392
 20
-20.6706541403
 30
0.0
 11
-45.878515392
 21
-19.9477041403
 31
0.0
  0
LINE
  5
3C5
330
1F
100
AcDbEntity
  8
0
  6
CONTINUOUS
 62
     7
100
AcDbLine
 10
-45.878515392
 20
-19.9477041403
 30
0.0
 11
-45.744565392
 21
-19.5399041403
 31
0.0
  0
LINE
  5
3C6
330
1F
100
AcDbEntity
  8
0
  6
CONTINUOUS
 62
     7
100
AcDbLine
 10
-45.744565392
 20
-19.5399041403
 30
0.0
 11
-45.619965392
 21
-19.1074041403
 31
0.0
  0
LINE
  5
3C7
330
1F
100
AcDbEntity
  8
0
  6
CONTINUOUS
 62
     7
100
AcDbLine
 10
-45.619965392
 20
-19.1074041403
 30
0.0
 11
-45.509915392
 21
-18.6548541403
 31
0.0
  0
LINE
  5
3C8
330
1F
100
AcDbEntity
  8
0
  6
CONTINUOUS
 62
     7
100
AcDbLine
 10
-45.509915392
 20
-18.6548541403
 30
0.0
 11
-45.419715392
 21
-18.1869041403
 31
0.0
  0
LINE
  5
3C9
330
1F
100
AcDbEntity
  8
0
  6
CONTINUOUS
 62
     7
100
AcDbLine
 10
-45.419715392
 20
-18.1869041403
 30
0.0
 11
-45.354615392
 21
-17.7081541403
 31
0.0
  0
LINE
  5
3CA
330
1F
100
AcDbEntity
  8
0
  6
CONTINUOUS
 62
     7
100
AcDbLine
 10
-45.354615392
 20
-17.7081541403
 30
0.0
 11
-45.319765392
 21
-17.2233541403
 31
0.0
  0
LINE
  5
3CB
330
1F
100
AcDbEntity
  8
0
  6
CONTINUOUS
 62
     7
100
AcDbLine
 10
-45.319765392
 20
-17.2233541403
 30
0.0
 11
-45.320415392
 21
-16.7370541403
 31
0.0
  0
LINE
  5
3CC
330
1F
100
AcDbEntity
  8
0
  6
CONTINUOUS
 62
     7
100
AcDbLine
 10
-45.320415392
 20
-16.7370541403
 30
0.0
 11
-45.361815392
 21
-16.2539541403
 31
0.0
  0
LINE
  5
3CD
330
1F
100
AcDbEntity
  8
0
  6
CONTINUOUS
 62
     7
100
AcDbLine
 10
-45.361815392
 20
-16.2539541403
 30
0.0
 11
-45.287415392
 21
-16.2031541403
 31
0.0
  0
LINE
  5
3CE
330
1F
100
AcDbEntity
  8
0
  6
CONTINUOUS
 62
     7
100
AcDbLine
 10
-45.287415392
 20
-16.2031541403
 30
0.0
 11
-45.105665392
 21
-16.0693541403
 31
0.0
  0
LINE
  5
3CF
330
1F
100
AcDbEntity
  8
0
  6
CONTINUOUS
 62
     7
100
AcDbLine
 10
-45.105665392
 20
-16.0693541403
 30
0.0
 11
-44.992965392
 21
-15.9692541403
 31
0.0
  0
LINE
  5
3D0
330
1F
100
AcDbEntity
  8
0
  6
CONTINUOUS
 62
     7
100
AcDbLine
 10
-44.992965392
 20
-15.9692541403
 30
0.0
 11
-44.875665392
 21
-15.8457541403
 31
0.0
  0
LINE
  5
3D1
330
1F
100
AcDbEntity
  8
0
  6
CONTINUOUS
 62
     7
100
AcDbLine
 10
-44.875665392
 20
-15.8457541403
 30
0.0
 11
-44.761015392
 21
-15.6981041403
 31
0.0
  0
LINE
  5
3D2
330
1F
100
AcDbEntity
  8
0
  6
CONTINUOUS
 62
     7
100
AcDbLine
 10
-44.761015392
 20
-15.6981041403
 30
0.0
 11
-44.656465392
 21
-15.5253541403
 31
0.0
  0
LINE
  5
3D3
330
1F
100
AcDbEntity
  8
0
  6
CONTINUOUS
 62
     7
100
AcDbLine
 10
-44.656465392
 20
-15.5253541403
 30
0.0
 11
-44.569415392
 21
-15.3267041403
 31
0.0
  0
LINE
  5
3D4
330
1F
100
AcDbEntity
  8
0
  6
CONTINUOUS
 62
     7
100
AcDbLine
 10
-44.569415392
 20
-15.3267041403
 30
0.0
 11
-44.507215392
 21
-15.1012541403
 31
0.0
  0
LINE
  5
3D5
330
1F
100
AcDbEntity
  8
0
  6
CONTINUOUS
 62
     7
100
AcDbLine
 10
-44.507215392
 20
-15.1012541403
 30
0.0
 11
-44.477265392
 21
-14.8481541403
 31
0.0
  0
LINE
  5
3D6
330
1F
100
AcDbEntity
  8
0
  6
CONTINUOUS
 62
     7
100
AcDbLine
 10
-44.477265392
 20
-14.8481541403
 30
0.0
 11
-44.486915392
 21
-14.5665041403
 31
0.0
  0
LINE
  5
3D7
330
1F
100
AcDbEntity
  8
0
  6
CONTINUOUS
 62
     7
100
AcDbLine
 10
-44.486915392
 20
-14.5665041403
 30
0.0
 11
-44.543565392
 21
-14.2554541403
 31
0.0
  0
LINE
  5
3D8
330
1F
100
AcDbEntity
  8
0
  6
CONTINUOUS
 62
     7
100
AcDbLine
 10
-44.543565392
 20
-14.2554541403
 30
0.0
 11
-44.654665392
 21
-13.9141541403
 31
0.0
  0
LINE
  5
3D9
330
1F
100
AcDbEntity
  8
0
  6
CONTINUOUS
 62
     7
100
AcDbLine
 10
-44.654665392
 20
-13.9141541403
 30
0.0
 11
-44.827465392
 21
-13.5417041403
 31
0.0
  0
LINE
  5
3DA
330
1F
100
AcDbEntity
  8
0
  6
CONTINUOUS
 62
     7
100
AcDbLine
 10
-44.827465392
 20
-13.5417041403
 30
0.0
 11
-45.069465392
 21
-13.1373041403
 31
0.0
  0
LINE
  5
3DB
330
1F
100
AcDbEntity
  8
0
  6
CONTINUOUS
 62
     7
100
AcDbLine
 10
-45.069465392
 20
-13.1373041403
 30
0.0
 11
-47.563215392
 21
-10.8894041403
 31
0.0
  0
LINE
  5
3DC
330
1F
100
AcDbEntity
  8
0
  6
CONTINUOUS
 62
     7
100
AcDbLine
 10
-47.563215392
 20
-10.8894041403
 30
0.0
 11
-47.868065392
 21
-10.5203541403
 31
0.0
  0
LINE
  5
3DD
330
1F
100
AcDbEntity
  8
0
  6
CONTINUOUS
 62
     7
100
AcDbLine
 10
-47.868065392
 20
-10.5203541403
 30
0.0
 11
-48.629215392
 21
-9.5861541403
 31
0.0
  0
LINE
  5
3DE
330
1F
100
AcDbEntity
  8
0
  6
CONTINUOUS
 62
     7
100
AcDbLine
 10
-48.629215392
 20
-9.5861541403
 30
0.0
 11
-49.131065392
 21
-8.9477041403
 31
0.0
  0
LINE
  5
3DF
330
1F
100
AcDbEntity
  8
0
  6
CONTINUOUS
 62
     7
100
AcDbLine
 10
-49.131065392
 20
-8.9477041403
 30
0.0
 11
-49.687215392
 21
-8.2167041403
 31
0.0
  0
LINE
  5
3E0
330
1F
100
AcDbEntity
  8
0
  6
CONTINUOUS
 62
     7
100
AcDbLine
 10
-49.687215392
 20
-8.2167041403
 30
0.0
 11
-50.277765392
 21
-7.4093541403
 31
0.0
  0
LINE
  5
3E1
330
1F
100
AcDbEntity
  8
0
  6
CONTINUOUS
 62
     7
100
AcDbLine
 10
-50.277765392
 20
-7.4093541403
 30
0.0
 11
-50.882715392
 21
-6.5419041403
 31
0.0
  0
LINE
  5
3E2
330
1F
100
AcDbEntity
  8
0
  6
CONTINUOUS
 62
     7
100
AcDbLine
 10
-50.882715392
 20
-6.5419041403
 30
0.0
 11
-51.482215392
 21
-5.6306541403
 31
0.0
  0
LINE
  5
3E3
330
1F
100
AcDbEntity
  8
0
  6
CONTINUOUS
 62
     7
100
AcDbLine
 10
-51.482215392
 20
-5.6306541403
 30
0.0
 11
-52.056315392
 21
-4.6917541403
 31
0.0
  0
LINE
  5
3E4
330
1F
100
AcDbEntity
  8
0
  6
CONTINUOUS
 62
     7
100
AcDbLine
 10
-52.056315392
 20
-4.6917541403
 30
0.0
 11
-52.585065392
 21
-3.7414541403
 31
0.0
  0
LINE
  5
3E5
330
1F
100
AcDbEntity
  8
0
  6
CONTINUOUS
 62
     7
100
AcDbLine
 10
-52.585065392
 20
-3.7414541403
 30
0.0
 11
-52.826215392
 21
-3.2671541403
 31
0.0
  0
LINE
  5
3E6
330
1F
100
AcDbEntity
  8
0
  6
CONTINUOUS
 62
     7
100
AcDbLine
 10
-52.826215392
 20
-3.2671541403
 30
0.0
 11
-53.048515392
 21
-2.7960541403
 31
0.0
  0
LINE
  5
3E7
330
1F
100
AcDbEntity
  8
0
  6
CONTINUOUS
 62
     7
100
AcDbLine
 10
-53.048515392
 20
-2.7960541403
 30
0.0
 11
-53.249565392
 21
-2.3302541403
 31
0.0
  0
LINE
  5
3E8
330
1F
100
AcDbEntity
  8
0
  6
CONTINUOUS
 62
     7
100
AcDbLine
 10
-53.249565392
 20
-2.3302541403
 30
0.0
 11
-53.426865392
 21
-1.8718041403
 31
0.0
  0
LINE
  5
3E9
330
1F
100
AcDbEntity
  8
0
  6
CONTINUOUS
 62
     7
100
AcDbLine
 10
-53.426865392
 20
-1.8718041403
 30
0.0
 11
-53.577815392
 21
-1.4226541403
 31
0.0
  0
LINE
  5
3EA
330
1F
100
AcDbEntity
  8
0
  6
CONTINUOUS
 62
     7
100
AcDbLine
 10
-53.577815392
 20
-1.4226541403
 30
0.0
 11
-53.700065392
 21
-0.9848541403
 31
0.0
  0
LINE
  5
3EB
330
1F
100
AcDbEntity
  8
0
  6
CONTINUOUS
 62
     7
100
AcDbLine
 10
-53.700065392
 20
-0.9848541403
 30
0.0
 11
-53.791015392
 21
-0.5604541403
 31
0.0
  0
LINE
  5
3EC
330
1F
100
AcDbEntity
  8
0
  6
CONTINUOUS
 62
     7
100
AcDbLine
 10
-53.791015392
 20
-0.5604541403
 30
0.0
 11
-53.848215392
 21
-0.1515041403
 31
0.0
  0
LINE
  5
3ED
330
1F
100
AcDbEntity
  8
0
  6
CONTINUOUS
 62
     7
100
AcDbLine
 10
-53.848215392
 20
-0.1515041403
 30
0.0
 11
-53.869165392
 21
0.2399958597
 31
0.0
  0
LINE
  5
3EE
330
1F
100
AcDbEntity
  8
0
  6
CONTINUOUS
 62
     7
100
AcDbLine
 10
-53.869165392
 20
0.2399958597
 30
0.0
 11
-53.851415392
 21
0.6119958597
 31
0.0
  0
LINE
  5
3EF
330
1F
100
AcDbEntity
  8
0
  6
CONTINUOUS
 62
     7
100
AcDbLine
 10
-53.851415392
 20
0.6119958597
 30
0.0
 11
-53.700615392
 21
0.6365458597
 31
0.0
  0
LINE
  5
3F0
330
1F
100
AcDbEntity
  8
0
  6
CONTINUOUS
 62
     7
100
AcDbLine
 10
-53.700615392
 20
0.6365458597
 30
0.0
 11
-53.533915392
 21
0.6616958597
 31
0.0
  0
LINE
  5
3F1
330
1F
100
AcDbEntity
  8
0
  6
CONTINUOUS
 62
     7
100
AcDbLine
 10
-53.533915392
 20
0.6616958597
 30
0.0
 11
-53.298615392
 21
0.6731958597
 31
0.0
  0
LINE
  5
3F2
330
1F
100
AcDbEntity
  8
0
  6
CONTINUOUS
 62
     7
100
AcDbLine
 10
-53.298615392
 20
0.6731958597
 30
0.0
 11
-52.989065392
 21
0.6543958597
 31
0.0
  0
LINE
  5
3F3
330
1F
100
AcDbEntity
  8
0
  6
CONTINUOUS
 62
     7
100
AcDbLine
 10
-52.989065392
 20
0.6543958597
 30
0.0
 11
-52.599415392
 21
0.5885958597
 31
0.0
  0
LINE
  5
3F4
330
1F
100
AcDbEntity
  8
0
  6
CONTINUOUS
 62
     7
100
AcDbLine
 10
-52.599415392
 20
0.5885958597
 30
0.0
 11
-52.123915392
 21
0.4590958597
 31
0.0
  0
LINE
  5
3F5
330
1F
100
AcDbEntity
  8
0
  6
CONTINUOUS
 62
     7
100
AcDbLine
 10
-52.123915392
 20
0.4590958597
 30
0.0
 11
-51.556865392
 21
0.2492458597
 31
0.0
  0
LINE
  5
3F6
330
1F
100
AcDbEntity
  8
0
  6
CONTINUOUS
 62
     7
100
AcDbLine
 10
-51.556865392
 20
0.2492458597
 30
0.0
 11
-50.892415392
 21
-0.0576041403
 31
0.0
  0
LINE
  5
3F7
330
1F
100
AcDbEntity
  8
0
  6
CONTINUOUS
 62
     7
100
AcDbLine
 10
-50.892415392
 20
-0.0576041403
 30
0.0
 11
-50.124915392
 21
-0.4781541403
 31
0.0
  0
LINE
  5
3F8
330
1F
100
AcDbEntity
  8
0
  6
CONTINUOUS
 62
     7
100
AcDbLine
 10
-50.124915392
 20
-0.4781541403
 30
0.0
 11
-49.248515392
 21
-1.0291541403
 31
0.0
  0
LINE
  5
3F9
330
1F
100
AcDbEntity
  8
0
  6
CONTINUOUS
 62
     7
100
AcDbLine
 10
-49.248515392
 20
-1.0291541403
 30
0.0
 11
-48.767715392
 21
-1.3587041403
 31
0.0
  0
LINE
  5
3FA
330
1F
100
AcDbEntity
  8
0
  6
CONTINUOUS
 62
     7
100
AcDbLine
 10
-48.767715392
 20
-1.3587041403
 30
0.0
 11
-48.257515392
 21
-1.7271541403
 31
0.0
  0
LINE
  5
3FB
330
1F
100
AcDbEntity
  8
0
  6
CONTINUOUS
 62
     7
100
AcDbLine
 10
-48.257515392
 20
-1.7271541403
 30
0.0
 11
-47.717215392
 21
-2.1365041403
 31
0.0
  0
LINE
  5
3FC
330
1F
100
AcDbEntity
  8
0
  6
CONTINUOUS
 62
     7
100
AcDbLine
 10
-47.717215392
 20
-2.1365041403
 30
0.0
 11
-47.146115392
 21
-2.5889041403
 31
0.0
  0
LINE
  5
3FD
330
1F
100
AcDbEntity
  8
0
  6
CONTINUOUS
 62
     7
100
AcDbLine
 10
-47.146115392
 20
-2.5889041403
 30
0.0
 11
-46.543465392
 21
-3.0864041403
 31
0.0
  0
LINE
  5
3FE
330
1F
100
AcDbEntity
  8
0
  6
CONTINUOUS
 62
     7
100
AcDbLine
 10
-46.543465392
 20
-3.0864041403
 30
0.0
 11
-45.908565392
 21
-3.6311041403
 31
0.0
  0
LINE
  5
3FF
330
1F
100
AcDbEntity
  8
0
  6
CONTINUOUS
 62
     7
100
AcDbLine
 10
-45.908565392
 20
-3.6311041403
 30
0.0
 11
-45.240665392
 21
-4.2250541403
 31
0.0
  0
LINE
  5
400
330
1F
100
AcDbEntity
  8
0
  6
CONTINUOUS
 62
     7
100
AcDbLine
 10
-45.240665392
 20
-4.2250541403
 30
0.0
 11
-44.539115392
 21
-4.8703541403
 31
0.0
  0
LINE
  5
401
330
1F
100
AcDbEntity
  8
0
  6
CONTINUOUS
 62
     7
100
AcDbLine
 10
-44.539115392
 20
-4.8703541403
 30
0.0
 11
-43.803115392
 21
-5.5691541403
 31
0.0
  0
LINE
  5
402
330
1F
100
AcDbEntity
  8
0
  6
CONTINUOUS
 62
     7
100
AcDbLine
 10
-43.803115392
 20
-5.5691541403
 30
0.0
 11
-43.031965392
 21
-6.3234041403
 31
0.0
  0
LINE
  5
403
330
1F
100
AcDbEntity
  8
0
  6
CONTINUOUS
 62
     7
100
AcDbLine
 10
-43.031965392
 20
-6.3234041403
 30
0.0
 11
-42.242315392
 21
-7.0922041403
 31
0.0
  0
LINE
  5
404
330
1F
100
AcDbEntity
  8
0
  6
CONTINUOUS
 62
     7
100
AcDbLine
 10
-42.242315392
 20
-7.0922041403
 30
0.0
 11
-41.450065392
 21
-7.8309541403
 31
0.0
  0
LINE
  5
405
330
1F
100
AcDbEntity
  8
0
  6
CONTINUOUS
 62
     7
100
AcDbLine
 10
-41.450065392
 20
-7.8309541403
 30
0.0
 11
-40.654565392
 21
-8.5395541403
 31
0.0
  0
LINE
  5
406
330
1F
100
AcDbEntity
  8
0
  6
CONTINUOUS
 62
     7
100
AcDbLine
 10
-40.654565392
 20
-8.5395541403
 30
0.0
 11
-39.855015392
 21
-9.2178541403
 31
0.0
  0
LINE
  5
407
330
1F
100
AcDbEntity
  8
0
  6
CONTINUOUS
 62
     7
100
AcDbLine
 10
-39.855015392
 20
-9.2178541403
 30
0.0
 11
-39.050765392
 21
-9.8657541403
 31
0.0
  0
LINE
  5
408
330
1F
100
AcDbEntity
  8
0
  6
CONTINUOUS
 62
     7
100
AcDbLine
 10
-39.050765392
 20
-9.8657541403
 30
0.0
 11
-38.241065392
 21
-10.4832041403
 31
0.0
  0
LINE
  5
409
330
1F
100
AcDbEntity
  8
0
  6
CONTINUOUS
 62
     7
100
AcDbLine
 10
-38.241065392
 20
-10.4832041403
 30
0.0
 11
-37.425265392
 21
-11.0700041403
 31
0.0
  0
LINE
  5
40A
330
1F
100
AcDbEntity
  8
0
  6
CONTINUOUS
 62
     7
100
AcDbLine
 10
-37.425265392
 20
-11.0700041403
 30
0.0
 11
-36.602565392
 21
-11.6261541403
 31
0.0
  0
LINE
  5
40B
330
1F
100
AcDbEntity
  8
0
  6
CONTINUOUS
 62
     7
100
AcDbLine
 10
-36.602565392
 20
-11.6261541403
 30
0.0
 11
-35.772365392
 21
-12.1514541403
 31
0.0
  0
LINE
  5
40C
330
1F
100
AcDbEntity
  8
0
  6
CONTINUOUS
 62
     7
100
AcDbLine
 10
-35.772365392
 20
-12.1514541403
 30
0.0
 11
-34.933815392
 21
-12.6458541403
 31
0.0
  0
LINE
  5
40D
330
1F
100
AcDbEntity
  8
0
  6
CONTINUOUS
 62
     7
100
AcDbLine
 10
-34.933815392
 20
-12.6458541403
 30
0.0
 11
-34.086315392
 21
-13.1092041403
 31
0.0
  0
LINE
  5
40E
330
1F
100
AcDbEntity
  8
0
  6
CONTINUOUS
 62
     7
100
AcDbLine
 10
-34.086315392
 20
-13.1092041403
 30
0.0
 11
-33.229115392
 21
-13.5414041403
 31
0.0
  0
LINE
  5
40F
330
1F
100
AcDbEntity
  8
0
  6
CONTINUOUS
 62
     7
100
AcDbLine
 10
-33.229115392
 20
-13.5414041403
 30
0.0
 11
-32.361465392
 21
-13.9423541403
 31
0.0
  0
LINE
  5
410
330
1F
100
AcDbEntity
  8
0
  6
CONTINUOUS
 62
     7
100
AcDbLine
 10
-32.361465392
 20
-13.9423541403
 30
0.0
 11
-31.482715392
 21
-14.3119541403
 31
0.0
  0
LINE
  5
411
330
1F
100
AcDbEntity
  8
0
  6
CONTINUOUS
 62
     7
100
AcDbLine
 10
-31.482715392
 20
-14.3119541403
 30
0.0
 11
-30.592165392
 21
-14.6501041403
 31
0.0
  0
LINE
  5
412
330
1F
100
AcDbEntity
  8
0
  6
CONTINUOUS
 62
     7
100
AcDbLine
 10
-30.592165392
 20
-14.6501041403
 30
0.0
 11
-29.689015392
 21
-14.9566541403
 31
0.0
  0
LINE
  5
413
330
1F
100
AcDbEntity
  8
0
  6
CONTINUOUS
 62
     7
100
AcDbLine
 10
-29.689015392
 20
-14.9566541403
 30
0.0
 11
-28.772615392
 21
-15.2315541403
 31
0.0
  0
LINE
  5
414
330
1F
100
AcDbEntity
  8
0
  6
CONTINUOUS
 62
     7
100
AcDbLine
 10
-28.772615392
 20
-15.2315541403
 30
0.0
 11
-27.842215392
 21
-15.4746541403
 31
0.0
  0
LINE
  5
415
330
1F
100
AcDbEntity
  8
0
  6
CONTINUOUS
 62
     7
100
AcDbLine
 10
-27.842215392
 20
-15.4746541403
 30
0.0
 11
-26.897165392
 21
-15.6858041403
 31
0.0
  0
LINE
  5
416
330
1F
100
AcDbEntity
  8
0
  6
CONTINUOUS
 62
     7
100
AcDbLine
 10
-26.897165392
 20
-15.6858041403
 30
0.0
 11
-25.936715392
 21
-15.8650041403
 31
0.0
  0
LINE
  5
417
330
1F
100
AcDbEntity
  8
0
  6
CONTINUOUS
 62
     7
100
AcDbLine
 10
-25.936715392
 20
-15.8650041403
 30
0.0
 11
-24.960115392
 21
-16.0120541403
 31
0.0
  0
LINE
  5
418
330
1F
100
AcDbEntity
  8
0
  6
CONTINUOUS
 62
     7
100
AcDbLine
 10
-24.960115392
 20
-16.0120541403
 30
0.0
 11
-23.966715392
 21
-16.1269041403
 31
0.0
  0
LINE
  5
419
330
1F
100
AcDbEntity
  8
0
  6
CONTINUOUS
 62
     7
100
AcDbLine
 10
-23.966715392
 20
-16.1269041403
 30
0.0
 11
-22.955765392
 21
-16.2094041403
 31
0.0
  0
LINE
  5
41A
330
1F
100
AcDbEntity
  8
0
  6
CONTINUOUS
 62
     7
100
AcDbLine
 10
-22.955765392
 20
-16.2094041403
 30
0.0
 11
-21.926615392
 21
-16.2594541403
 31
0.0
  0
LINE
  5
41B
330
1F
100
AcDbEntity
  8
0
  6
CONTINUOUS
 62
     7
100
AcDbLine
 10
-21.926615392
 20
-16.2594541403
 30
0.0
 11
-20.878465392
 21
-16.2769541403
 31
0.0
  0
LINE
  5
41C
330
1F
100
AcDbEntity
  8
0
  6
CONTINUOUS
 62
     7
100
AcDbLine
 10
-20.878465392
 20
-16.2769541403
 30
0.0
 11
-19.810665392
 21
-16.2618041403
 31
0.0
  0
LINE
  5
41D
330
1F
100
AcDbEntity
  8
0
  6
CONTINUOUS
 62
     7
100
AcDbLine
 10
-19.810665392
 20
-16.2618041403
 30
0.0
 11
-18.722465392
 21
-16.2139041403
 31
0.0
  0
LINE
  5
41E
330
1F
100
AcDbEntity
  8
0
  6
CONTINUOUS
 62
     7
100
AcDbLine
 10
-18.722465392
 20
-16.2139041403
 30
0.0
 11
-17.613165392
 21
-16.1331041403
 31
0.0
  0
LINE
  5
41F
330
1F
100
AcDbEntity
  8
0
  6
CONTINUOUS
 62
     7
100
AcDbLine
 10
-17.613165392
 20
-16.1331041403
 30
0.0
 11
-16.482015392
 21
-16.0193041403
 31
0.0
  0
LINE
  5
420
330
1F
100
AcDbEntity
  8
0
  6
CONTINUOUS
 62
     7
100
AcDbLine
 10
-16.482015392
 20
-16.0193041403
 30
0.0
 11
-15.328415392
 21
-15.8724541403
 31
0.0
  0
LINE
  5
421
330
1F
100
AcDbEntity
  8
0
  6
CONTINUOUS
 62
     7
100
AcDbLine
 10
-15.328415392
 20
-15.8724541403
 30
0.0
 11
-14.151515392
 21
-15.6923541403
 31
0.0
  0
LINE
  5
422
330
1F
100
AcDbEntity
  8
0
  6
CONTINUOUS
 62
     7
100
AcDbLine
 10
-14.151515392
 20
-15.6923541403
 30
0.0
 11
-12.950715392
 21
-15.4789541403
 31
0.0
  0
LINE
  5
423
330
1F
100
AcDbEntity
  8
0
  6
CONTINUOUS
 62
     7
100
AcDbLine
 10
-12.950715392
 20
-15.4789541403
 30
0.0
 11
-12.121865392
 21
-16.3594541403
 31
0.0
  0
LINE
  5
424
330
1F
100
AcDbEntity
  8
0
  6
CONTINUOUS
 62
     7
100
AcDbLine
 10
-12.121865392
 20
-16.3594541403
 30
0.0
 11
-11.527565392
 21
-16.9643541403
 31
0.0
  0
LINE
  5
425
330
1F
100
AcDbEntity
  8
0
  6
CONTINUOUS
 62
     7
100
AcDbLine
 10
-11.527565392
 20
-16.9643541403
 30
0.0
 11
-10.772215392
 21
-17.6966541403
 31
0.0
  0
LINE
  5
426
330
1F
100
AcDbEntity
  8
0
  6
CONTINUOUS
 62
     7
100
AcDbLine
 10
-10.772215392
 20
-17.6966541403
 30
0.0
 11
-9.854615392
 21
-18.5392541403
 31
0.0
  0
LINE
  5
427
330
1F
100
AcDbEntity
  8
0
  6
CONTINUOUS
 62
     7
100
AcDbLine
 10
-9.854615392
 20
-18.5392541403
 30
0.0
 11
-8.773515392
 21
-19.4751541403
 31
0.0
  0
LINE
  5
428
330
1F
100
AcDbEntity
  8
0
  6
CONTINUOUS
 62
     7
100
AcDbLine
 10
-8.773515392
 20
-19.4751541403
 30
0.0
 11
-7.527665392
 21
-20.4873541403
 31
0.0
  0
LINE
  5
429
330
1F
100
AcDbEntity
  8
0
  6
CONTINUOUS
 62
     7
100
AcDbLine
 10
-7.527665392
 20
-20.4873541403
 30
0.0
 11
-6.842615392
 21
-21.0167541403
 31
0.0
  0
LINE
  5
42A
330
1F
100
AcDbEntity
  8
0
  6
CONTINUOUS
 62
     7
100
AcDbLine
 10
-6.842615392
 20
-21.0167541403
 30
0.0
 11
-6.115915392
 21
-21.5588541403
 31
0.0
  0
LINE
  5
42B
330
1F
100
AcDbEntity
  8
0
  6
CONTINUOUS
 62
     7
100
AcDbLine
 10
-6.115915392
 20
-21.5588541403
 30
0.0
 11
-5.347365392
 21
-22.1115541403
 31
0.0
  0
LINE
  5
42C
330
1F
100
AcDbEntity
  8
0
  6
CONTINUOUS
 62
     7
100
AcDbLine
 10
-5.347365392
 20
-22.1115541403
 30
0.0
 11
-4.536915392
 21
-22.6726541403
 31
0.0
  0
LINE
  5
42D
330
1F
100
AcDbEntity
  8
0
  6
CONTINUOUS
 62
     7
100
AcDbLine
 10
-4.536915392
 20
-22.6726541403
 30
0.0
 11
-3.684365392
 21
-23.2400541403
 31
0.0
  0
LINE
  5
42E
330
1F
100
AcDbEntity
  8
0
  6
CONTINUOUS
 62
     7
100
AcDbLine
 10
-3.684365392
 20
-23.2400541403
 30
0.0
 11
-2.789515392
 21
-23.8116541403
 31
0.0
  0
LINE
  5
42F
330
1F
100
AcDbEntity
  8
0
  6
CONTINUOUS
 62
     7
100
AcDbLine
 10
-2.789515392
 20
-23.8116541403
 30
0.0
 11
-1.852315392
 21
-24.3853541403
 31
0.0
  0
LINE
  5
430
330
1F
100
AcDbEntity
  8
0
  6
CONTINUOUS
 62
     7
100
AcDbLine
 10
-1.852315392
 20
-24.3853541403
 30
0.0
 11
-0.872515392
 21
-24.9589541403
 31
0.0
  0
LINE
  5
431
330
1F
100
AcDbEntity
  8
0
  6
CONTINUOUS
 62
     7
100
AcDbLine
 10
-0.872515392
 20
-24.9589541403
 30
0.0
 11
0.150034608
 21
-25.5303541403
 31
0.0
  0
LINE
  5
432
330
1F
100
AcDbEntity
  8
0
  6
CONTINUOUS
 62
     7
100
AcDbLine
 10
0.150034608
 20
-25.5303541403
 30
0.0
 11
1.215434608
 21
-26.0974541403
 31
0.0
  0
LINE
  5
433
330
1F
100
AcDbEntity
  8
0
  6
CONTINUOUS
 62
     7
100
AcDbLine
 10
1.215434608
 20
-26.0974541403
 30
0.0
 11
2.323834608
 21
-26.6580541403
 31
0.0
  0
LINE
  5
434
330
1F
100
AcDbEntity
  8
0
  6
CONTINUOUS
 62
     7
100
AcDbLine
 10
2.323834608
 20
-26.6580541403
 30
0.0
 11
3.475434608
 21
-27.2101541403
 31
0.0
  0
LINE
  5
435
330
1F
100
AcDbEntity
  8
0
  6
CONTINUOUS
 62
     7
100
AcDbLine
 10
3.475434608
 20
-27.2101541403
 30
0.0
 11
4.670334608
 21
-27.7515041403
 31
0.0
  0
LINE
  5
436
330
1F
100
AcDbEntity
  8
0
  6
CONTINUOUS
 62
     7
100
AcDbLine
 10
4.670334608
 20
-27.7515041403
 30
0.0
 11
5.908734608
 21
-28.2800041403
 31
0.0
  0
LINE
  5
437
330
1F
100
AcDbEntity
  8
0
  6
CONTINUOUS
 62
     7
100
AcDbLine
 10
5.908734608
 20
-28.2800041403
 30
0.0
 11
7.190784608
 21
-28.7936041403
 31
0.0
  0
LINE
  5
438
330
1F
100
AcDbEntity
  8
0
  6
CONTINUOUS
 62
     7
100
AcDbLine
 10
7.190784608
 20
-28.7936041403
 30
0.0
 11
8.516634608
 21
-29.2901041403
 31
0.0
  0
LINE
  5
439
330
1F
100
AcDbEntity
  8
0
  6
CONTINUOUS
 62
     7
100
AcDbLine
 10
8.516634608
 20
-29.2901041403
 30
0.0
 11
8.798834608
 21
-29.3991541403
 31
0.0
  0
LINE
  5
43A
330
1F
100
AcDbEntity
  8
0
  6
CONTINUOUS
 62
     7
100
AcDbLine
 10
8.798834608
 20
-29.3991541403
 30
0.0
 11
9.100234608
 21
-29.5375041403
 31
0.0
  0
LINE
  5
43B
330
1F
100
AcDbEntity
  8
0
  6
CONTINUOUS
 62
     7
100
AcDbLine
 10
9.100234608
 20
-29.5375041403
 30
0.0
 11
9.476534608
 21
-29.7443541403
 31
0.0
  0
LINE
  5
43C
330
1F
100
AcDbEntity
  8
0
  6
CONTINUOUS
 62
     7
100
AcDbLine
 10
9.476534608
 20
-29.7443541403
 30
0.0
 11
9.903784608
 21
-30.0290541403
 31
0.0
  0
LINE
  5
43D
330
1F
100
AcDbEntity
  8
0
  6
CONTINUOUS
 62
     7
100
AcDbLine
 10
9.903784608
 20
-30.0290541403
 30
0.0
 11
10.128984608
 21
-30.2036041403
 31
0.0
  0
LINE
  5
43E
330
1F
100
AcDbEntity
  8
0
  6
CONTINUOUS
 62
     7
100
AcDbLine
 10
10.128984608
 20
-30.2036041403
 30
0.0
 11
10.357984608
 21
-30.4011041403
 31
0.0
  0
LINE
  5
43F
330
1F
100
AcDbEntity
  8
0
  6
CONTINUOUS
 62
     7
100
AcDbLine
 10
10.357984608
 20
-30.4011041403
 30
0.0
 11
10.587684608
 21
-30.6228541403
 31
0.0
  0
LINE
  5
440
330
1F
100
AcDbEntity
  8
0
  6
CONTINUOUS
 62
     7
100
AcDbLine
 10
10.587684608
 20
-30.6228541403
 30
0.0
 11
10.815184608
 21
-30.8699541403
 31
0.0
  0
LINE
  5
441
330
1F
100
AcDbEntity
  8
0
  6
CONTINUOUS
 62
     7
100
AcDbLine
 10
10.815184608
 20
-30.8699541403
 30
0.0
 11
11.037384608
 21
-31.1436041403
 31
0.0
  0
LINE
  5
442
330
1F
100
AcDbEntity
  8
0
  6
CONTINUOUS
 62
     7
100
AcDbLine
 10
11.037384608
 20
-31.1436041403
 30
0.0
 11
11.251334608
 21
-31.4449541403
 31
0.0
  0
LINE
  5
443
330
1F
100
AcDbEntity
  8
0
  6
CONTINUOUS
 62
     7
100
AcDbLine
 10
11.251334608
 20
-31.4449541403
 30
0.0
 11
11.559684608
 21
-31.8643541403
 31
0.0
  0
LINE
  5
444
330
1F
100
AcDbEntity
  8
0
  6
CONTINUOUS
 62
     7
100
AcDbLine
 10
11.559684608
 20
-31.8643541403
 30
0.0
 11
12.054734608
 21
-32.4774041403
 31
0.0
  0
LINE
  5
445
330
1F
100
AcDbEntity
  8
0
  6
CONTINUOUS
 62
     7
100
AcDbLine
 10
12.054734608
 20
-32.4774041403
 30
0.0
 11
12.720834608
 21
-33.2606541403
 31
0.0
  0
LINE
  5
446
330
1F
100
AcDbEntity
  8
0
  6
CONTINUOUS
 62
     7
100
AcDbLine
 10
12.720834608
 20
-33.2606541403
 30
0.0
 11
13.542384608
 21
-34.1907041403
 31
0.0
  0
LINE
  5
447
330
1F
100
AcDbEntity
  8
0
  6
CONTINUOUS
 62
     7
100
AcDbLine
 10
13.542384608
 20
-34.1907041403
 30
0.0
 11
14.503784608
 21
-35.2443041403
 31
0.0
  0
LINE
  5
448
330
1F
100
AcDbEntity
  8
0
  6
CONTINUOUS
 62
     7
100
AcDbLine
 10
14.503784608
 20
-35.2443041403
 30
0.0
 11
15.589384608
 21
-36.3979541403
 31
0.0
  0
LINE
  5
449
330
1F
100
AcDbEntity
  8
0
  6
CONTINUOUS
 62
     7
100
AcDbLine
 10
15.589384608
 20
-36.3979541403
 30
0.0
 11
16.783584608
 21
-37.6283541403
 31
0.0
  0
LINE
  5
44A
330
1F
100
AcDbEntity
  8
0
  6
CONTINUOUS
 62
     7
100
AcDbLine
 10
16.783584608
 20
-37.6283541403
 30
0.0
 11
18.070734608
 21
-38.9121541403
 31
0.0
  0
LINE
  5
44B
330
1F
100
AcDbEntity
  8
0
  6
CONTINUOUS
 62
     7
100
AcDbLine
 10
18.070734608
 20
-38.9121541403
 30
0.0
 11
19.435184608
 21
-40.2259041403
 31
0.0
  0
LINE
  5
44C
330
1F
100
AcDbEntity
  8
0
  6
CONTINUOUS
 62
     7
100
AcDbLine
 10
19.435184608
 20
-40.2259041403
 30
0.0
 11
20.861384608
 21
-41.5463041403
 31
0.0
  0
LINE
  5
44D
330
1F
100
AcDbEntity
  8
0
  6
CONTINUOUS
 62
     7
100
AcDbLine
 10
20.861384608
 20
-41.5463041403
 30
0.0
 11
22.333684608
 21
-42.8499541403
 31
0.0
  0
LINE
  5
44E
330
1F
100
AcDbEntity
  8
0
  6
CONTINUOUS
 62
     7
100
AcDbLine
 10
22.333684608
 20
-42.8499541403
 30
0.0
 11
23.836434608
 21
-44.1135041403
 31
0.0
  0
LINE
  5
44F
330
1F
100
AcDbEntity
  8
0
  6
CONTINUOUS
 62
     7
100
AcDbLine
 10
23.836434608
 20
-44.1135041403
 30
0.0
 11
24.594334608
 21
-44.7229041403
 31
0.0
  0
LINE
  5
450
330
1F
100
AcDbEntity
  8
0
  6
CONTINUOUS
 62
     7
100
AcDbLine
 10
24.594334608
 20
-44.7229041403
 30
0.0
 11
25.353984608
 21
-45.3135541403
 31
0.0
  0
LINE
  5
451
330
1F
100
AcDbEntity
  8
0
  6
CONTINUOUS
 62
     7
100
AcDbLine
 10
25.353984608
 20
-45.3135541403
 30
0.0
 11
26.113484608
 21
-45.8824541403
 31
0.0
  0
LINE
  5
452
330
1F
100
AcDbEntity
  8
0
  6
CONTINUOUS
 62
     7
100
AcDbLine
 10
26.113484608
 20
-45.8824541403
 30
0.0
 11
26.870784608
 21
-46.4267541403
 31
0.0
  0
LINE
  5
453
330
1F
100
AcDbEntity
  8
0
  6
CONTINUOUS
 62
     7
100
AcDbLine
 10
26.870784608
 20
-46.4267541403
 30
0.0
 11
27.624034608
 21
-46.9435041403
 31
0.0
  0
LINE
  5
454
330
1F
100
AcDbEntity
  8
0
  6
CONTINUOUS
 62
     7
100
AcDbLine
 10
27.624034608
 20
-46.9435041403
 30
0.0
 11
28.371184608
 21
-47.4297541403
 31
0.0
  0
LINE
  5
455
330
1F
100
AcDbEntity
  8
0
  6
CONTINUOUS
 62
     7
100
AcDbLine
 10
28.371184608
 20
-47.4297541403
 30
0.0
 11
29.110334608
 21
-47.8826041403
 31
0.0
  0
LINE
  5
456
330
1F
100
AcDbEntity
  8
0
  6
CONTINUOUS
 62
     7
100
AcDbLine
 10
29.110334608
 20
-47.8826041403
 30
0.0
 11
29.839534608
 21
-48.2991041403
 31
0.0
  0
LINE
  5
457
330
1F
100
AcDbEntity
  8
0
  6
CONTINUOUS
 62
     7
100
AcDbLine
 10
29.839534608
 20
-48.2991041403
 30
0.0
 11
30.171834608
 21
-48.8577541403
 31
0.0
  0
LINE
  5
458
330
1F
100
AcDbEntity
  8
0
  6
CONTINUOUS
 62
     7
100
AcDbLine
 10
30.171834608
 20
-48.8577541403
 30
0.0
 11
30.539834608
 21
-49.4310041403
 31
0.0
  0
LINE
  5
459
330
1F
100
AcDbEntity
  8
0
  6
CONTINUOUS
 62
     7
100
AcDbLine
 10
30.539834608
 20
-49.4310041403
 30
0.0
 11
31.019634608
 21
-50.1102541403
 31
0.0
  0
LINE
  5
45A
330
1F
100
AcDbEntity
  8
0
  6
CONTINUOUS
 62
     7
100
AcDbLine
 10
31.019634608
 20
-50.1102541403
 30
0.0
 11
31.296134608
 21
-50.4685541403
 31
0.0
  0
LINE
  5
45B
330
1F
100
AcDbEntity
  8
0
  6
CONTINUOUS
 62
     7
100
AcDbLine
 10
31.296134608
 20
-50.4685541403
 30
0.0
 11
31.594184608
 21
-50.8280041403
 31
0.0
  0
LINE
  5
45C
330
1F
100
AcDbEntity
  8
0
  6
CONTINUOUS
 62
     7
100
AcDbLine
 10
31.594184608
 20
-50.8280041403
 30
0.0
 11
31.911684608
 21
-51.1803041403
 31
0.0
  0
LINE
  5
45D
330
1F
100
AcDbEntity
  8
0
  6
CONTINUOUS
 62
     7
100
AcDbLine
 10
31.911684608
 20
-51.1803041403
 30
0.0
 11
32.246484608
 21
-51.5169041403
 31
0.0
  0
LINE
  5
45E
330
1F
100
AcDbEntity
  8
0
  6
CONTINUOUS
 62
     7
100
AcDbLine
 10
32.246484608
 20
-51.5169041403
 30
0.0
 11
32.596434608
 21
-51.8294041403
 31
0.0
  0
LINE
  5
45F
330
1F
100
AcDbEntity
  8
0
  6
CONTINUOUS
 62
     7
100
AcDbLine
 10
32.596434608
 20
-51.8294041403
 30
0.0
 11
32.959384608
 21
-52.1093541403
 31
0.0
  0
LINE
  5
460
330
1F
100
AcDbEntity
  8
0
  6
CONTINUOUS
 62
     7
100
AcDbLine
 10
32.959384608
 20
-52.1093541403
 30
0.0
 11
33.333284608
 21
-52.3484041403
 31
0.0
  0
LINE
  5
461
330
1F
100
AcDbEntity
  8
0
  6
CONTINUOUS
 62
     7
100
AcDbLine
 10
33.333284608
 20
-52.3484041403
 30
0.0
 11
33.715934608
 21
-52.5380041403
 31
0.0
  0
LINE
  5
462
330
1F
100
AcDbEntity
  8
0
  6
CONTINUOUS
 62
     7
100
AcDbLine
 10
33.715934608
 20
-52.5380041403
 30
0.0
 11
33.804034608
 21
-52.3722541403
 31
0.0
  0
LINE
  5
463
330
1F
100
AcDbEntity
  8
0
  6
CONTINUOUS
 62
     7
100
AcDbLine
 10
33.804034608
 20
-52.3722541403
 30
0.0
 11
34.013984608
 21
-51.9171041403
 31
0.0
  0
LINE
  5
464
330
1F
100
AcDbEntity
  8
0
  6
CONTINUOUS
 62
     7
100
AcDbLine
 10
34.013984608
 20
-51.9171041403
 30
0.0
 11
34.282034608
 21
-51.2405041403
 31
0.0
  0
LINE
  5
465
330
1F
100
AcDbEntity
  8
0
  6
CONTINUOUS
 62
     7
100
AcDbLine
 10
34.282034608
 20
-51.2405041403
 30
0.0
 11
34.417984608
 21
-50.8403541403
 31
0.0
  0
LINE
  5
466
330
1F
100
AcDbEntity
  8
0
  6
CONTINUOUS
 62
     7
100
AcDbLine
 10
34.417984608
 20
-50.8403541403
 30
0.0
 11
34.544584608
 21
-50.4103041403
 31
0.0
  0
LINE
  5
467
330
1F
100
AcDbEntity
  8
0
  6
CONTINUOUS
 62
     7
100
AcDbLine
 10
34.544584608
 20
-50.4103041403
 30
0.0
 11
34.653884608
 21
-49.9588541403
 31
0.0
  0
LINE
  5
468
330
1F
100
AcDbEntity
  8
0
  6
CONTINUOUS
 62
     7
100
AcDbLine
 10
34.653884608
 20
-49.9588541403
 30
0.0
 11
34.737934608
 21
-49.4945041403
 31
0.0
  0
LINE
  5
469
330
1F
100
AcDbEntity
  8
0
  6
CONTINUOUS
 62
     7
100
AcDbLine
 10
34.737934608
 20
-49.4945041403
 30
0.0
 11
34.788734608
 21
-49.0257041403
 31
0.0
  0
LINE
  5
46A
330
1F
100
AcDbEntity
  8
0
  6
CONTINUOUS
 62
     7
100
AcDbLine
 10
34.788734608
 20
-49.0257041403
 30
0.0
 11
34.798384608
 21
-48.5609541403
 31
0.0
  0
LINE
  5
46B
330
1F
100
AcDbEntity
  8
0
  6
CONTINUOUS
 62
     7
100
AcDbLine
 10
34.798384608
 20
-48.5609541403
 30
0.0
 11
34.758834608
 21
-48.1087541403
 31
0.0
  0
LINE
  5
46C
330
1F
100
AcDbEntity
  8
0
  6
CONTINUOUS
 62
     7
100
AcDbLine
 10
34.758834608
 20
-48.1087541403
 30
0.0
 11
34.718184608
 21
-47.8900041403
 31
0.0
  0
LINE
  5
46D
330
1F
100
AcDbEntity
  8
0
  6
CONTINUOUS
 62
     7
100
AcDbLine
 10
34.718184608
 20
-47.8900041403
 30
0.0
 11
34.662284608
 21
-47.6776041403
 31
0.0
  0
LINE
  5
46E
330
1F
100
AcDbEntity
  8
0
  6
CONTINUOUS
 62
     7
100
AcDbLine
 10
34.662284608
 20
-47.6776041403
 30
0.0
 11
34.590084608
 21
-47.4725541403
 31
0.0
  0
LINE
  5
46F
330
1F
100
AcDbEntity
  8
0
  6
CONTINUOUS
 62
     7
100
AcDbLine
 10
34.590084608
 20
-47.4725541403
 30
0.0
 11
34.500584608
 21
-47.2759541403
 31
0.0
  0
LINE
  5
470
330
1F
100
AcDbEntity
  8
0
  6
CONTINUOUS
 62
     7
100
AcDbLine
 10
34.500584608
 20
-47.2759541403
 30
0.0
 11
34.392884608
 21
-47.0888541403
 31
0.0
  0
LINE
  5
471
330
1F
100
AcDbEntity
  8
0
  6
CONTINUOUS
 62
     7
100
AcDbLine
 10
-1.515565392
 20
33.7100958597
 30
0.0
 11
-1.659965392
 21
33.6593458597
 31
0.0
  0
LINE
  5
472
330
1F
100
AcDbEntity
  8
0
  6
CONTINUOUS
 62
     7
100
AcDbLine
 10
-1.456965392
 20
33.7286458597
 30
0.0
 11
-1.515565392
 21
33.7100958597
 31
0.0
  0
LINE
  5
473
330
1F
100
AcDbEntity
  8
0
  6
CONTINUOUS
 62
     7
100
AcDbLine
 10
-0.994365392
 20
34.0226958597
 30
0.0
 11
-1.456965392
 21
33.7286458597
 31
0.0
  0
LINE
  5
474
330
1F
100
AcDbEntity
  8
0
  6
CONTINUOUS
 62
     7
100
AcDbLine
 10
0.072684608
 20
34.6733958597
 30
0.0
 11
-0.994365392
 21
34.0226958597
 31
0.0
  0
LINE
  5
475
330
1F
100
AcDbEntity
  8
0
  6
CONTINUOUS
 62
     7
100
AcDbLine
 10
0.709934608
 20
35.0390458597
 30
0.0
 11
0.072684608
 21
34.6733958597
 31
0.0
  0
LINE
  5
476
330
1F
100
AcDbEntity
  8
0
  6
CONTINUOUS
 62
     7
100
AcDbLine
 10
1.350734608
 20
35.3816458597
 30
0.0
 11
0.709934608
 21
35.0390458597
 31
0.0
  0
LINE
  5
477
330
1F
100
AcDbEntity
  8
0
  6
CONTINUOUS
 62
     7
100
AcDbLine
 10
1.945984608
 20
35.6637958597
 30
0.0
 11
1.350734608
 21
35.3816458597
 31
0.0
  0
LINE
  5
478
330
1F
100
AcDbEntity
  8
0
  6
CONTINUOUS
 62
     7
100
AcDbLine
 10
2.211184608
 20
35.7705458597
 30
0.0
 11
1.945984608
 21
35.6637958597
 31
0.0
  0
LINE
  5
479
330
1F
100
AcDbEntity
  8
0
  6
CONTINUOUS
 62
     7
100
AcDbLine
 10
2.446484608
 20
35.8480958597
 30
0.0
 11
2.211184608
 21
35.7705458597
 31
0.0
  0
LINE
  5
47A
330
1F
100
AcDbEntity
  8
0
  6
CONTINUOUS
 62
     7
100
AcDbLine
 10
2.651084608
 20
35.8880458597
 30
0.0
 11
2.446484608
 21
35.8480958597
 31
0.0
  0
LINE
  5
47B
330
1F
100
AcDbEntity
  8
0
  6
CONTINUOUS
 62
     7
100
AcDbLine
 10
2.830584608
 20
35.8941458597
 30
0.0
 11
2.651084608
 21
35.8880458597
 31
0.0
  0
LINE
  5
47C
330
1F
100
AcDbEntity
  8
0
  6
CONTINUOUS
 62
     7
100
AcDbLine
 10
2.986684608
 20
35.8705958597
 30
0.0
 11
2.830584608
 21
35.8941458597
 31
0.0
  0
LINE
  5
47D
330
1F
100
AcDbEntity
  8
0
  6
CONTINUOUS
 62
     7
100
AcDbLine
 10
3.120984608
 20
35.8218458597
 30
0.0
 11
2.986684608
 21
35.8705958597
 31
0.0
  0
LINE
  5
47E
330
1F
100
AcDbEntity
  8
0
  6
CONTINUOUS
 62
     7
100
AcDbLine
 10
3.235134608
 20
35.7520458597
 30
0.0
 11
3.120984608
 21
35.8218458597
 31
0.0
  0
LINE
  5
47F
330
1F
100
AcDbEntity
  8
0
  6
CONTINUOUS
 62
     7
100
AcDbLine
 10
3.330884608
 20
35.6655958597
 30
0.0
 11
3.235134608
 21
35.7520458597
 31
0.0
  0
LINE
  5
480
330
1F
100
AcDbEntity
  8
0
  6
CONTINUOUS
 62
     7
100
AcDbLine
 10
3.409834608
 20
35.5667958597
 30
0.0
 11
3.330884608
 21
35.6655958597
 31
0.0
  0
LINE
  5
481
330
1F
100
AcDbEntity
  8
0
  6
CONTINUOUS
 62
     7
100
AcDbLine
 10
3.473634608
 20
35.4598958597
 30
0.0
 11
3.409834608
 21
35.5667958597
 31
0.0
  0
LINE
  5
482
330
1F
100
AcDbEntity
  8
0
  6
CONTINUOUS
 62
     7
100
AcDbLine
 10
3.562484608
 20
35.2391458597
 30
0.0
 11
3.473634608
 21
35.4598958597
 31
0.0
  0
LINE
  5
483
330
1F
100
AcDbEntity
  8
0
  6
CONTINUOUS
 62
     7
100
AcDbLine
 10
3.610784608
 20
35.0377458597
 30
0.0
 11
3.562484608
 21
35.2391458597
 31
0.0
  0
LINE
  5
484
330
1F
100
AcDbEntity
  8
0
  6
CONTINUOUS
 62
     7
100
AcDbLine
 10
3.638834608
 20
34.8307458597
 30
0.0
 11
3.610784608
 21
35.0377458597
 31
0.0
  0
LINE
  5
485
330
1F
100
AcDbEntity
  8
0
  6
CONTINUOUS
 62
     7
100
AcDbLine
 10
4.492334608
 20
29.8362958597
 30
0.0
 11
3.638834608
 21
34.8307458597
 31
0.0
  0
LINE
  5
486
330
1F
100
AcDbEntity
  8
0
  6
CONTINUOUS
 62
     7
100
AcDbLine
 10
4.524284608
 20
29.7458958597
 30
0.0
 11
4.492334608
 21
29.8362958597
 31
0.0
  0
LINE
  5
487
330
1F
100
AcDbEntity
  8
0
  6
CONTINUOUS
 62
     7
100
AcDbLine
 10
4.595184608
 20
29.5195958597
 30
0.0
 11
4.524284608
 21
29.7458958597
 31
0.0
  0
LINE
  5
488
330
1F
100
AcDbEntity
  8
0
  6
CONTINUOUS
 62
     7
100
AcDbLine
 10
4.626434608
 20
29.3694958597
 30
0.0
 11
4.595184608
 21
29.5195958597
 31
0.0
  0
LINE
  5
489
330
1F
100
AcDbEntity
  8
0
  6
CONTINUOUS
 62
     7
100
AcDbLine
 10
4.644884608
 20
29.2022958597
 30
0.0
 11
4.626434608
 21
29.3694958597
 31
0.0
  0
LINE
  5
48A
330
1F
100
AcDbEntity
  8
0
  6
CONTINUOUS
 62
     7
100
AcDbLine
 10
4.642984608
 20
29.0234958597
 30
0.0
 11
4.644884608
 21
29.2022958597
 31
0.0
  0
LINE
  5
48B
330
1F
100
AcDbEntity
  8
0
  6
CONTINUOUS
 62
     7
100
AcDbLine
 10
4.613234608
 20
28.8386958597
 30
0.0
 11
4.642984608
 21
29.0234958597
 31
0.0
  0
LINE
  5
48C
330
1F
100
AcDbEntity
  8
0
  6
CONTINUOUS
 62
     7
100
AcDbLine
 10
4.548084608
 20
28.6535958597
 30
0.0
 11
4.613234608
 21
28.8386958597
 31
0.0
  0
LINE
  5
48D
330
1F
100
AcDbEntity
  8
0
  6
CONTINUOUS
 62
     7
100
AcDbLine
 10
4.440084608
 20
28.4737458597
 30
0.0
 11
4.548084608
 21
28.6535958597
 31
0.0
  0
LINE
  5
48E
330
1F
100
AcDbEntity
  8
0
  6
CONTINUOUS
 62
     7
100
AcDbLine
 10
4.281634608
 20
28.3046958597
 30
0.0
 11
4.440084608
 21
28.4737458597
 31
0.0
  0
LINE
  5
48F
330
1F
100
AcDbEntity
  8
0
  6
CONTINUOUS
 62
     7
100
AcDbLine
 10
4.065284608
 20
28.1520958597
 30
0.0
 11
4.281634608
 21
28.3046958597
 31
0.0
  0
LINE
  5
490
330
1F
100
AcDbEntity
  8
0
  6
CONTINUOUS
 62
     7
100
AcDbLine
 10
3.783434608
 20
28.0215958597
 30
0.0
 11
4.065284608
 21
28.1520958597
 31
0.0
  0
LINE
  5
491
330
1F
100
AcDbEntity
  8
0
  6
CONTINUOUS
 62
     7
100
AcDbLine
 10
3.428684608
 20
27.9186958597
 30
0.0
 11
3.783434608
 21
28.0215958597
 31
0.0
  0
LINE
  5
492
330
1F
100
AcDbEntity
  8
0
  6
CONTINUOUS
 62
     7
100
AcDbLine
 10
2.993384608
 20
27.8490458597
 30
0.0
 11
3.428684608
 21
27.9186958597
 31
0.0
  0
LINE
  5
493
330
1F
100
AcDbEntity
  8
0
  6
CONTINUOUS
 62
     7
100
AcDbLine
 10
2.470084608
 20
27.8182458597
 30
0.0
 11
2.993384608
 21
27.8490458597
 31
0.0
  0
LINE
  5
494
330
1F
100
AcDbEntity
  8
0
  6
CONTINUOUS
 62
     7
100
AcDbLine
 10
2.191634608
 20
27.8209458597
 30
0.0
 11
2.470084608
 21
27.8182458597
 31
0.0
  0
LINE
  5
495
330
1F
100
AcDbEntity
  8
0
  6
CONTINUOUS
 62
     7
100
AcDbLine
 10
1.925734608
 20
27.8394458597
 30
0.0
 11
2.191634608
 21
27.8209458597
 31
0.0
  0
LINE
  5
496
330
1F
100
AcDbEntity
  8
0
  6
CONTINUOUS
 62
     7
100
AcDbLine
 10
1.672034608
 20
27.8730458597
 30
0.0
 11
1.925734608
 21
27.8394458597
 31
0.0
  0
LINE
  5
497
330
1F
100
AcDbEntity
  8
0
  6
CONTINUOUS
 62
     7
100
AcDbLine
 10
1.430134608
 20
27.9208958597
 30
0.0
 11
1.672034608
 21
27.8730458597
 31
0.0
  0
LINE
  5
498
330
1F
100
AcDbEntity
  8
0
  6
CONTINUOUS
 62
     7
100
AcDbLine
 10
1.199684608
 20
27.9823458597
 30
0.0
 11
1.430134608
 21
27.9208958597
 31
0.0
  0
LINE
  5
499
330
1F
100
AcDbEntity
  8
0
  6
CONTINUOUS
 62
     7
100
AcDbLine
 10
0.980284608
 20
28.0565958597
 30
0.0
 11
1.199684608
 21
27.9823458597
 31
0.0
  0
LINE
  5
49A
330
1F
100
AcDbEntity
  8
0
  6
CONTINUOUS
 62
     7
100
AcDbLine
 10
0.573034608
 20
28.2404458597
 30
0.0
 11
0.980284608
 21
28.0565958597
 31
0.0
  0
LINE
  5
49B
330
1F
100
AcDbEntity
  8
0
  6
CONTINUOUS
 62
     7
100
AcDbLine
 10
0.205384608
 20
28.4663958597
 30
0.0
 11
0.573034608
 21
28.2404458597
 31
0.0
  0
LINE
  5
49C
330
1F
100
AcDbEntity
  8
0
  6
CONTINUOUS
 62
     7
100
AcDbLine
 10
-0.125715392
 20
28.7284958597
 30
0.0
 11
0.205384608
 21
28.4663958597
 31
0.0
  0
LINE
  5
49D
330
1F
100
AcDbEntity
  8
0
  6
CONTINUOUS
 62
     7
100
AcDbLine
 10
-0.423415392
 20
29.0206458597
 30
0.0
 11
-0.125715392
 21
28.7284958597
 31
0.0
  0
LINE
  5
49E
330
1F
100
AcDbEntity
  8
0
  6
CONTINUOUS
 62
     7
100
AcDbLine
 10
-0.690765392
 20
29.3368458597
 30
0.0
 11
-0.423415392
 21
29.0206458597
 31
0.0
  0
LINE
  5
49F
330
1F
100
AcDbEntity
  8
0
  6
CONTINUOUS
 62
     7
100
AcDbLine
 10
-0.930765392
 20
29.6709958597
 30
0.0
 11
-0.690765392
 21
29.3368458597
 31
0.0
  0
LINE
  5
4A0
330
1F
100
AcDbEntity
  8
0
  6
CONTINUOUS
 62
     7
100
AcDbLine
 10
-1.146565392
 20
30.0170958597
 30
0.0
 11
-0.930765392
 21
29.6709958597
 31
0.0
  0
LINE
  5
4A1
330
1F
100
AcDbEntity
  8
0
  6
CONTINUOUS
 62
     7
100
AcDbLine
 10
-1.517665392
 20
30.7209958597
 30
0.0
 11
-1.146565392
 21
30.0170958597
 31
0.0
  0
LINE
  5
4A2
330
1F
100
AcDbEntity
  8
0
  6
CONTINUOUS
 62
     7
100
AcDbLine
 10
-1.828715392
 20
31.4001958597
 30
0.0
 11
-1.517665392
 21
30.7209958597
 31
0.0
  0
LINE
  5
4A3
330
1F
100
AcDbEntity
  8
0
  6
CONTINUOUS
 62
     7
100
AcDbLine
 10
-2.104215392
 20
32.0064458597
 30
0.0
 11
-1.828715392
 21
31.4001958597
 31
0.0
  0
LINE
  5
4A4
330
1F
100
AcDbEntity
  8
0
  6
CONTINUOUS
 62
     7
100
AcDbLine
 10
-2.213165392
 20
32.2681958597
 30
0.0
 11
-2.104215392
 21
32.0064458597
 31
0.0
  0
LINE
  5
4A5
330
1F
100
AcDbEntity
  8
0
  6
CONTINUOUS
 62
     7
100
AcDbLine
 10
-2.279015392
 20
32.5024458597
 30
0.0
 11
-2.213165392
 21
32.2681958597
 31
0.0
  0
LINE
  5
4A6
330
1F
100
AcDbEntity
  8
0
  6
CONTINUOUS
 62
     7
100
AcDbLine
 10
-2.306765392
 20
32.7105958597
 30
0.0
 11
-2.279015392
 21
32.5024458597
 31
0.0
  0
LINE
  5
4A7
330
1F
100
AcDbEntity
  8
0
  6
CONTINUOUS
 62
     7
100
AcDbLine
 10
-2.301365392
 20
32.8941958597
 30
0.0
 11
-2.306765392
 21
32.7105958597
 31
0.0
  0
LINE
  5
4A8
330
1F
100
AcDbEntity
  8
0
  6
CONTINUOUS
 62
     7
100
AcDbLine
 10
-2.267715392
 20
33.0547958597
 30
0.0
 11
-2.301365392
 21
32.8941958597
 31
0.0
  0
LINE
  5
4A9
330
1F
100
AcDbEntity
  8
0
  6
CONTINUOUS
 62
     7
100
AcDbLine
 10
-2.210865392
 20
33.1937958597
 30
0.0
 11
-2.267715392
 21
33.0547958597
 31
0.0
  0
LINE
  5
4AA
330
1F
100
AcDbEntity
  8
0
  6
CONTINUOUS
 62
     7
100
AcDbLine
 10
-2.135765392
 20
33.3127458597
 30
0.0
 11
-2.210865392
 21
33.1937958597
 31
0.0
  0
LINE
  5
4AB
330
1F
100
AcDbEntity
  8
0
  6
CONTINUOUS
 62
     7
100
AcDbLine
 10
-2.047315392
 20
33.4131958597
 30
0.0
 11
-2.135765392
 21
33.3127458597
 31
0.0
  0
LINE
  5
4AC
330
1F
100
AcDbEntity
  8
0
  6
CONTINUOUS
 62
     7
100
AcDbLine
 10
-1.850465392
 20
33.5643458597
 30
0.0
 11
-2.047315392
 21
33.4131958597
 31
0.0
  0
LINE
  5
4AD
330
1F
100
AcDbEntity
  8
0
  6
CONTINUOUS
 62
     7
100
AcDbLine
 10
-1.659965392
 20
33.6593458597
 30
0.0
 11
-1.850465392
 21
33.5643458597
 31
0.0
  0
LINE
  5
4AE
330
1F
100
AcDbEntity
  8
0
  6
CONTINUOUS
 62
     7
100
AcDbLine
 10
-6.544065392
 20
33.4063958597
 30
0.0
 11
-7.274115392
 21
33.2501458597
 31
0.0
  0
LINE
  5
4AF
330
1F
100
AcDbEntity
  8
0
  6
CONTINUOUS
 62
     7
100
AcDbLine
 10
-5.972965392
 20
33.4786458597
 30
0.0
 11
-6.544065392
 21
33.4063958597
 31
0.0
  0
LINE
  5
4B0
330
1F
100
AcDbEntity
  8
0
  6
CONTINUOUS
 62
     7
100
AcDbLine
 10
-5.758065392
 20
33.4840458597
 30
0.0
 11
-5.972965392
 21
33.4786458597
 31
0.0
  0
LINE
  5
4B1
330
1F
100
AcDbEntity
  8
0
  6
CONTINUOUS
 62
     7
100
AcDbLine
 10
-5.566965392
 20
33.4697458597
 30
0.0
 11
-5.758065392
 21
33.4840458597
 31
0.0
  0
LINE
  5
4B2
330
1F
100
AcDbEntity
  8
0
  6
CONTINUOUS
 62
     7
100
AcDbLine
 10
-5.398265392
 20
33.4383958597
 30
0.0
 11
-5.566965392
 21
33.4697458597
 31
0.0
  0
LINE
  5
4B3
330
1F
100
AcDbEntity
  8
0
  6
CONTINUOUS
 62
     7
100
AcDbLine
 10
-5.250515392
 20
33.3926458597
 30
0.0
 11
-5.398265392
 21
33.4383958597
 31
0.0
  0
LINE
  5
4B4
330
1F
100
AcDbEntity
  8
0
  6
CONTINUOUS
 62
     7
100
AcDbLine
 10
-5.122415392
 20
33.3350958597
 30
0.0
 11
-5.250515392
 21
33.3926458597
 31
0.0
  0
LINE
  5
4B5
330
1F
100
AcDbEntity
  8
0
  6
CONTINUOUS
 62
     7
100
AcDbLine
 10
-5.012465392
 20
33.2685458597
 30
0.0
 11
-5.122415392
 21
33.3350958597
 31
0.0
  0
LINE
  5
4B6
330
1F
100
AcDbEntity
  8
0
  6
CONTINUOUS
 62
     7
100
AcDbLine
 10
-4.841715392
 20
33.1187958597
 30
0.0
 11
-5.012465392
 21
33.2685458597
 31
0.0
  0
LINE
  5
4B7
330
1F
100
AcDbEntity
  8
0
  6
CONTINUOUS
 62
     7
100
AcDbLine
 10
-4.727065392
 20
32.9645958597
 30
0.0
 11
-4.841715392
 21
33.1187958597
 31
0.0
  0
LINE
  5
4B8
330
1F
100
AcDbEntity
  8
0
  6
CONTINUOUS
 62
     7
100
AcDbLine
 10
-4.657515392
 20
32.8272958597
 30
0.0
 11
-4.727065392
 21
32.9645958597
 31
0.0
  0
LINE
  5
4B9
330
1F
100
AcDbEntity
  8
0
  6
CONTINUOUS
 62
     7
100
AcDbLine
 10
-4.609065392
 20
32.6883958597
 30
0.0
 11
-4.657515392
 21
32.8272958597
 31
0.0
  0
LINE
  5
4BA
330
1F
100
AcDbEntity
  8
0
  6
CONTINUOUS
 62
     7
100
AcDbLine
 10
-4.581165392
 20
32.4623458597
 30
0.0
 11
-4.609065392
 21
32.6883958597
 31
0.0
  0
LINE
  5
4BB
330
1F
100
AcDbEntity
  8
0
  6
CONTINUOUS
 62
     7
100
AcDbLine
 10
-4.540265392
 20
32.2092958597
 30
0.0
 11
-4.581165392
 21
32.4623458597
 31
0.0
  0
LINE
  5
4BC
330
1F
100
AcDbEntity
  8
0
  6
CONTINUOUS
 62
     7
100
AcDbLine
 10
-4.472015392
 20
31.8751958597
 30
0.0
 11
-4.540265392
 21
32.2092958597
 31
0.0
  0
LINE
  5
4BD
330
1F
100
AcDbEntity
  8
0
  6
CONTINUOUS
 62
     7
100
AcDbLine
 10
-4.369265392
 20
31.4693958597
 30
0.0
 11
-4.472015392
 21
31.8751958597
 31
0.0
  0
LINE
  5
4BE
330
1F
100
AcDbEntity
  8
0
  6
CONTINUOUS
 62
     7
100
AcDbLine
 10
-4.224965392
 20
31.0010958597
 30
0.0
 11
-4.369265392
 21
31.4693958597
 31
0.0
  0
LINE
  5
4BF
330
1F
100
AcDbEntity
  8
0
  6
CONTINUOUS
 62
     7
100
AcDbLine
 10
-4.032065392
 20
30.4795458597
 30
0.0
 11
-4.224965392
 21
31.0010958597
 31
0.0
  0
LINE
  5
4C0
330
1F
100
AcDbEntity
  8
0
  6
CONTINUOUS
 62
     7
100
AcDbLine
 10
-3.783365392
 20
29.9140958597
 30
0.0
 11
-4.032065392
 21
30.4795458597
 31
0.0
  0
LINE
  5
4C1
330
1F
100
AcDbEntity
  8
0
  6
CONTINUOUS
 62
     7
100
AcDbLine
 10
-3.724865392
 20
29.7746458597
 30
0.0
 11
-3.783365392
 21
29.9140958597
 31
0.0
  0
LINE
  5
4C2
330
1F
100
AcDbEntity
  8
0
  6
CONTINUOUS
 62
     7
100
AcDbLine
 10
-3.688365392
 20
29.6482958597
 30
0.0
 11
-3.724865392
 21
29.7746458597
 31
0.0
  0
LINE
  5
4C3
330
1F
100
AcDbEntity
  8
0
  6
CONTINUOUS
 62
     7
100
AcDbLine
 10
-3.673015392
 20
29.5348958597
 30
0.0
 11
-3.688365392
 21
29.6482958597
 31
0.0
  0
LINE
  5
4C4
330
1F
100
AcDbEntity
  8
0
  6
CONTINUOUS
 62
     7
100
AcDbLine
 10
-3.678065392
 20
29.4340458597
 30
0.0
 11
-3.673015392
 21
29.5348958597
 31
0.0
  0
LINE
  5
4C5
330
1F
100
AcDbEntity
  8
0
  6
CONTINUOUS
 62
     7
100
AcDbLine
 10
-3.702615392
 20
29.3456458597
 30
0.0
 11
-3.678065392
 21
29.4340458597
 31
0.0
  0
LINE
  5
4C6
330
1F
100
AcDbEntity
  8
0
  6
CONTINUOUS
 62
     7
100
AcDbLine
 10
-3.745865392
 20
29.2693458597
 30
0.0
 11
-3.702615392
 21
29.3456458597
 31
0.0
  0
LINE
  5
4C7
330
1F
100
AcDbEntity
  8
0
  6
CONTINUOUS
 62
     7
100
AcDbLine
 10
-3.807065392
 20
29.2049458597
 30
0.0
 11
-3.745865392
 21
29.2693458597
 31
0.0
  0
LINE
  5
4C8
330
1F
100
AcDbEntity
  8
0
  6
CONTINUOUS
 62
     7
100
AcDbLine
 10
-3.885265392
 20
29.1521958597
 30
0.0
 11
-3.807065392
 21
29.2049458597
 31
0.0
  0
LINE
  5
4C9
330
1F
100
AcDbEntity
  8
0
  6
CONTINUOUS
 62
     7
100
AcDbLine
 10
-3.979715392
 20
29.1108458597
 30
0.0
 11
-3.885265392
 21
29.1521958597
 31
0.0
  0
LINE
  5
4CA
330
1F
100
AcDbEntity
  8
0
  6
CONTINUOUS
 62
     7
100
AcDbLine
 10
-4.089565392
 20
29.0806458597
 30
0.0
 11
-3.979715392
 21
29.1108458597
 31
0.0
  0
LINE
  5
4CB
330
1F
100
AcDbEntity
  8
0
  6
CONTINUOUS
 62
     7
100
AcDbLine
 10
-4.352165392
 20
29.0526958597
 30
0.0
 11
-4.089565392
 21
29.0806458597
 31
0.0
  0
LINE
  5
4CC
330
1F
100
AcDbEntity
  8
0
  6
CONTINUOUS
 62
     7
100
AcDbLine
 10
-4.666565392
 20
29.0663958597
 30
0.0
 11
-4.352165392
 21
29.0526958597
 31
0.0
  0
LINE
  5
4CD
330
1F
100
AcDbEntity
  8
0
  6
CONTINUOUS
 62
     7
100
AcDbLine
 10
-5.026065392
 20
29.1197458597
 30
0.0
 11
-4.666565392
 21
29.0663958597
 31
0.0
  0
LINE
  5
4CE
330
1F
100
AcDbEntity
  8
0
  6
CONTINUOUS
 62
     7
100
AcDbLine
 10
-5.424115392
 20
29.2106958597
 30
0.0
 11
-5.026065392
 21
29.1197458597
 31
0.0
  0
LINE
  5
4CF
330
1F
100
AcDbEntity
  8
0
  6
CONTINUOUS
 62
     7
100
AcDbLine
 10
-5.854115392
 20
29.3373958597
 30
0.0
 11
-5.424115392
 21
29.2106958597
 31
0.0
  0
LINE
  5
4D0
330
1F
100
AcDbEntity
  8
0
  6
CONTINUOUS
 62
     7
100
AcDbLine
 10
-6.309465392
 20
29.4977958597
 30
0.0
 11
-5.854115392
 21
29.3373958597
 31
0.0
  0
LINE
  5
4D1
330
1F
100
AcDbEntity
  8
0
  6
CONTINUOUS
 62
     7
100
AcDbLine
 10
-6.783565392
 20
29.6899458597
 30
0.0
 11
-6.309465392
 21
29.4977958597
 31
0.0
  0
LINE
  5
4D2
330
1F
100
AcDbEntity
  8
0
  6
CONTINUOUS
 62
     7
100
AcDbLine
 10
-7.269815392
 20
29.9118458597
 30
0.0
 11
-6.783565392
 21
29.6899458597
 31
0.0
  0
LINE
  5
4D3
330
1F
100
AcDbEntity
  8
0
  6
CONTINUOUS
 62
     7
100
AcDbLine
 10
-7.761615392
 20
30.1615458597
 30
0.0
 11
-7.269815392
 21
29.9118458597
 31
0.0
  0
LINE
  5
4D4
330
1F
100
AcDbEntity
  8
0
  6
CONTINUOUS
 62
     7
100
AcDbLine
 10
-8.252365392
 20
30.4369958597
 30
0.0
 11
-7.761615392
 21
30.1615458597
 31
0.0
  0
LINE
  5
4D5
330
1F
100
AcDbEntity
  8
0
  6
CONTINUOUS
 62
     7
100
AcDbLine
 10
-8.735465392
 20
30.7362958597
 30
0.0
 11
-8.252365392
 21
30.4369958597
 31
0.0
  0
LINE
  5
4D6
330
1F
100
AcDbEntity
  8
0
  6
CONTINUOUS
 62
     7
100
AcDbLine
 10
-8.955115392
 20
30.8895958597
 30
0.0
 11
-8.735465392
 21
30.7362958597
 31
0.0
  0
LINE
  5
4D7
330
1F
100
AcDbEntity
  8
0
  6
CONTINUOUS
 62
     7
100
AcDbLine
 10
-9.137615392
 20
31.0390958597
 30
0.0
 11
-8.955115392
 21
30.8895958597
 31
0.0
  0
LINE
  5
4D8
330
1F
100
AcDbEntity
  8
0
  6
CONTINUOUS
 62
     7
100
AcDbLine
 10
-9.284665392
 20
31.1846458597
 30
0.0
 11
-9.137615392
 21
31.0390958597
 31
0.0
  0
LINE
  5
4D9
330
1F
100
AcDbEntity
  8
0
  6
CONTINUOUS
 62
     7
100
AcDbLine
 10
-9.397965392
 20
31.3262958597
 30
0.0
 11
-9.284665392
 21
31.1846458597
 31
0.0
  0
LINE
  5
4DA
330
1F
100
AcDbEntity
  8
0
  6
CONTINUOUS
 62
     7
100
AcDbLine
 10
-9.479365392
 20
31.4638958597
 30
0.0
 11
-9.397965392
 21
31.3262958597
 31
0.0
  0
LINE
  5
4DB
330
1F
100
AcDbEntity
  8
0
  6
CONTINUOUS
 62
     7
100
AcDbLine
 10
-9.530515392
 20
31.5974958597
 30
0.0
 11
-9.479365392
 21
31.4638958597
 31
0.0
  0
LINE
  5
4DC
330
1F
100
AcDbEntity
  8
0
  6
CONTINUOUS
 62
     7
100
AcDbLine
 10
-9.553165392
 20
31.7269458597
 30
0.0
 11
-9.530515392
 21
31.5974958597
 31
0.0
  0
LINE
  5
4DD
330
1F
100
AcDbEntity
  8
0
  6
CONTINUOUS
 62
     7
100
AcDbLine
 10
-9.549115392
 20
31.8522958597
 30
0.0
 11
-9.553165392
 21
31.7269458597
 31
0.0
  0
LINE
  5
4DE
330
1F
100
AcDbEntity
  8
0
  6
CONTINUOUS
 62
     7
100
AcDbLine
 10
-9.520115392
 20
31.9733958597
 30
0.0
 11
-9.549115392
 21
31.8522958597
 31
0.0
  0
LINE
  5
4DF
330
1F
100
AcDbEntity
  8
0
  6
CONTINUOUS
 62
     7
100
AcDbLine
 10
-9.467815392
 20
32.0902958597
 30
0.0
 11
-9.520115392
 21
31.9733958597
 31
0.0
  0
LINE
  5
4E0
330
1F
100
AcDbEntity
  8
0
  6
CONTINUOUS
 62
     7
100
AcDbLine
 10
-9.394065392
 20
32.2028458597
 30
0.0
 11
-9.467815392
 21
32.0902958597
 31
0.0
  0
LINE
  5
4E1
330
1F
100
AcDbEntity
  8
0
  6
CONTINUOUS
 62
     7
100
AcDbLine
 10
-9.300565392
 20
32.3110458597
 30
0.0
 11
-9.394065392
 21
32.2028458597
 31
0.0
  0
LINE
  5
4E2
330
1F
100
AcDbEntity
  8
0
  6
CONTINUOUS
 62
     7
100
AcDbLine
 10
-9.061365392
 20
32.5141458597
 30
0.0
 11
-9.300565392
 21
32.3110458597
 31
0.0
  0
LINE
  5
4E3
330
1F
100
AcDbEntity
  8
0
  6
CONTINUOUS
 62
     7
100
AcDbLine
 10
-8.764115392
 20
32.6991458597
 30
0.0
 11
-9.061365392
 21
32.5141458597
 31
0.0
  0
LINE
  5
4E4
330
1F
100
AcDbEntity
  8
0
  6
CONTINUOUS
 62
     7
100
AcDbLine
 10
-8.422765392
 20
32.8656958597
 30
0.0
 11
-8.764115392
 21
32.6991458597
 31
0.0
  0
LINE
  5
4E5
330
1F
100
AcDbEntity
  8
0
  6
CONTINUOUS
 62
     7
100
AcDbLine
 10
-8.051365392
 20
33.0132958597
 30
0.0
 11
-8.422765392
 21
32.8656958597
 31
0.0
  0
LINE
  5
4E6
330
1F
100
AcDbEntity
  8
0
  6
CONTINUOUS
 62
     7
100
AcDbLine
 10
-7.663815392
 20
33.1415958597
 30
0.0
 11
-8.051365392
 21
33.0132958597
 31
0.0
  0
LINE
  5
4E7
330
1F
100
AcDbEntity
  8
0
  6
CONTINUOUS
 62
     7
100
AcDbLine
 10
-7.274115392
 20
33.2501458597
 30
0.0
 11
-7.663815392
 21
33.1415958597
 31
0.0
  0
ENDSEC
  0
SECTION
  2
OBJECTS
  0
DICTIONARY
  5
C
330
0
100
AcDbDictionary
  3
ACAD_GROUP
350
D
  3
ACAD_MLINESTYLE
350
17
  3
ACAD_SCALELIST
350
47
1001
ACAD
1000
TREAT_AS_HARD
1070
     0
  0
DICTIONARY
  5
D
102
{ACAD_REACTORS
330
C
102
}
330
C
100
AcDbDictionary
1001
ACAD
1000
TREAT_AS_HARD
1070
     0
  0
DICTIONARY
  5
17
102
{ACAD_REACTORS
330
C
102
}
330
C
100
AcDbDictionary
  3
STANDARD
350
18
1001
ACAD
1000
TREAT_AS_HARD
1070
     0
  0
DICTIONARY
  5
47
102
{ACAD_REACTORS
330
C
102
}
330
C
100
AcDbDictionary
1001
ACAD
1000
TREAT_AS_HARD
1070
     0
  0
MLINESTYLE
  5
18
102
{ACAD_REACTORS
330
17
102
}
330
17
100
AcDbMlineStyle
  2
Standard
 70
     0
  3

 62
   256
 51
90.0
 52
90.0
 71
     2
 49
0.5
 62
   256
  6
BYLAYER
 49
-0.5
 62
   256
  6
BYLAYER
  0
ENDSEC
  0
EOF
