SolidWorks IGES file using NURBS representation for surfaces            S      1
1H,,1H;,31HRubber Strip Flat Part by Tommy,65HC:\Users\PDXeffects\DownloG      1
ads\Rubber Strip Flat Part by Tommy.IGS,15HSolidWorks 2013,15HSolidWorksG      2
 2013,32,308,15,308,15,31HRubber Strip Flat Part by Tommy,1.,1,2HIN,50, G      3
0.125,13H140225.092541,1E-008,19684.6456692913,10HPDXeffects,,11,0,13H14G      4
0225.092541;                                                            G      5
     314       1       0       0       0                        00000200D      1
     314       0       8       1       0                               0D      2
     502       2       0       0       0                        00010000D      3
     502       0       0       5       1                               0D      4
     124       7       0       0       0                        00000000D      5
     124       0       0       4       0                               0D      6
     100      11       0       0       0               5        00010000D      7
     100       0       0       2       0                               0D      8
     124      13       0       0       0                        00000000D      9
     124       0       0       4       0                               0D     10
     100      17       0       0       0               9        00010000D     11
     100       0       0       2       0                               0D     12
     124      19       0       0       0                        00000000D     13
     124       0       0       4       0                               0D     14
     100      23       0       0       0              13        00010000D     15
     100       0       0       2       0                               0D     16
     124      25       0       0       0                        00000000D     17
     124       0       0       4       0                               0D     18
     100      29       0       0       0              17        00010000D     19
     100       0       0       2       0                               0D     20
     124      31       0       0       0                        00000000D     21
     124       0       0       4       0                               0D     22
     100      35       0       0       0              21        00010000D     23
     100       0       0       2       0                               0D     24
     110      37       0       0       0                        01010000D     25
     110       0       0       2       0                               0D     26
     124      39       0       0       0                        00000000D     27
     124       0       0       4       0                               0D     28
     100      43       0       0       0              27        00010000D     29
     100       0       0       2       0                               0D     30
     110      45       0       0       0                        01010000D     31
     110       0       0       2       0                               0D     32
     124      47       0       0       0                        00000000D     33
     124       0       0       4       0                               0D     34
     100      51       0       0       0              33        00010000D     35
     100       0       0       2       0                               0D     36
     110      53       0       0       0                        01010000D     37
     110       0       0       2       0                               0D     38
     124      55       0       0       0                        00000000D     39
     124       0       0       4       0                               0D     40
     100      59       0       0       0              39        00010000D     41
     100       0       0       2       0                               0D     42
     110      61       0       0       0                        01010000D     43
     110       0       0       2       0                               0D     44
     504      63       0       0       0                        00010000D     45
     504       0       0       3       1                               0D     46
     128      66       0       0       0                        01010000D     47
     128       0      -1       8       0                               0D     48
     508      74       0       0       0                        00010000D     49
     508       0       0       1       1                               0D     50
     510      75       0       0       0                        00010000D     51
     510       0      -1       1       1                               0D     52
     128      76       0       0       0                        01010000D     53
     128       0      -1       8       0                               0D     54
     508      84       0       0       0                        00010000D     55
     508       0       0       1       1                               0D     56
     510      85       0       0       0                        00010000D     57
     510       0      -1       1       1                               0D     58
     128      86       0       0       0                        01010000D     59
     128       0      -1       4       0                               0D     60
     508      90       0       0       0                        00010000D     61
     508       0       0       1       1                               0D     62
     510      91       0       0       0                        00010000D     63
     510       0      -1       1       1                               0D     64
     128      92       0       0       0                        01010000D     65
     128       0      -1       4       0                               0D     66
     508      96       0       0       0                        00010000D     67
     508       0       0       1       1                               0D     68
     510      97       0       0       0                        00010000D     69
     510       0      -1       1       1                               0D     70
     128      98       0       0       0                        01010000D     71
     128       0      -1       8       0                               0D     72
     508     106       0       0       0                        00010000D     73
     508       0       0       1       1                               0D     74
     510     107       0       0       0                        00010000D     75
     510       0      -1       1       1                               0D     76
     128     108       0       0       0                        01010000D     77
     128       0      -1       8       0                               0D     78
     508     116       0       0       0                        00010000D     79
     508       0       0       1       1                               0D     80
     510     117       0       0       0                        00010000D     81
     510       0      -1       1       1                               0D     82
     514     118       0       0       0                        00010000D     83
     514       0       0       1       1                               0D     84
     186     119       0       0       0                        00000000D     85
     186       0       0       1       0                               0D     86
     110     120       0       0       0                        00000000D     87
     110       0       0       2       0                               0D     88
     124     122       0       0       0                        00000000D     89
     124       0       0       4       0                               0D     90
     100     126       0       0       0              89        00000000D     91
     100       0       0       2       0                               0D     92
     110     128       0       0       0                        00000000D     93
     110       0       0       2       0                               0D     94
     124     130       0       0       0                        00000000D     95
     124       0       0       4       0                               0D     96
     100     134       0       0       0              95        00000000D     97
     100       0       0       2       0                               0D     98
     124     136       0       0       0                        00000000D     99
     124       0       0       4       0                               0D    100
     100     140       0       0       0              99        00000000D    101
     100       0       0       2       0                               0D    102
     110     142       0       0       0                        00000000D    103
     110       0       0       2       0                               0D    104
     124     144       0       0       0                        00000000D    105
     124       0       0       4       0                               0D    106
     100     148       0       0       0             105        00000000D    107
     100       0       0       2       0                               0D    108
     110     150       0       0       0                        00000000D    109
     110       0       0       2       0                               0D    110
     124     152       0       0       0                        00000000D    111
     124       0       0       4       0                               0D    112
     100     156       0       0       0             111        00000000D    113
     100       0       0       2       0                               0D    114
     124     158       0       0       0                        00000000D    115
     124       0       0       4       0                               0D    116
     100     162       0       0       0             115        00000000D    117
     100       0       0       2       0                               0D    118
     124     164       0       0       0                        00000000D    119
     124       0       0       4       0                               0D    120
     100     168       0       0       0             119        00000000D    121
     100       0       0       2       0                               0D    122
     124     170       0       0       0                        00000000D    123
     124       0       0       4       0                               0D    124
     100     174       0       0       0             123        00000000D    125
     100       0       0       2       0                               0D    126
314,79.2156862745098,81.9607843137255,93.3333333333333,;               1P      1
502,8,7.754430639,0.950742675,-0.188229496,-6.225284443,               3P      2
0.609564429,0.170305491,-3.979718529,2.345098144,0.132782347,          3P      3
-3.980372118,2.345098144,0.108891286,5.427586716,2.574696383,          3P      4
-0.124573883,5.426933127,2.574696383,-0.148464945,-6.224630854,        3P      5
0.609564429,0.194196552,7.75377705,0.950742675,-0.212120558;           3P      6
124,-0.361630472602372,-0.931920357195016,0.0273468303629333,          5P      7
-5.11794340602465,0.93226902068257,-0.361765771011523,                 5P      8
-1.8844241869061E-018,-1.12909264203202,0.00989314717096789,           5P      9
0.0254946027612242,0.999626005498607,0.0805641106755055;               5P     10
100,0.05942555,-2.172219755,-2.316246959,2.827780245,                  7P     11
-2.316246959,2.022232212,0.40525496;                                   7P     12
124,-0.132515717244941,0.990803580712222,0.0273468303629331,           9P     13
-31.821619189346,-0.991174274440785,-0.132565295936697,                9P     14
1.11022302462516E-016,36.3745771075461,0.00362524065999299,            9P     15
-0.0271054747432354,0.999626005498607,0.870545997526114;               9P     16
100,4E-009,-1.37E-007,32.116980251,30.036980115,32.116980251,         11P     17
28.561859467,41.414310977;                                            11P     18
124,0.241422983284847,-0.970034583925205,-0.0273468303629262,         13P     19
31.154581471507,-0.970397507257085,-0.241513307934028,                13P     20
-6.05135874454997E-018,39.873658260116,-0.00660462346246102,          13P     21
0.026537296015566,-0.999626005498607,-0.852297805487002;              13P     22
100,4E-009,-1.37E-007,32.116980251,32.116980115,32.116980251,         15P     23
29.070666125,45.76970099;                                             15P     24
124,0.241422983284847,-0.970034583925205,-0.0273468303629262,         17P     25
31.1557306140941,-0.970397507257085,-0.241513307934028,               17P     26
-6.05135874454997E-018,39.8742925014908,-0.00660462346246102,         17P     27
0.026537296015566,-0.999626005498607,-0.804520300838947;              17P     28
100,0.023891065,0.000653453,32.116980251,32.117633704,                19P     29
32.116980251,29.071319714,45.76970099;                                19P     30
124,-0.13251571724494,0.990803580712222,0.0273468303629331,           21P     31
-31.8215323340595,-0.991174274440785,-0.132565295936696,              21P     32
1.11022302462516E-016,36.3752249283924,0.00362524065999296,           21P     33
-0.0271054747432354,0.999626005498607,0.87055256323345;               21P     34
100,0.023891065,0.000653453,32.116980251,30.037633704,                23P     35
32.116980251,28.562513056,41.414310977;                               23P     36
110,7.754430639,0.950742675,-0.188229496,7.75377705,                  25P     37
0.950742675,-0.212120558;                                             25P     38
124,0.781123473671131,-0.623777420037827,0.0273468303629333,          27P     39
-0.5085269572684,0.624010796644582,0.781415718853284,                 27P     40
-1.8844241869061E-018,-2.87587838813174,-0.0213692431064104,          27P     41
0.0170647174004783,0.999626005498607,0.119234473985501;               27P     42
100,-0.081383281,3.848813271,-2.169311308,8.848813271,                29P     43
-2.169311308,8.043265238,0.55219061;                                  29P     44
110,-6.224630854,0.609564429,0.194196552,-6.225284443,                31P     45
0.609564429,0.170305491;                                              31P     46
124,0.781123473671131,-0.623777420037827,0.0273468303629333,          33P     47
-0.508016667805249,0.624010796644582,0.781415718853284,               33P     48
-1.8844241869061E-018,-2.87547054138587,-0.0213692431064104,          33P     49
0.0170647174004783,0.999626005498607,0.119211572152374;               33P     50
100,-0.105274342,3.848159681,-2.169311308,8.848159681,                35P     51
-2.169311308,8.042611649,0.55219061;                                  35P     52
110,-3.979718529,2.345098144,0.132782347,-3.980372118,                37P     53
2.345098144,0.108891286;                                              37P     54
124,-0.361630472602372,-0.931920357195016,0.0273468303629333,         39P     55
-5.11770680379807,0.93226902068257,-0.361765771011523,                39P     56
-1.8844241869061E-018,-1.12970196303801,0.00989314717096789,          39P     57
0.0254946027612242,0.999626005498607,0.0805665797465539;              39P     58
100,0.083316612,-2.171566166,-2.316246959,2.828433834,                41P     59
-2.316246959,2.022885801,0.40525496;                                  41P     60
110,5.427586716,2.574696383,-0.124573883,5.426933127,                 43P     61
2.574696383,-0.148464945;                                             43P     62
504,12,7,3,4,3,2,11,3,4,3,6,15,3,8,3,2,19,3,1,3,7,23,3,3,3,5,         45P     63
25,3,1,3,8,29,3,1,3,5,31,3,7,3,2,35,3,8,3,6,37,3,3,3,4,41,3,3,        45P     64
3,7,43,3,5,3,6;                                                       45P     65
128,3,1,3,1,0,0,0,0,0,0.,0.,0.,0.,1.,1.,1.,1.,0.,0.,1.,1.,1.,         47P     66
0.983999560568959,0.983999560568959,1.,1.,0.983999560568959,          47P     67
0.983999560568959,1.,7.754430639,0.950742675,-0.188229496,            47P     68
3.157787998,-0.193701439,-0.062478859,-1.577668552,                   47P     69
-0.309276777,0.067069318,-6.224630854,0.609564429,0.194196552,        47P     70
7.75377705,0.950742675,-0.212120558,3.157134408,-0.193701439,         47P     71
-0.086369921,-1.578322142,-0.309276777,0.043178256,                   47P     72
-6.225284443,0.609564429,0.170305491,0.,1.,0.,1.;                     47P     73
508,4,0,45,6,0,0,0,45,4,1,0,0,45,8,1,0,0,45,3,0,0;                    49P     74
510,47,1,1,49;                                                        51P     75
128,3,1,3,1,0,0,0,0,0,0.,0.,0.,0.,1.,1.,1.,1.,0.,0.,1.,1.,1.,         53P     76
0.991764102255224,0.991764102255224,1.,1.,0.991764102255224,          53P     77
0.991764102255224,1.,5.426933127,2.574696383,-0.148464945,            53P     78
2.316272674,2.00283874,-0.063366415,-0.845536075,1.925670443,         53P     79
0.023131383,-3.980372118,2.345098144,0.108891286,5.427586716,         53P     80
2.574696383,-0.124573883,2.316926263,2.00283874,-0.039475353,         53P     81
-0.844882486,1.925670443,0.047022444,-3.979718529,2.345098144,        53P     82
0.132782347,0.,1.,0.,1.;                                              53P     83
508,4,0,45,10,0,0,0,45,5,1,0,0,45,12,1,0,0,45,2,0,0;                  55P     84
510,53,1,1,55;                                                        57P     85
128,1,1,1,1,0,0,1,0,0,0.,0.,1.,1.,0.,0.,1.,1.,1.,1.,1.,1.,            59P     86
6.816070313,5.059025799,-0.186467656,7.839305328,0.94614187,          59P     87
-0.21446036,-6.586464303,1.722144286,0.180186311,-5.563229288,        59P     88
-2.390739643,0.152193607,0.,1.,0.,1.;                                 59P     89
508,4,0,45,1,0,0,0,45,2,1,0,0,45,9,0,0,0,45,3,1,0;                    61P     90
510,59,1,1,61;                                                        63P     91
128,1,1,1,1,0,0,1,0,0,0.,0.,1.,1.,0.,0.,1.,1.,1.,1.,1.,1.,            65P     92
6.816723902,5.059025799,-0.162576595,7.839958918,0.94614187,          65P     93
-0.190569298,-6.585810714,1.722144286,0.204077372,-5.562575699,       65P     94
-2.390739643,0.176084669,0.,1.,0.,1.;                                 65P     95
508,4,0,45,5,0,0,0,45,11,1,0,0,45,4,0,0,0,45,7,1,0;                   67P     96
510,65,1,1,67;                                                        69P     97
128,3,1,3,1,0,0,0,0,0,0.,0.,0.,0.,1.,1.,1.,1.,0.,0.,1.,1.,1.,         71P     98
0.972584699901441,0.972584699901441,1.,1.,0.972584699901441,          71P     99
0.972584699901441,1.,7.754430639,0.950742675,-0.188229496,            71P    100
7.147657031,1.710857452,-0.171629953,6.350179299,2.26743407,          71P    101
-0.149813305,5.427586716,2.574696383,-0.124573883,7.75377705,         71P    102
0.950742675,-0.212120558,7.147003442,1.710857452,-0.195521015,        71P    103
6.34952571,2.26743407,-0.173704367,5.426933127,2.574696383,           71P    104
-0.148464945,0.,1.,0.,1.;                                             71P    105
508,4,0,45,9,1,0,0,45,12,0,0,0,45,7,0,0,0,45,6,1,0;                   73P    106
510,71,1,1,73;                                                        75P    107
128,3,1,3,1,0,0,0,0,0,0.,0.,0.,0.,1.,1.,1.,1.,0.,0.,1.,1.,1.,         77P    108
0.972584699901439,0.972584699901439,1.,1.,0.972584699901439,          77P    109
0.972584699901439,1.,-3.979718529,2.345098144,0.132782347,            77P    110
-4.886235276,1.993193899,0.157581982,-5.655632644,1.398375537,        77P    111
0.178630433,-6.224630854,0.609564429,0.194196552,-3.980372118,        77P    112
2.345098144,0.108891286,-4.886888865,1.993193899,0.13369092,          77P    113
-5.656286233,1.398375537,0.154739372,-6.225284443,0.609564429,        77P    114
0.170305491,0.,1.,0.,1.;                                              77P    115
508,4,0,45,1,1,0,0,45,8,0,0,0,45,11,0,0,0,45,10,1,0;                  79P    116
510,77,1,1,79;                                                        81P    117
514,6,51,1,57,1,63,1,69,1,75,1,81,1;                                  83P    118
186,83,1,0;                                                           85P    119
110,7.75377705,0.950742675,-0.212120558,7.754430639,                  87P    120
0.950742675,-0.188229496;                                             87P    121
124,0.241422983284847,-0.970034583925205,-0.0273468303629262,         89P    122
31.1557306140941,-0.970397507257085,-0.241513307934028,               89P    123
-6.05135874454997E-018,39.8742925014908,-0.00660462346246102,         89P    124
0.026537296015566,-0.999626005498607,-0.804520300838947;              89P    125
100,0.023891065,0.000653453,32.116980251,32.117633704,                91P    126
32.116980251,29.071319714,45.76970099;                                91P    127
110,-6.224630854,0.609564429,0.194196552,-6.225284443,                93P    128
0.609564429,0.170305491;                                              93P    129
124,-0.19383155756343,0.980653597434709,0.0273468303629334,           95P    130
-31.4956323852428,-0.981020493705108,-0.193904076621885,              95P    131
6.05135874455154E-018,38.3445935168355,0.00530266189005992,           95P    132
-0.0268278010239147,0.999626005498607,0.861627956395414;              95P    133
100,4E-009,-1.37E-007,32.116980251,32.116980115,32.116980251,         97P    134
29.070666125,45.76970099;                                             97P    135
124,-0.132515717244941,0.990803580712222,0.0273468303629331,          99P    136
-31.821619189346,-0.991174274440785,-0.132565295936697,               99P    137
1.11022302462516E-016,36.3745771075461,0.00362524065999299,           99P    138
-0.0271054747432354,0.999626005498607,0.870545997526114;              99P    139
100,4E-009,-1.37E-007,32.116980251,30.036980115,32.116980251,        101P    140
28.561859467,41.414310977;                                           101P    141
110,5.426933127,2.574696383,-0.148464945,5.427586716,                103P    142
2.574696383,-0.124573883;                                            103P    143
124,0.180675061806243,-0.983162587220655,-0.0273468303629262,        105P    144
31.5774021325669,-0.983530422190507,-0.180742658566715,              105P    145
-1.11022302462488E-016,37.9225313376429,-0.00494273882316813,        105P    146
0.026896439612421,-0.999626005498607,-0.816055994609541;             105P    147
100,0.023891065,0.000653453,32.116980251,30.037633704,               107P    148
32.116980251,28.562513056,41.414310977;                              107P    149
110,-3.979718529,2.345098144,0.132782347,-3.980372118,               109P    150
2.345098144,0.108891286;                                             109P    151
124,-0.81061293749605,0.584943430113654,-0.0273468303629262,         111P    152
-2.57655065051619,0.585162277587894,0.810916215701812,               111P    153
1.88442418690561E-018,0.833136319090809,0.0221759881893436,          111P    154
-0.0160023335399797,-0.999626005498607,0.129934638392018;            111P    155
100,0.05942555,-2.172219755,-2.316246959,2.827780245,                113P    156
-2.316246959,2.022232212,0.40525496;                                 113P    157
124,0.315754689072935,0.9484466918059,-0.0273468303629262,           115P    158
4.68768243213412,0.948801538364161,-0.315872823772165,               115P    159
1.88442418690561E-018,-6.50567762269432,-0.00863812052795589,        115P    160
-0.0259467147177282,-0.999626005498607,-0.233554946576528;           115P    161
100,-0.105274342,3.848159681,-2.169311308,8.848159681,               117P    162
-2.169311308,8.042611649,0.55219061;                                 117P    163
124,0.315754689072935,0.9484466918059,-0.0273468303629262,           119P    164
4.68878299231763,0.948801538364161,-0.315872823772165,               119P    165
1.88442418690561E-018,-6.50629774917607,-0.00863812052795589,        119P    166
-0.0259467147177282,-0.999626005498607,-0.185776112856662;           119P    167
100,-0.081383281,3.848813271,-2.169311308,8.848813271,               121P    168
-2.169311308,8.043265238,0.55219061;                                 121P    169
124,-0.810612937496048,0.584943430113656,-0.0273468303629262,        123P    170
-2.57471390856526,0.585162277587896,0.810916215701811,               123P    171
1.88442418690561E-018,0.832753863319204,0.0221759881893435,          123P    172
-0.0160023335399798,-0.999626005498607,0.177693332341816;            123P    173
100,0.083316612,-2.171566166,-2.316246959,2.828433834,               125P    174
-2.316246959,2.022885801,0.40525496;                                 125P    175
S      1G      5D    126P    175                                        T      1
