ISO-10303-21;
HEADER;
FILE_DESCRIPTION (( 'STEP AP214' ),
    '1' );
FILE_NAME ('Coil.STEP',
    '2024-11-06T13:24:41',
    ( '' ),
    ( '' ),
    'SwSTEP 2.0',
    'SolidWorks 2023',
    '' );
FILE_SCHEMA (( 'AUTOMOTIVE_DESIGN' ));
ENDSEC;

DATA;
#1 = CARTESIAN_POINT ( 'NONE',  ( 0.000000000000000000, 0.000000000000000000, 0.000000000000000000 ) ) ;
#2 = EDGE_CURVE ( 'NONE', #198, #197, #172, .T. ) ;
#3 =( LENGTH_UNIT ( ) NAMED_UNIT ( * ) SI_UNIT ( .MILLI., .METRE. ) );
#4 = AXIS2_PLACEMENT_3D ( 'NONE', #13, #63, #118 ) ;
#5 = CIRCLE ( 'NONE', #119, 17.75000000000000711 ) ;
#6 = DIRECTION ( 'NONE',  ( 0.000000000000000000, -0.000000000000000000, 1.000000000000000000 ) ) ;
#7 = VERTEX_POINT ( 'NONE', #43 ) ;
#8 = DIRECTION ( 'NONE',  ( 0.000000000000000000, 1.000000000000000000, 0.000000000000000000 ) ) ;
#9 = VECTOR ( 'NONE', #188, 1000.000000000000000 ) ;
#10 = CARTESIAN_POINT ( 'NONE',  ( 0.000000000000000000, 0.000000000000000000, 0.000000000000000000 ) ) ;
#11 = DIRECTION ( 'NONE',  ( 0.000000000000000000, 0.000000000000000000, -1.000000000000000000 ) ) ;
#12 = ORIENTED_EDGE ( 'NONE', *, *, #69, .T. ) ;
#13 = CARTESIAN_POINT ( 'NONE',  ( 0.000000000000000000, 0.000000000000000000, 0.000000000000000000 ) ) ;
#14 = AXIS2_PLACEMENT_3D ( 'NONE', #166, #99, #97 ) ;
#15 = EDGE_CURVE ( 'NONE', #197, #7, #185, .T. ) ;
#16 =( GEOMETRIC_REPRESENTATION_CONTEXT ( 3 ) GLOBAL_UNCERTAINTY_ASSIGNED_CONTEXT ( ( #21 ) ) GLOBAL_UNIT_ASSIGNED_CONTEXT ( ( #3, #169, #105 ) ) REPRESENTATION_CONTEXT ( 'NONE', 'WORKASPACE' ) );
#17 = EDGE_LOOP ( 'NONE', ( #123, #168 ) ) ;
#18 = DIRECTION ( 'NONE',  ( -0.000000000000000000, -1.000000000000000000, -0.000000000000000000 ) ) ;
#19 = ORIENTED_EDGE ( 'NONE', *, *, #152, .T. ) ;
#20 = CIRCLE ( 'NONE', #27, 8.500000000000001776 ) ;
#21 = UNCERTAINTY_MEASURE_WITH_UNIT (LENGTH_MEASURE( 1.000000000000000082E-05 ), #3, 'distance_accuracy_value', 'NONE');
#22 = ADVANCED_FACE ( 'NONE', ( #153 ), #184, .F. ) ;
#23 = SURFACE_STYLE_USAGE ( .BOTH. , #28 ) ;
#24 = CIRCLE ( 'NONE', #48, 8.500000000000001776 ) ;
#25 = DIRECTION ( 'NONE',  ( 0.000000000000000000, 0.000000000000000000, -1.000000000000000000 ) ) ;
#26 = DIRECTION ( 'NONE',  ( 0.000000000000000000, 0.000000000000000000, 1.000000000000000000 ) ) ;
#27 = AXIS2_PLACEMENT_3D ( 'NONE', #157, #142, #72 ) ;
#28 = SURFACE_SIDE_STYLE ('',( #85 ) ) ;
#29 = ORIENTED_EDGE ( 'NONE', *, *, #2, .T. ) ;
#30 = DIRECTION ( 'NONE',  ( 0.000000000000000000, 1.000000000000000000, 0.000000000000000000 ) ) ;
#31 = ORIENTED_EDGE ( 'NONE', *, *, #2, .F. ) ;
#32 = VERTEX_POINT ( 'NONE', #90 ) ;
#33 = DIRECTION ( 'NONE',  ( 0.000000000000000000, 1.000000000000000000, 0.000000000000000000 ) ) ;
#34 = CIRCLE ( 'NONE', #111, 17.75000000000000711 ) ;
#35 = CIRCLE ( 'NONE', #98, 8.500000000000001776 ) ;
#36 = CARTESIAN_POINT ( 'NONE',  ( 0.000000000000000000, 32.00000000000000000, -17.75000000000000711 ) ) ;
#37 = FACE_BOUND ( 'NONE', #136, .T. ) ;
#38 = FACE_OUTER_BOUND ( 'NONE', #151, .T. ) ;
#39 = FILL_AREA_STYLE_COLOUR ( '', #61 ) ;
#40 = MECHANICAL_DESIGN_GEOMETRIC_PRESENTATION_REPRESENTATION (  '', ( #191 ), #181 ) ;
#41 = PRODUCT_RELATED_PRODUCT_CATEGORY ( 'part', '', ( #139 ) ) ;
#42 = ORIENTED_EDGE ( 'NONE', *, *, #161, .T. ) ;
#43 = CARTESIAN_POINT ( 'NONE',  ( 0.000000000000000000, 0.000000000000000000, -17.75000000000000711 ) ) ;
#44 = CARTESIAN_POINT ( 'NONE',  ( 2.173748068486552430E-15, 32.00000000000000000, 17.75000000000000711 ) ) ;
#45 = ORIENTED_EDGE ( 'NONE', *, *, #65, .T. ) ;
#46 = DIRECTION ( 'NONE',  ( 0.000000000000000000, 1.000000000000000000, 0.000000000000000000 ) ) ;
#47 = EDGE_CURVE ( 'NONE', #104, #199, #126, .T. ) ;
#48 = AXIS2_PLACEMENT_3D ( 'NONE', #86, #193, #56 ) ;
#49 = CARTESIAN_POINT ( 'NONE',  ( 2.173748068486552430E-15, 0.000000000000000000, 17.75000000000000711 ) ) ;
#50 = EDGE_CURVE ( 'NONE', #199, #32, #35, .T. ) ;
#51 = CARTESIAN_POINT ( 'NONE',  ( 0.000000000000000000, 32.00000000000000000, 0.000000000000000000 ) ) ;
#52 = PLANE ( 'NONE',  #67 ) ;
#53 = ORIENTED_EDGE ( 'NONE', *, *, #47, .T. ) ;
#54 = CARTESIAN_POINT ( 'NONE',  ( 1.040949779275250337E-15, 32.00000000000000000, 8.500000000000001776 ) ) ;
#55 =( NAMED_UNIT ( * ) SI_UNIT ( $, .STERADIAN. ) SOLID_ANGLE_UNIT ( ) );
#56 = DIRECTION ( 'NONE',  ( 0.000000000000000000, 0.000000000000000000, 1.000000000000000000 ) ) ;
#57 = ORIENTED_EDGE ( 'NONE', *, *, #159, .F. ) ;
#58 = EDGE_CURVE ( 'NONE', #32, #199, #145, .T. ) ;
#59 = ORIENTED_EDGE ( 'NONE', *, *, #58, .T. ) ;
#60 = ORIENTED_EDGE ( 'NONE', *, *, #47, .F. ) ;
#61 = COLOUR_RGB ( '',0.7921568627450980005, 0.8196078431372548767, 0.9333333333333333481 ) ;
#62 = VERTEX_POINT ( 'NONE', #93 ) ;
#63 = DIRECTION ( 'NONE',  ( 0.000000000000000000, 0.000000000000000000, 1.000000000000000000 ) ) ;
#64 = CARTESIAN_POINT ( 'NONE',  ( 0.000000000000000000, 0.000000000000000000, 0.000000000000000000 ) ) ;
#65 = EDGE_CURVE ( 'NONE', #104, #121, #20, .T. ) ;
#66 = SHAPE_DEFINITION_REPRESENTATION ( #186, #144 ) ;
#67 = AXIS2_PLACEMENT_3D ( 'NONE', #114, #116, #178 ) ;
#68 = DIRECTION ( 'NONE',  ( 0.000000000000000000, 1.000000000000000000, 0.000000000000000000 ) ) ;
#69 = EDGE_CURVE ( 'NONE', #198, #62, #141, .T. ) ;
#70 = PRODUCT_DEFINITION_FORMATION_WITH_SPECIFIED_SOURCE ( 'ANY', '', #139, .NOT_KNOWN. ) ;
#71 = LINE ( 'NONE', #113, #128 ) ;
#72 = DIRECTION ( 'NONE',  ( 0.000000000000000000, 0.000000000000000000, 1.000000000000000000 ) ) ;
#73 = VECTOR ( 'NONE', #170, 1000.000000000000000 ) ;
#74 = FACE_OUTER_BOUND ( 'NONE', #187, .T. ) ;
#75 = CARTESIAN_POINT ( 'NONE',  ( 1.040949779275250337E-15, 0.000000000000000000, 8.500000000000001776 ) ) ;
#76 = ORIENTED_EDGE ( 'NONE', *, *, #94, .F. ) ;
#77 = CLOSED_SHELL ( 'NONE', ( #22, #194, #167, #120, #122, #84 ) ) ;
#78 = CARTESIAN_POINT ( 'NONE',  ( 1.040949779275250337E-15, 32.00000000000000000, 8.500000000000001776 ) ) ;
#79 = AXIS2_PLACEMENT_3D ( 'NONE', #10, #163, #6 ) ;
#80 = AXIS2_PLACEMENT_3D ( 'NONE', #51, #179, #25 ) ;
#81 = FACE_OUTER_BOUND ( 'NONE', #117, .T. ) ;
#82 = ORIENTED_EDGE ( 'NONE', *, *, #94, .T. ) ;
#83 = CARTESIAN_POINT ( 'NONE',  ( 0.000000000000000000, 32.00000000000000000, -8.500000000000001776 ) ) ;
#84 = ADVANCED_FACE ( 'NONE', ( #38 ), #129, .F. ) ;
#85 = SURFACE_STYLE_FILL_AREA ( #195 ) ;
#86 = CARTESIAN_POINT ( 'NONE',  ( 0.000000000000000000, 32.00000000000000000, 0.000000000000000000 ) ) ;
#87 = APPLICATION_PROTOCOL_DEFINITION ( 'draft international standard', 'automotive_design', 1998, #92 ) ;
#88 = DIRECTION ( 'NONE',  ( 0.000000000000000000, 0.000000000000000000, 1.000000000000000000 ) ) ;
#89 = CARTESIAN_POINT ( 'NONE',  ( 0.000000000000000000, 32.00000000000000000, 0.000000000000000000 ) ) ;
#90 = CARTESIAN_POINT ( 'NONE',  ( 0.000000000000000000, 0.000000000000000000, -8.500000000000001776 ) ) ;
#91 = EDGE_LOOP ( 'NONE', ( #42, #53, #183, #76 ) ) ;
#92 = APPLICATION_CONTEXT ( 'automotive_design' ) ;
#93 = CARTESIAN_POINT ( 'NONE',  ( 0.000000000000000000, 32.00000000000000000, -17.75000000000000711 ) ) ;
#94 = EDGE_CURVE ( 'NONE', #121, #32, #71, .T. ) ;
#95 = AXIS2_PLACEMENT_3D ( 'NONE', #89, #171, #154 ) ;
#96 = MANIFOLD_SOLID_BREP ( 'Boss-Extrude1', #77 ) ;
#97 = DIRECTION ( 'NONE',  ( 0.000000000000000000, 0.000000000000000000, -1.000000000000000000 ) ) ;
#98 = AXIS2_PLACEMENT_3D ( 'NONE', #1, #46, #110 ) ;
#99 = DIRECTION ( 'NONE',  ( -0.000000000000000000, -1.000000000000000000, -0.000000000000000000 ) ) ;
#100 = CARTESIAN_POINT ( 'NONE',  ( 0.000000000000000000, 32.00000000000000000, 0.000000000000000000 ) ) ;
#101 = DIRECTION ( 'NONE',  ( -0.000000000000000000, -1.000000000000000000, -0.000000000000000000 ) ) ;
#102 = CYLINDRICAL_SURFACE ( 'NONE', #115, 17.75000000000000711 ) ;
#103 = PRESENTATION_LAYER_ASSIGNMENT (  '', '', ( #191 ) ) ;
#104 = VERTEX_POINT ( 'NONE', #54 ) ;
#105 =( NAMED_UNIT ( * ) SI_UNIT ( $, .STERADIAN. ) SOLID_ANGLE_UNIT ( ) );
#106 = CARTESIAN_POINT ( 'NONE',  ( 2.173748068486552430E-15, 32.00000000000000000, 17.75000000000000711 ) ) ;
#107 = CARTESIAN_POINT ( 'NONE',  ( 0.000000000000000000, 0.000000000000000000, 0.000000000000000000 ) ) ;
#108 = ORIENTED_EDGE ( 'NONE', *, *, #15, .F. ) ;
#109 = ORIENTED_EDGE ( 'NONE', *, *, #50, .F. ) ;
#110 = DIRECTION ( 'NONE',  ( 0.000000000000000000, 0.000000000000000000, 1.000000000000000000 ) ) ;
#111 = AXIS2_PLACEMENT_3D ( 'NONE', #146, #68, #26 ) ;
#112 = PRODUCT_CONTEXT ( 'NONE', #92, 'mechanical' ) ;
#113 = CARTESIAN_POINT ( 'NONE',  ( 0.000000000000000000, 32.00000000000000000, -8.500000000000001776 ) ) ;
#114 = CARTESIAN_POINT ( 'NONE',  ( 0.000000000000000000, 32.00000000000000000, 0.000000000000000000 ) ) ;
#115 = AXIS2_PLACEMENT_3D ( 'NONE', #100, #18, #11 ) ;
#116 = DIRECTION ( 'NONE',  ( 0.000000000000000000, 1.000000000000000000, 0.000000000000000000 ) ) ;
#117 = EDGE_LOOP ( 'NONE', ( #31, #125, #137, #156 ) ) ;
#118 = DIRECTION ( 'NONE',  ( 1.000000000000000000, 0.000000000000000000, 0.000000000000000000 ) ) ;
#119 = AXIS2_PLACEMENT_3D ( 'NONE', #147, #8, #165 ) ;
#120 = ADVANCED_FACE ( 'NONE', ( #176, #37 ), #149, .F. ) ;
#121 = VERTEX_POINT ( 'NONE', #83 ) ;
#122 = ADVANCED_FACE ( 'NONE', ( #81 ), #131, .T. ) ;
#123 = ORIENTED_EDGE ( 'NONE', *, *, #161, .F. ) ;
#124 = ORIENTED_EDGE ( 'NONE', *, *, #50, .T. ) ;
#125 = ORIENTED_EDGE ( 'NONE', *, *, #152, .F. ) ;
#126 = LINE ( 'NONE', #78, #9 ) ;
#127 = AXIS2_PLACEMENT_3D ( 'NONE', #64, #33, #173 ) ;
#128 = VECTOR ( 'NONE', #132, 1000.000000000000000 ) ;
#129 = CYLINDRICAL_SURFACE ( 'NONE', #14, 8.500000000000001776 ) ;
#130 = EDGE_CURVE ( 'NONE', #62, #7, #174, .T. ) ;
#131 = CYLINDRICAL_SURFACE ( 'NONE', #80, 17.75000000000000711 ) ;
#132 = DIRECTION ( 'NONE',  ( -0.000000000000000000, -1.000000000000000000, -0.000000000000000000 ) ) ;
#133 = FACE_BOUND ( 'NONE', #17, .T. ) ;
#134 = UNCERTAINTY_MEASURE_WITH_UNIT (LENGTH_MEASURE( 1.000000000000000082E-05 ), #192, 'distance_accuracy_value', 'NONE');
#135 = EDGE_LOOP ( 'NONE', ( #182, #29, #138, #155 ) ) ;
#136 = EDGE_LOOP ( 'NONE', ( #59, #124 ) ) ;
#137 = ORIENTED_EDGE ( 'NONE', *, *, #130, .T. ) ;
#138 = ORIENTED_EDGE ( 'NONE', *, *, #15, .T. ) ;
#139 = PRODUCT ( 'Coil', 'Coil', '', ( #112 ) ) ;
#140 = EDGE_LOOP ( 'NONE', ( #57, #108 ) ) ;
#141 = CIRCLE ( 'NONE', #189, 17.75000000000000711 ) ;
#142 = DIRECTION ( 'NONE',  ( 0.000000000000000000, 1.000000000000000000, 0.000000000000000000 ) ) ;
#143 = PRODUCT_DEFINITION ( 'UNKNOWN', '', #70, #175 ) ;
#144 = ADVANCED_BREP_SHAPE_REPRESENTATION ( 'Coil', ( #96, #4 ), #16 ) ;
#145 = CIRCLE ( 'NONE', #127, 8.500000000000001776 ) ;
#146 = CARTESIAN_POINT ( 'NONE',  ( 0.000000000000000000, 0.000000000000000000, 0.000000000000000000 ) ) ;
#147 = CARTESIAN_POINT ( 'NONE',  ( 0.000000000000000000, 32.00000000000000000, 0.000000000000000000 ) ) ;
#148 = PRESENTATION_STYLE_ASSIGNMENT (( #23 ) ) ;
#149 = PLANE ( 'NONE',  #79 ) ;
#150 =( NAMED_UNIT ( * ) PLANE_ANGLE_UNIT ( ) SI_UNIT ( $, .RADIAN. ) );
#151 = EDGE_LOOP ( 'NONE', ( #60, #45, #82, #109 ) ) ;
#152 = EDGE_CURVE ( 'NONE', #62, #198, #5, .T. ) ;
#153 = FACE_OUTER_BOUND ( 'NONE', #91, .T. ) ;
#154 = DIRECTION ( 'NONE',  ( 0.000000000000000000, 0.000000000000000000, -1.000000000000000000 ) ) ;
#155 = ORIENTED_EDGE ( 'NONE', *, *, #130, .F. ) ;
#156 = ORIENTED_EDGE ( 'NONE', *, *, #159, .T. ) ;
#157 = CARTESIAN_POINT ( 'NONE',  ( 0.000000000000000000, 32.00000000000000000, 0.000000000000000000 ) ) ;
#158 = APPLICATION_CONTEXT ( 'automotive_design' ) ;
#159 = EDGE_CURVE ( 'NONE', #7, #197, #34, .T. ) ;
#160 = AXIS2_PLACEMENT_3D ( 'NONE', #107, #30, #88 ) ;
#161 = EDGE_CURVE ( 'NONE', #121, #104, #24, .T. ) ;
#162 = DIRECTION ( 'NONE',  ( 0.000000000000000000, 1.000000000000000000, 0.000000000000000000 ) ) ;
#163 = DIRECTION ( 'NONE',  ( 0.000000000000000000, 1.000000000000000000, 0.000000000000000000 ) ) ;
#164 = CARTESIAN_POINT ( 'NONE',  ( 0.000000000000000000, 32.00000000000000000, 0.000000000000000000 ) ) ;
#165 = DIRECTION ( 'NONE',  ( 0.000000000000000000, 0.000000000000000000, 1.000000000000000000 ) ) ;
#166 = CARTESIAN_POINT ( 'NONE',  ( 0.000000000000000000, 32.00000000000000000, 0.000000000000000000 ) ) ;
#167 = ADVANCED_FACE ( 'NONE', ( #74, #133 ), #52, .T. ) ;
#168 = ORIENTED_EDGE ( 'NONE', *, *, #65, .F. ) ;
#169 =( NAMED_UNIT ( * ) PLANE_ANGLE_UNIT ( ) SI_UNIT ( $, .RADIAN. ) );
#170 = DIRECTION ( 'NONE',  ( -0.000000000000000000, -1.000000000000000000, -0.000000000000000000 ) ) ;
#171 = DIRECTION ( 'NONE',  ( -0.000000000000000000, -1.000000000000000000, -0.000000000000000000 ) ) ;
#172 = LINE ( 'NONE', #106, #73 ) ;
#173 = DIRECTION ( 'NONE',  ( 0.000000000000000000, 0.000000000000000000, 1.000000000000000000 ) ) ;
#174 = LINE ( 'NONE', #36, #177 ) ;
#175 = PRODUCT_DEFINITION_CONTEXT ( 'detailed design', #158, 'design' ) ;
#176 = FACE_OUTER_BOUND ( 'NONE', #140, .T. ) ;
#177 = VECTOR ( 'NONE', #101, 1000.000000000000000 ) ;
#178 = DIRECTION ( 'NONE',  ( 0.000000000000000000, -0.000000000000000000, 1.000000000000000000 ) ) ;
#179 = DIRECTION ( 'NONE',  ( -0.000000000000000000, -1.000000000000000000, -0.000000000000000000 ) ) ;
#180 = DIRECTION ( 'NONE',  ( 0.000000000000000000, 0.000000000000000000, 1.000000000000000000 ) ) ;
#181 =( GEOMETRIC_REPRESENTATION_CONTEXT ( 3 ) GLOBAL_UNCERTAINTY_ASSIGNED_CONTEXT ( ( #134 ) ) GLOBAL_UNIT_ASSIGNED_CONTEXT ( ( #192, #150, #55 ) ) REPRESENTATION_CONTEXT ( 'NONE', 'WORKASPACE' ) );
#182 = ORIENTED_EDGE ( 'NONE', *, *, #69, .F. ) ;
#183 = ORIENTED_EDGE ( 'NONE', *, *, #58, .F. ) ;
#184 = CYLINDRICAL_SURFACE ( 'NONE', #95, 8.500000000000001776 ) ;
#185 = CIRCLE ( 'NONE', #160, 17.75000000000000711 ) ;
#186 = PRODUCT_DEFINITION_SHAPE ( 'NONE', 'NONE',  #143 ) ;
#187 = EDGE_LOOP ( 'NONE', ( #19, #12 ) ) ;
#188 = DIRECTION ( 'NONE',  ( -0.000000000000000000, -1.000000000000000000, -0.000000000000000000 ) ) ;
#189 = AXIS2_PLACEMENT_3D ( 'NONE', #164, #162, #180 ) ;
#190 = APPLICATION_PROTOCOL_DEFINITION ( 'draft international standard', 'automotive_design', 1998, #158 ) ;
#191 = STYLED_ITEM ( 'NONE', ( #148 ), #96 ) ;
#192 =( LENGTH_UNIT ( ) NAMED_UNIT ( * ) SI_UNIT ( .MILLI., .METRE. ) );
#193 = DIRECTION ( 'NONE',  ( 0.000000000000000000, 1.000000000000000000, 0.000000000000000000 ) ) ;
#194 = ADVANCED_FACE ( 'NONE', ( #196 ), #102, .T. ) ;
#195 = FILL_AREA_STYLE ('',( #39 ) ) ;
#196 = FACE_OUTER_BOUND ( 'NONE', #135, .T. ) ;
#197 = VERTEX_POINT ( 'NONE', #49 ) ;
#198 = VERTEX_POINT ( 'NONE', #44 ) ;
#199 = VERTEX_POINT ( 'NONE', #75 ) ;
ENDSEC;
END-ISO-10303-21;
