ISO-10303-21;
HEADER;
/* Generated by software containing ST-Developer
 * from STEP Tools, Inc. (www.steptools.com) 
 */

FILE_DESCRIPTION(
/* description */ (''),
/* implementation_level */ '2;1');

FILE_NAME(
/* name */ 'handle.stp',
/* time_stamp */ '2024-06-20T09:53:01+04:00',
/* author */ ('Tofi'),
/* organization */ (''),
/* preprocessor_version */ 'ST-DEVELOPER v20',
/* originating_system */ 'Autodesk Inventor 2025',
/* authorisation */ '');

FILE_SCHEMA (('AUTOMOTIVE_DESIGN { 1 0 10303 214 3 1 1 }'));
ENDSEC;

DATA;
#10=MECHANICAL_DESIGN_GEOMETRIC_PRESENTATION_REPRESENTATION('',(#13),#344);
#11=SHAPE_REPRESENTATION_RELATIONSHIP('SRR','None',#351,#12);
#12=ADVANCED_BREP_SHAPE_REPRESENTATION('',(#14),#343);
#13=STYLED_ITEM('',(#360),#14);
#14=MANIFOLD_SOLID_BREP('\X2\04220432043504400434043E0435\X0\ \X2\04420435043B043E\X0\1',
#173);
#15=FACE_BOUND('',#46,.T.);
#16=FACE_BOUND('',#49,.T.);
#17=TOROIDAL_SURFACE('',#200,10.,5.);
#18=TOROIDAL_SURFACE('',#208,10.,5.);
#19=TOROIDAL_SURFACE('',#211,13.5,5.);
#20=TOROIDAL_SURFACE('',#221,13.5,5.);
#21=PLANE('',#199);
#22=PLANE('',#207);
#23=PLANE('',#219);
#24=PLANE('',#224);
#25=FACE_OUTER_BOUND('',#37,.T.);
#26=FACE_OUTER_BOUND('',#38,.T.);
#27=FACE_OUTER_BOUND('',#39,.T.);
#28=FACE_OUTER_BOUND('',#40,.T.);
#29=FACE_OUTER_BOUND('',#41,.T.);
#30=FACE_OUTER_BOUND('',#42,.T.);
#31=FACE_OUTER_BOUND('',#43,.T.);
#32=FACE_OUTER_BOUND('',#44,.T.);
#33=FACE_OUTER_BOUND('',#45,.T.);
#34=FACE_OUTER_BOUND('',#47,.T.);
#35=FACE_OUTER_BOUND('',#48,.T.);
#36=FACE_OUTER_BOUND('',#50,.T.);
#37=EDGE_LOOP('',(#113,#114,#115,#116));
#38=EDGE_LOOP('',(#117));
#39=EDGE_LOOP('',(#118,#119,#120,#121,#122));
#40=EDGE_LOOP('',(#123,#124,#125,#126,#127));
#41=EDGE_LOOP('',(#128));
#42=EDGE_LOOP('',(#129,#130,#131,#132));
#43=EDGE_LOOP('',(#133,#134,#135,#136,#137));
#44=EDGE_LOOP('',(#138,#139,#140,#141,#142,#143));
#45=EDGE_LOOP('',(#144));
#46=EDGE_LOOP('',(#145));
#47=EDGE_LOOP('',(#146,#147,#148,#149,#150));
#48=EDGE_LOOP('',(#151));
#49=EDGE_LOOP('',(#152));
#50=EDGE_LOOP('',(#153,#154,#155,#156));
#51=LINE('',#297,#55);
#52=LINE('',#310,#56);
#53=LINE('',#327,#57);
#54=LINE('',#340,#58);
#55=VECTOR('',#232,2.5);
#56=VECTOR('',#249,15.);
#57=VECTOR('',#272,18.5);
#58=VECTOR('',#291,12.5);
#59=CIRCLE('',#197,2.5);
#60=CIRCLE('',#198,2.5);
#61=CIRCLE('',#201,10.);
#62=CIRCLE('',#202,5.);
#63=CIRCLE('',#203,15.);
#64=CIRCLE('',#204,15.);
#65=CIRCLE('',#206,15.);
#66=CIRCLE('',#209,5.);
#67=CIRCLE('',#210,12.5);
#68=CIRCLE('',#212,13.5);
#69=CIRCLE('',#213,5.);
#70=CIRCLE('',#214,18.5);
#71=CIRCLE('',#215,18.5);
#72=CIRCLE('',#217,18.5);
#73=CIRCLE('',#218,18.5);
#74=CIRCLE('',#220,12.5);
#75=CIRCLE('',#222,5.);
#76=CIRCLE('',#223,13.5);
#77=VERTEX_POINT('',#294);
#78=VERTEX_POINT('',#296);
#79=VERTEX_POINT('',#301);
#80=VERTEX_POINT('',#303);
#81=VERTEX_POINT('',#305);
#82=VERTEX_POINT('',#309);
#83=VERTEX_POINT('',#314);
#84=VERTEX_POINT('',#318);
#85=VERTEX_POINT('',#320);
#86=VERTEX_POINT('',#322);
#87=VERTEX_POINT('',#326);
#88=VERTEX_POINT('',#328);
#89=VERTEX_POINT('',#332);
#90=VERTEX_POINT('',#335);
#91=EDGE_CURVE('',#77,#77,#59,.T.);
#92=EDGE_CURVE('',#77,#78,#51,.T.);
#93=EDGE_CURVE('',#78,#78,#60,.T.);
#94=EDGE_CURVE('',#79,#79,#61,.T.);
#95=EDGE_CURVE('',#79,#80,#62,.T.);
#96=EDGE_CURVE('',#80,#81,#63,.T.);
#97=EDGE_CURVE('',#81,#80,#64,.T.);
#98=EDGE_CURVE('',#81,#82,#52,.T.);
#99=EDGE_CURVE('',#82,#82,#65,.T.);
#100=EDGE_CURVE('',#82,#83,#66,.T.);
#101=EDGE_CURVE('',#83,#83,#67,.T.);
#102=EDGE_CURVE('',#84,#84,#68,.T.);
#103=EDGE_CURVE('',#84,#85,#69,.T.);
#104=EDGE_CURVE('',#85,#86,#70,.T.);
#105=EDGE_CURVE('',#86,#85,#71,.T.);
#106=EDGE_CURVE('',#86,#87,#53,.T.);
#107=EDGE_CURVE('',#88,#87,#72,.T.);
#108=EDGE_CURVE('',#87,#88,#73,.T.);
#109=EDGE_CURVE('',#89,#89,#74,.T.);
#110=EDGE_CURVE('',#88,#90,#75,.T.);
#111=EDGE_CURVE('',#90,#90,#76,.T.);
#112=EDGE_CURVE('',#83,#89,#54,.T.);
#113=ORIENTED_EDGE('',*,*,#91,.F.);
#114=ORIENTED_EDGE('',*,*,#92,.T.);
#115=ORIENTED_EDGE('',*,*,#93,.T.);
#116=ORIENTED_EDGE('',*,*,#92,.F.);
#117=ORIENTED_EDGE('',*,*,#93,.F.);
#118=ORIENTED_EDGE('',*,*,#94,.T.);
#119=ORIENTED_EDGE('',*,*,#95,.T.);
#120=ORIENTED_EDGE('',*,*,#96,.T.);
#121=ORIENTED_EDGE('',*,*,#97,.T.);
#122=ORIENTED_EDGE('',*,*,#95,.F.);
#123=ORIENTED_EDGE('',*,*,#97,.F.);
#124=ORIENTED_EDGE('',*,*,#98,.T.);
#125=ORIENTED_EDGE('',*,*,#99,.F.);
#126=ORIENTED_EDGE('',*,*,#98,.F.);
#127=ORIENTED_EDGE('',*,*,#96,.F.);
#128=ORIENTED_EDGE('',*,*,#94,.F.);
#129=ORIENTED_EDGE('',*,*,#99,.T.);
#130=ORIENTED_EDGE('',*,*,#100,.T.);
#131=ORIENTED_EDGE('',*,*,#101,.T.);
#132=ORIENTED_EDGE('',*,*,#100,.F.);
#133=ORIENTED_EDGE('',*,*,#102,.T.);
#134=ORIENTED_EDGE('',*,*,#103,.T.);
#135=ORIENTED_EDGE('',*,*,#104,.T.);
#136=ORIENTED_EDGE('',*,*,#105,.T.);
#137=ORIENTED_EDGE('',*,*,#103,.F.);
#138=ORIENTED_EDGE('',*,*,#105,.F.);
#139=ORIENTED_EDGE('',*,*,#106,.T.);
#140=ORIENTED_EDGE('',*,*,#107,.F.);
#141=ORIENTED_EDGE('',*,*,#108,.F.);
#142=ORIENTED_EDGE('',*,*,#106,.F.);
#143=ORIENTED_EDGE('',*,*,#104,.F.);
#144=ORIENTED_EDGE('',*,*,#102,.F.);
#145=ORIENTED_EDGE('',*,*,#109,.F.);
#146=ORIENTED_EDGE('',*,*,#107,.T.);
#147=ORIENTED_EDGE('',*,*,#108,.T.);
#148=ORIENTED_EDGE('',*,*,#110,.T.);
#149=ORIENTED_EDGE('',*,*,#111,.T.);
#150=ORIENTED_EDGE('',*,*,#110,.F.);
#151=ORIENTED_EDGE('',*,*,#111,.F.);
#152=ORIENTED_EDGE('',*,*,#91,.T.);
#153=ORIENTED_EDGE('',*,*,#101,.F.);
#154=ORIENTED_EDGE('',*,*,#112,.T.);
#155=ORIENTED_EDGE('',*,*,#109,.T.);
#156=ORIENTED_EDGE('',*,*,#112,.F.);
#157=CYLINDRICAL_SURFACE('',#196,2.5);
#158=CYLINDRICAL_SURFACE('',#205,15.);
#159=CYLINDRICAL_SURFACE('',#216,18.5);
#160=CYLINDRICAL_SURFACE('',#225,12.5);
#161=ADVANCED_FACE('',(#25),#157,.F.);
#162=ADVANCED_FACE('',(#26),#21,.T.);
#163=ADVANCED_FACE('',(#27),#17,.T.);
#164=ADVANCED_FACE('',(#28),#158,.T.);
#165=ADVANCED_FACE('',(#29),#22,.T.);
#166=ADVANCED_FACE('',(#30),#18,.T.);
#167=ADVANCED_FACE('',(#31),#19,.T.);
#168=ADVANCED_FACE('',(#32),#159,.T.);
#169=ADVANCED_FACE('',(#33,#15),#23,.T.);
#170=ADVANCED_FACE('',(#34),#20,.T.);
#171=ADVANCED_FACE('',(#35,#16),#24,.T.);
#172=ADVANCED_FACE('',(#36),#160,.T.);
#173=CLOSED_SHELL('',(#161,#162,#163,#164,#165,#166,#167,#168,#169,#170,
#171,#172));
#174=DERIVED_UNIT_ELEMENT(#177,1.);
#175=DERIVED_UNIT_ELEMENT(#346,-3.);
#176=DIMENSIONAL_EXPONENTS(0.,1.,0.,0.,0.,0.,0.);
#177=(
CONVERSION_BASED_UNIT('gram',#179)
MASS_UNIT()
NAMED_UNIT(#176)
);
#178=(
MASS_UNIT()
NAMED_UNIT(*)
SI_UNIT(.KILO.,.GRAM.)
);
#179=MASS_MEASURE_WITH_UNIT(MASS_MEASURE(0.001),#178);
#180=DERIVED_UNIT((#174,#175));
#181=MEASURE_REPRESENTATION_ITEM('density measure',
POSITIVE_RATIO_MEASURE(1.022),#180);
#182=PROPERTY_DEFINITION_REPRESENTATION(#187,#184);
#183=PROPERTY_DEFINITION_REPRESENTATION(#188,#185);
#184=REPRESENTATION('material name',(#186),#343);
#185=REPRESENTATION('density',(#181),#343);
#186=DESCRIPTIVE_REPRESENTATION_ITEM('Polystyrene, High Impact',
'Polystyrene, High Impact');
#187=PROPERTY_DEFINITION('material property','material name',#353);
#188=PROPERTY_DEFINITION('material property','density of part',#353);
#189=DATE_TIME_ROLE('creation_date');
#190=APPLIED_DATE_AND_TIME_ASSIGNMENT(#191,#189,(#353));
#191=DATE_AND_TIME(#192,#193);
#192=CALENDAR_DATE(2021,7,11);
#193=LOCAL_TIME(0,0,0.,#194);
#194=COORDINATED_UNIVERSAL_TIME_OFFSET(0,0,.BEHIND.);
#195=AXIS2_PLACEMENT_3D('',#292,#226,#227);
#196=AXIS2_PLACEMENT_3D('',#293,#228,#229);
#197=AXIS2_PLACEMENT_3D('',#295,#230,#231);
#198=AXIS2_PLACEMENT_3D('',#298,#233,#234);
#199=AXIS2_PLACEMENT_3D('',#299,#235,#236);
#200=AXIS2_PLACEMENT_3D('',#300,#237,#238);
#201=AXIS2_PLACEMENT_3D('',#302,#239,#240);
#202=AXIS2_PLACEMENT_3D('',#304,#241,#242);
#203=AXIS2_PLACEMENT_3D('',#306,#243,#244);
#204=AXIS2_PLACEMENT_3D('',#307,#245,#246);
#205=AXIS2_PLACEMENT_3D('',#308,#247,#248);
#206=AXIS2_PLACEMENT_3D('',#311,#250,#251);
#207=AXIS2_PLACEMENT_3D('',#312,#252,#253);
#208=AXIS2_PLACEMENT_3D('',#313,#254,#255);
#209=AXIS2_PLACEMENT_3D('',#315,#256,#257);
#210=AXIS2_PLACEMENT_3D('',#316,#258,#259);
#211=AXIS2_PLACEMENT_3D('',#317,#260,#261);
#212=AXIS2_PLACEMENT_3D('',#319,#262,#263);
#213=AXIS2_PLACEMENT_3D('',#321,#264,#265);
#214=AXIS2_PLACEMENT_3D('',#323,#266,#267);
#215=AXIS2_PLACEMENT_3D('',#324,#268,#269);
#216=AXIS2_PLACEMENT_3D('',#325,#270,#271);
#217=AXIS2_PLACEMENT_3D('',#329,#273,#274);
#218=AXIS2_PLACEMENT_3D('',#330,#275,#276);
#219=AXIS2_PLACEMENT_3D('',#331,#277,#278);
#220=AXIS2_PLACEMENT_3D('',#333,#279,#280);
#221=AXIS2_PLACEMENT_3D('',#334,#281,#282);
#222=AXIS2_PLACEMENT_3D('',#336,#283,#284);
#223=AXIS2_PLACEMENT_3D('',#337,#285,#286);
#224=AXIS2_PLACEMENT_3D('',#338,#287,#288);
#225=AXIS2_PLACEMENT_3D('',#339,#289,#290);
#226=DIRECTION('axis',(0.,0.,1.));
#227=DIRECTION('refdir',(1.,0.,0.));
#228=DIRECTION('center_axis',(0.,-1.,0.));
#229=DIRECTION('ref_axis',(1.,0.,0.));
#230=DIRECTION('center_axis',(0.,-1.,0.));
#231=DIRECTION('ref_axis',(1.,0.,0.));
#232=DIRECTION('',(0.,-1.,0.));
#233=DIRECTION('center_axis',(0.,-1.,0.));
#234=DIRECTION('ref_axis',(1.,0.,0.));
#235=DIRECTION('center_axis',(0.,1.,0.));
#236=DIRECTION('ref_axis',(0.,0.,1.));
#237=DIRECTION('center_axis',(0.,-1.,0.));
#238=DIRECTION('ref_axis',(0.,0.,-1.));
#239=DIRECTION('center_axis',(0.,1.,0.));
#240=DIRECTION('ref_axis',(-1.,0.,1.22464679914735E-16));
#241=DIRECTION('center_axis',(-1.,0.,-1.22464679914735E-16));
#242=DIRECTION('ref_axis',(-1.22464679914735E-16,0.,1.));
#243=DIRECTION('center_axis',(0.,-1.,0.));
#244=DIRECTION('ref_axis',(-1.,0.,1.22464679914735E-16));
#245=DIRECTION('center_axis',(0.,-1.,0.));
#246=DIRECTION('ref_axis',(-1.,0.,1.22464679914735E-16));
#247=DIRECTION('center_axis',(0.,-1.,0.));
#248=DIRECTION('ref_axis',(1.,0.,0.));
#249=DIRECTION('',(0.,1.,0.));
#250=DIRECTION('center_axis',(0.,1.,0.));
#251=DIRECTION('ref_axis',(1.,0.,-1.83697019872103E-16));
#252=DIRECTION('center_axis',(0.,-1.,0.));
#253=DIRECTION('ref_axis',(0.,0.,-1.));
#254=DIRECTION('center_axis',(0.,-1.,0.));
#255=DIRECTION('ref_axis',(1.,0.,-1.83697019872103E-16));
#256=DIRECTION('center_axis',(-3.06161699786838E-16,0.,-1.));
#257=DIRECTION('ref_axis',(-1.,0.,3.06161699786838E-16));
#258=DIRECTION('center_axis',(0.,-1.,0.));
#259=DIRECTION('ref_axis',(1.,0.,0.));
#260=DIRECTION('center_axis',(0.,-1.,0.));
#261=DIRECTION('ref_axis',(0.,0.,-1.));
#262=DIRECTION('center_axis',(0.,1.,0.));
#263=DIRECTION('ref_axis',(-1.,0.,1.22464679914735E-16));
#264=DIRECTION('center_axis',(-1.,0.,-1.22464679914735E-16));
#265=DIRECTION('ref_axis',(-1.22464679914735E-16,0.,1.));
#266=DIRECTION('center_axis',(0.,-1.,0.));
#267=DIRECTION('ref_axis',(-1.,0.,1.22464679914735E-16));
#268=DIRECTION('center_axis',(0.,-1.,0.));
#269=DIRECTION('ref_axis',(-1.,0.,1.22464679914735E-16));
#270=DIRECTION('center_axis',(0.,-1.,0.));
#271=DIRECTION('ref_axis',(1.,0.,0.));
#272=DIRECTION('',(0.,1.,0.));
#273=DIRECTION('center_axis',(0.,1.,0.));
#274=DIRECTION('ref_axis',(-1.,0.,1.22464679914735E-16));
#275=DIRECTION('center_axis',(0.,1.,0.));
#276=DIRECTION('ref_axis',(-1.,0.,1.22464679914735E-16));
#277=DIRECTION('center_axis',(0.,-1.,0.));
#278=DIRECTION('ref_axis',(0.,0.,-1.));
#279=DIRECTION('center_axis',(0.,-1.,0.));
#280=DIRECTION('ref_axis',(1.,0.,0.));
#281=DIRECTION('center_axis',(0.,-1.,0.));
#282=DIRECTION('ref_axis',(0.,0.,-1.));
#283=DIRECTION('center_axis',(-1.,0.,-1.22464679914735E-16));
#284=DIRECTION('ref_axis',(-1.22464679914735E-16,0.,1.));
#285=DIRECTION('center_axis',(0.,-1.,0.));
#286=DIRECTION('ref_axis',(-1.,0.,1.22464679914735E-16));
#287=DIRECTION('center_axis',(0.,1.,0.));
#288=DIRECTION('ref_axis',(0.,0.,1.));
#289=DIRECTION('center_axis',(0.,-1.,0.));
#290=DIRECTION('ref_axis',(1.,0.,0.));
#291=DIRECTION('',(0.,1.,0.));
#292=CARTESIAN_POINT('',(0.,0.,0.));
#293=CARTESIAN_POINT('Origin',(0.,145.,0.));
#294=CARTESIAN_POINT('',(-2.5,145.,-3.06161699786838E-16));
#295=CARTESIAN_POINT('Origin',(0.,145.,0.));
#296=CARTESIAN_POINT('',(-2.5,85.,-3.06161699786838E-16));
#297=CARTESIAN_POINT('',(-2.5,145.,-3.06161699786838E-16));
#298=CARTESIAN_POINT('Origin',(0.,85.,0.));
#299=CARTESIAN_POINT('Origin',(0.,85.,0.));
#300=CARTESIAN_POINT('Origin',(0.,5.,0.));
#301=CARTESIAN_POINT('',(-1.22464679914735E-15,0.,10.));
#302=CARTESIAN_POINT('Origin',(0.,0.,0.));
#303=CARTESIAN_POINT('',(-1.83697019872103E-15,5.,15.));
#304=CARTESIAN_POINT('Origin',(-1.22464679914735E-15,5.,10.));
#305=CARTESIAN_POINT('',(-15.,5.,-1.83697019872103E-15));
#306=CARTESIAN_POINT('Origin',(0.,5.,0.));
#307=CARTESIAN_POINT('Origin',(0.,5.,0.));
#308=CARTESIAN_POINT('Origin',(0.,7.5,0.));
#309=CARTESIAN_POINT('',(-15.,10.6698729810778,4.59242549680257E-15));
#310=CARTESIAN_POINT('',(-15.,7.5,-1.83697019872103E-15));
#311=CARTESIAN_POINT('Origin',(0.,10.6698729810778,0.));
#312=CARTESIAN_POINT('Origin',(0.,0.,0.));
#313=CARTESIAN_POINT('Origin',(0.,10.6698729810778,0.));
#314=CARTESIAN_POINT('',(-12.5,15.,3.82702124733548E-15));
#315=CARTESIAN_POINT('Origin',(-10.,10.6698729810778,3.06161699786838E-15));
#316=CARTESIAN_POINT('Origin',(0.,15.,0.));
#317=CARTESIAN_POINT('Origin',(0.,120.,0.));
#318=CARTESIAN_POINT('',(-1.65327317884893E-15,115.,13.5));
#319=CARTESIAN_POINT('Origin',(0.,115.,0.));
#320=CARTESIAN_POINT('',(-2.2655965784226E-15,120.,18.5));
#321=CARTESIAN_POINT('Origin',(-1.65327317884893E-15,120.,13.5));
#322=CARTESIAN_POINT('',(-18.5,120.,-2.2655965784226E-15));
#323=CARTESIAN_POINT('Origin',(0.,120.,0.));
#324=CARTESIAN_POINT('Origin',(0.,120.,0.));
#325=CARTESIAN_POINT('Origin',(0.,130.,0.));
#326=CARTESIAN_POINT('',(-18.5,140.,-2.2655965784226E-15));
#327=CARTESIAN_POINT('',(-18.5,130.,-2.2655965784226E-15));
#328=CARTESIAN_POINT('',(-2.2655965784226E-15,140.,18.5));
#329=CARTESIAN_POINT('Origin',(0.,140.,0.));
#330=CARTESIAN_POINT('Origin',(0.,140.,0.));
#331=CARTESIAN_POINT('Origin',(12.5,115.,0.));
#332=CARTESIAN_POINT('',(-12.5,115.,-1.53080849893419E-15));
#333=CARTESIAN_POINT('Origin',(0.,115.,0.));
#334=CARTESIAN_POINT('Origin',(0.,140.,0.));
#335=CARTESIAN_POINT('',(-1.65327317884893E-15,145.,13.5));
#336=CARTESIAN_POINT('Origin',(-1.65327317884893E-15,140.,13.5));
#337=CARTESIAN_POINT('Origin',(0.,145.,0.));
#338=CARTESIAN_POINT('Origin',(18.5,145.,0.));
#339=CARTESIAN_POINT('Origin',(0.,65.,0.));
#340=CARTESIAN_POINT('',(-12.5,65.,-1.53080849893419E-15));
#341=UNCERTAINTY_MEASURE_WITH_UNIT(LENGTH_MEASURE(0.01),#345,
'DISTANCE_ACCURACY_VALUE',
'Maximum model space distance between geometric entities at asserted c
onnectivities');
#342=UNCERTAINTY_MEASURE_WITH_UNIT(LENGTH_MEASURE(0.01),#345,
'DISTANCE_ACCURACY_VALUE',
'Maximum model space distance between geometric entities at asserted c
onnectivities');
#343=(
GEOMETRIC_REPRESENTATION_CONTEXT(3)
GLOBAL_UNCERTAINTY_ASSIGNED_CONTEXT((#341))
GLOBAL_UNIT_ASSIGNED_CONTEXT((#345,#347,#348))
REPRESENTATION_CONTEXT('','3D')
);
#344=(
GEOMETRIC_REPRESENTATION_CONTEXT(3)
GLOBAL_UNCERTAINTY_ASSIGNED_CONTEXT((#342))
GLOBAL_UNIT_ASSIGNED_CONTEXT((#345,#347,#348))
REPRESENTATION_CONTEXT('','3D')
);
#345=(
LENGTH_UNIT()
NAMED_UNIT(*)
SI_UNIT(.MILLI.,.METRE.)
);
#346=(
LENGTH_UNIT()
NAMED_UNIT(*)
SI_UNIT(.CENTI.,.METRE.)
);
#347=(
NAMED_UNIT(*)
PLANE_ANGLE_UNIT()
SI_UNIT($,.RADIAN.)
);
#348=(
NAMED_UNIT(*)
SI_UNIT($,.STERADIAN.)
SOLID_ANGLE_UNIT()
);
#349=SHAPE_DEFINITION_REPRESENTATION(#350,#351);
#350=PRODUCT_DEFINITION_SHAPE('',$,#353);
#351=SHAPE_REPRESENTATION('',(#195),#343);
#352=PRODUCT_DEFINITION_CONTEXT('part definition',#357,'design');
#353=PRODUCT_DEFINITION('\X2\04120430043B0438043A\X0\ \X2\042004430447043A0430\X0\',
'handle',#354,#352);
#354=PRODUCT_DEFINITION_FORMATION('',$,#359);
#355=PRODUCT_RELATED_PRODUCT_CATEGORY('handle','handle',(#359));
#356=APPLICATION_PROTOCOL_DEFINITION('international standard',
'automotive_design',2009,#357);
#357=APPLICATION_CONTEXT(
'Core Data for Automotive Mechanical Design Process');
#358=PRODUCT_CONTEXT('part definition',#357,'mechanical');
#359=PRODUCT('\X2\04120430043B0438043A\X0\ \X2\042004430447043A0430\X0\',
'handle',$,(#358));
#360=PRESENTATION_STYLE_ASSIGNMENT((#361));
#361=SURFACE_STYLE_USAGE(.BOTH.,#364);
#362=SURFACE_STYLE_RENDERING_WITH_PROPERTIES($,#368,(#363));
#363=SURFACE_STYLE_TRANSPARENT(0.);
#364=SURFACE_SIDE_STYLE('',(#365,#362));
#365=SURFACE_STYLE_FILL_AREA(#366);
#366=FILL_AREA_STYLE('',(#367));
#367=FILL_AREA_STYLE_COLOUR('',#368);
#368=COLOUR_RGB('',0.0941176470588235,0.145098039215686,0.972549019607843);
ENDSEC;
END-ISO-10303-21;
