ISO-10303-21;
HEADER;
/* Generated by software containing ST-Developer
 * from STEP Tools, Inc. (www.steptools.com) 
 */

FILE_DESCRIPTION(
/* description */ (''),
/* implementation_level */ '2;1');

FILE_NAME(
/* name */ 'holder.stp',
/* time_stamp */ '2024-06-20T09:53:26+04:00',
/* author */ ('Tofi'),
/* organization */ (''),
/* preprocessor_version */ 'ST-DEVELOPER v20',
/* originating_system */ 'Autodesk Inventor 2025',
/* authorisation */ '');

FILE_SCHEMA (('AUTOMOTIVE_DESIGN { 1 0 10303 214 3 1 1 }'));
ENDSEC;

DATA;
#10=MECHANICAL_DESIGN_GEOMETRIC_PRESENTATION_REPRESENTATION('',(#13),#338);
#11=SHAPE_REPRESENTATION_RELATIONSHIP('SRR','None',#345,#12);
#12=ADVANCED_BREP_SHAPE_REPRESENTATION('',(#14),#337);
#13=STYLED_ITEM('',(#354),#14);
#14=MANIFOLD_SOLID_BREP('\X2\04220432043504400434043E0435\X0\ \X2\04420435043B043E\X0\1',
#171);
#15=TOROIDAL_SURFACE('',#209,10.,2.5);
#16=TOROIDAL_SURFACE('',#214,10.0000000000001,2.5);
#17=TOROIDAL_SURFACE('',#220,10.,2.5);
#18=PLANE('',#201);
#19=PLANE('',#208);
#20=CYLINDRICAL_SURFACE('',#198,2.5);
#21=CYLINDRICAL_SURFACE('',#206,2.5);
#22=CYLINDRICAL_SURFACE('',#212,2.5);
#23=CYLINDRICAL_SURFACE('',#217,2.5);
#24=FACE_OUTER_BOUND('',#35,.T.);
#25=FACE_OUTER_BOUND('',#36,.T.);
#26=FACE_OUTER_BOUND('',#37,.T.);
#27=FACE_OUTER_BOUND('',#38,.T.);
#28=FACE_OUTER_BOUND('',#39,.T.);
#29=FACE_OUTER_BOUND('',#40,.T.);
#30=FACE_OUTER_BOUND('',#41,.T.);
#31=FACE_OUTER_BOUND('',#42,.T.);
#32=FACE_OUTER_BOUND('',#43,.T.);
#33=FACE_OUTER_BOUND('',#44,.T.);
#34=FACE_OUTER_BOUND('',#45,.T.);
#35=EDGE_LOOP('',(#112,#113,#114,#115,#116));
#36=EDGE_LOOP('',(#117,#118,#119,#120,#121,#122));
#37=EDGE_LOOP('',(#123));
#38=EDGE_LOOP('',(#124,#125,#126,#127,#128));
#39=EDGE_LOOP('',(#129,#130,#131,#132,#133));
#40=EDGE_LOOP('',(#134));
#41=EDGE_LOOP('',(#135,#136,#137,#138));
#42=EDGE_LOOP('',(#139,#140,#141,#142));
#43=EDGE_LOOP('',(#143,#144,#145,#146));
#44=EDGE_LOOP('',(#147,#148,#149,#150,#151));
#45=EDGE_LOOP('',(#152,#153,#154,#155,#156,#157));
#46=LINE('',#293,#52);
#47=LINE('',#300,#53);
#48=LINE('',#306,#54);
#49=LINE('',#312,#55);
#50=LINE('',#321,#56);
#51=LINE('',#329,#57);
#52=VECTOR('',#230,2.35);
#53=VECTOR('',#239,2.5);
#54=VECTOR('',#246,2.35000000000005);
#55=VECTOR('',#253,2.5);
#56=VECTOR('',#266,2.5);
#57=VECTOR('',#277,2.5);
#58=CIRCLE('',#195,2.5);
#59=CIRCLE('',#196,2.5);
#60=CIRCLE('',#197,2.2);
#61=CIRCLE('',#199,2.5);
#62=CIRCLE('',#200,2.5);
#63=CIRCLE('',#203,2.19999999999999);
#64=CIRCLE('',#204,2.5);
#65=CIRCLE('',#205,2.5);
#66=CIRCLE('',#207,2.5);
#67=CIRCLE('',#210,7.50000000000003);
#68=CIRCLE('',#211,2.5);
#69=CIRCLE('',#213,2.5);
#70=CIRCLE('',#215,7.50000000000011);
#71=CIRCLE('',#216,2.5);
#72=CIRCLE('',#218,2.5);
#73=CIRCLE('',#219,2.5);
#74=CIRCLE('',#221,7.50000000000003);
#75=VERTEX_POINT('',#288);
#76=VERTEX_POINT('',#289);
#77=VERTEX_POINT('',#292);
#78=VERTEX_POINT('',#296);
#79=VERTEX_POINT('',#297);
#80=VERTEX_POINT('',#303);
#81=VERTEX_POINT('',#305);
#82=VERTEX_POINT('',#307);
#83=VERTEX_POINT('',#311);
#84=VERTEX_POINT('',#316);
#85=VERTEX_POINT('',#320);
#86=VERTEX_POINT('',#324);
#87=VERTEX_POINT('',#328);
#88=VERTEX_POINT('',#330);
#89=EDGE_CURVE('',#75,#76,#58,.T.);
#90=EDGE_CURVE('',#76,#75,#59,.T.);
#91=EDGE_CURVE('',#75,#77,#46,.T.);
#92=EDGE_CURVE('',#77,#77,#60,.T.);
#93=EDGE_CURVE('',#78,#79,#61,.T.);
#94=EDGE_CURVE('',#79,#78,#62,.T.);
#95=EDGE_CURVE('',#79,#76,#47,.T.);
#96=EDGE_CURVE('',#80,#80,#63,.T.);
#97=EDGE_CURVE('',#80,#81,#48,.T.);
#98=EDGE_CURVE('',#81,#82,#64,.T.);
#99=EDGE_CURVE('',#82,#81,#65,.T.);
#100=EDGE_CURVE('',#82,#83,#49,.T.);
#101=EDGE_CURVE('',#83,#83,#66,.T.);
#102=EDGE_CURVE('',#83,#84,#67,.T.);
#103=EDGE_CURVE('',#84,#84,#68,.T.);
#104=EDGE_CURVE('',#84,#85,#50,.T.);
#105=EDGE_CURVE('',#85,#85,#69,.T.);
#106=EDGE_CURVE('',#85,#86,#70,.T.);
#107=EDGE_CURVE('',#86,#86,#71,.T.);
#108=EDGE_CURVE('',#86,#87,#51,.T.);
#109=EDGE_CURVE('',#87,#88,#72,.T.);
#110=EDGE_CURVE('',#88,#87,#73,.T.);
#111=EDGE_CURVE('',#88,#78,#74,.T.);
#112=ORIENTED_EDGE('',*,*,#89,.T.);
#113=ORIENTED_EDGE('',*,*,#90,.T.);
#114=ORIENTED_EDGE('',*,*,#91,.T.);
#115=ORIENTED_EDGE('',*,*,#92,.T.);
#116=ORIENTED_EDGE('',*,*,#91,.F.);
#117=ORIENTED_EDGE('',*,*,#93,.F.);
#118=ORIENTED_EDGE('',*,*,#94,.F.);
#119=ORIENTED_EDGE('',*,*,#95,.T.);
#120=ORIENTED_EDGE('',*,*,#89,.F.);
#121=ORIENTED_EDGE('',*,*,#90,.F.);
#122=ORIENTED_EDGE('',*,*,#95,.F.);
#123=ORIENTED_EDGE('',*,*,#92,.F.);
#124=ORIENTED_EDGE('',*,*,#96,.T.);
#125=ORIENTED_EDGE('',*,*,#97,.T.);
#126=ORIENTED_EDGE('',*,*,#98,.T.);
#127=ORIENTED_EDGE('',*,*,#99,.T.);
#128=ORIENTED_EDGE('',*,*,#97,.F.);
#129=ORIENTED_EDGE('',*,*,#98,.F.);
#130=ORIENTED_EDGE('',*,*,#99,.F.);
#131=ORIENTED_EDGE('',*,*,#100,.T.);
#132=ORIENTED_EDGE('',*,*,#101,.T.);
#133=ORIENTED_EDGE('',*,*,#100,.F.);
#134=ORIENTED_EDGE('',*,*,#96,.F.);
#135=ORIENTED_EDGE('',*,*,#101,.F.);
#136=ORIENTED_EDGE('',*,*,#102,.T.);
#137=ORIENTED_EDGE('',*,*,#103,.T.);
#138=ORIENTED_EDGE('',*,*,#102,.F.);
#139=ORIENTED_EDGE('',*,*,#103,.F.);
#140=ORIENTED_EDGE('',*,*,#104,.T.);
#141=ORIENTED_EDGE('',*,*,#105,.T.);
#142=ORIENTED_EDGE('',*,*,#104,.F.);
#143=ORIENTED_EDGE('',*,*,#105,.F.);
#144=ORIENTED_EDGE('',*,*,#106,.T.);
#145=ORIENTED_EDGE('',*,*,#107,.T.);
#146=ORIENTED_EDGE('',*,*,#106,.F.);
#147=ORIENTED_EDGE('',*,*,#107,.F.);
#148=ORIENTED_EDGE('',*,*,#108,.T.);
#149=ORIENTED_EDGE('',*,*,#109,.T.);
#150=ORIENTED_EDGE('',*,*,#110,.T.);
#151=ORIENTED_EDGE('',*,*,#108,.F.);
#152=ORIENTED_EDGE('',*,*,#110,.F.);
#153=ORIENTED_EDGE('',*,*,#111,.T.);
#154=ORIENTED_EDGE('',*,*,#93,.T.);
#155=ORIENTED_EDGE('',*,*,#94,.T.);
#156=ORIENTED_EDGE('',*,*,#111,.F.);
#157=ORIENTED_EDGE('',*,*,#109,.F.);
#158=CONICAL_SURFACE('',#194,2.35,0.785398163397448);
#159=CONICAL_SURFACE('',#202,2.35,0.785398163397497);
#160=ADVANCED_FACE('',(#24),#158,.T.);
#161=ADVANCED_FACE('',(#25),#20,.T.);
#162=ADVANCED_FACE('',(#26),#18,.F.);
#163=ADVANCED_FACE('',(#27),#159,.T.);
#164=ADVANCED_FACE('',(#28),#21,.T.);
#165=ADVANCED_FACE('',(#29),#19,.T.);
#166=ADVANCED_FACE('',(#30),#15,.T.);
#167=ADVANCED_FACE('',(#31),#22,.T.);
#168=ADVANCED_FACE('',(#32),#16,.T.);
#169=ADVANCED_FACE('',(#33),#23,.T.);
#170=ADVANCED_FACE('',(#34),#17,.T.);
#171=CLOSED_SHELL('',(#160,#161,#162,#163,#164,#165,#166,#167,#168,#169,
#170));
#172=DERIVED_UNIT_ELEMENT(#175,1.);
#173=DERIVED_UNIT_ELEMENT(#340,-3.);
#174=DIMENSIONAL_EXPONENTS(0.,1.,0.,0.,0.,0.,0.);
#175=(
CONVERSION_BASED_UNIT('gram',#177)
MASS_UNIT()
NAMED_UNIT(#174)
);
#176=(
MASS_UNIT()
NAMED_UNIT(*)
SI_UNIT(.KILO.,.GRAM.)
);
#177=MASS_MEASURE_WITH_UNIT(MASS_MEASURE(0.001),#176);
#178=DERIVED_UNIT((#172,#173));
#179=MEASURE_REPRESENTATION_ITEM('density measure',
POSITIVE_RATIO_MEASURE(2.7),#178);
#180=PROPERTY_DEFINITION_REPRESENTATION(#185,#182);
#181=PROPERTY_DEFINITION_REPRESENTATION(#186,#183);
#182=REPRESENTATION('material name',(#184),#337);
#183=REPRESENTATION('density',(#179),#337);
#184=DESCRIPTIVE_REPRESENTATION_ITEM('Aluminum 6061, Welded',
'Aluminum 6061, Welded');
#185=PROPERTY_DEFINITION('material property','material name',#347);
#186=PROPERTY_DEFINITION('material property','density of part',#347);
#187=DATE_TIME_ROLE('creation_date');
#188=APPLIED_DATE_AND_TIME_ASSIGNMENT(#189,#187,(#347));
#189=DATE_AND_TIME(#190,#191);
#190=CALENDAR_DATE(2021,7,11);
#191=LOCAL_TIME(0,0,0.,#192);
#192=COORDINATED_UNIVERSAL_TIME_OFFSET(0,0,.BEHIND.);
#193=AXIS2_PLACEMENT_3D('',#286,#222,#223);
#194=AXIS2_PLACEMENT_3D('',#287,#224,#225);
#195=AXIS2_PLACEMENT_3D('',#290,#226,#227);
#196=AXIS2_PLACEMENT_3D('',#291,#228,#229);
#197=AXIS2_PLACEMENT_3D('',#294,#231,#232);
#198=AXIS2_PLACEMENT_3D('',#295,#233,#234);
#199=AXIS2_PLACEMENT_3D('',#298,#235,#236);
#200=AXIS2_PLACEMENT_3D('',#299,#237,#238);
#201=AXIS2_PLACEMENT_3D('',#301,#240,#241);
#202=AXIS2_PLACEMENT_3D('',#302,#242,#243);
#203=AXIS2_PLACEMENT_3D('',#304,#244,#245);
#204=AXIS2_PLACEMENT_3D('',#308,#247,#248);
#205=AXIS2_PLACEMENT_3D('',#309,#249,#250);
#206=AXIS2_PLACEMENT_3D('',#310,#251,#252);
#207=AXIS2_PLACEMENT_3D('',#313,#254,#255);
#208=AXIS2_PLACEMENT_3D('',#314,#256,#257);
#209=AXIS2_PLACEMENT_3D('',#315,#258,#259);
#210=AXIS2_PLACEMENT_3D('',#317,#260,#261);
#211=AXIS2_PLACEMENT_3D('',#318,#262,#263);
#212=AXIS2_PLACEMENT_3D('',#319,#264,#265);
#213=AXIS2_PLACEMENT_3D('',#322,#267,#268);
#214=AXIS2_PLACEMENT_3D('',#323,#269,#270);
#215=AXIS2_PLACEMENT_3D('',#325,#271,#272);
#216=AXIS2_PLACEMENT_3D('',#326,#273,#274);
#217=AXIS2_PLACEMENT_3D('',#327,#275,#276);
#218=AXIS2_PLACEMENT_3D('',#331,#278,#279);
#219=AXIS2_PLACEMENT_3D('',#332,#280,#281);
#220=AXIS2_PLACEMENT_3D('',#333,#282,#283);
#221=AXIS2_PLACEMENT_3D('',#334,#284,#285);
#222=DIRECTION('axis',(0.,0.,1.));
#223=DIRECTION('refdir',(1.,0.,0.));
#224=DIRECTION('center_axis',(0.,1.,0.));
#225=DIRECTION('ref_axis',(1.,0.,0.));
#226=DIRECTION('center_axis',(0.,-1.,0.));
#227=DIRECTION('ref_axis',(1.,0.,0.));
#228=DIRECTION('center_axis',(0.,-1.,0.));
#229=DIRECTION('ref_axis',(1.,0.,0.));
#230=DIRECTION('',(0.707106781186547,-0.707106781186547,-8.65956056235493E-17));
#231=DIRECTION('center_axis',(0.,1.,0.));
#232=DIRECTION('ref_axis',(1.,0.,0.));
#233=DIRECTION('center_axis',(0.,1.,0.));
#234=DIRECTION('ref_axis',(-1.,0.,0.));
#235=DIRECTION('center_axis',(0.,1.,0.));
#236=DIRECTION('ref_axis',(-1.,0.,0.));
#237=DIRECTION('center_axis',(0.,1.,0.));
#238=DIRECTION('ref_axis',(-1.,0.,0.));
#239=DIRECTION('',(0.,-1.,0.));
#240=DIRECTION('center_axis',(0.,1.,0.));
#241=DIRECTION('ref_axis',(0.,0.,1.));
#242=DIRECTION('center_axis',(-1.,0.,0.));
#243=DIRECTION('ref_axis',(3.21573554504901E-15,-1.,0.));
#244=DIRECTION('center_axis',(-1.,-6.44501473155202E-15,0.));
#245=DIRECTION('ref_axis',(6.44501473155202E-15,-1.,0.));
#246=DIRECTION('',(-0.70710678118653,0.707106781186565,8.65956056235515E-17));
#247=DIRECTION('center_axis',(1.,6.44501473155202E-15,0.));
#248=DIRECTION('ref_axis',(3.73969860926369E-16,-1.,0.));
#249=DIRECTION('center_axis',(1.,6.44501473155202E-15,0.));
#250=DIRECTION('ref_axis',(3.73969860926369E-16,-1.,0.));
#251=DIRECTION('center_axis',(1.,3.73969860926369E-16,0.));
#252=DIRECTION('ref_axis',(-3.73969860926369E-16,1.,0.));
#253=DIRECTION('',(-1.,-3.73969860926369E-16,0.));
#254=DIRECTION('center_axis',(1.,6.3339924290895E-15,0.));
#255=DIRECTION('ref_axis',(-6.3339924290895E-15,1.,0.));
#256=DIRECTION('center_axis',(1.,6.44501473155202E-15,0.));
#257=DIRECTION('ref_axis',(0.,0.,1.));
#258=DIRECTION('center_axis',(0.,0.,-1.));
#259=DIRECTION('ref_axis',(-1.,0.,0.));
#260=DIRECTION('center_axis',(0.,0.,1.));
#261=DIRECTION('ref_axis',(-1.,0.,0.));
#262=DIRECTION('center_axis',(-8.04911692853238E-15,1.,0.));
#263=DIRECTION('ref_axis',(-1.,-8.04911692853238E-15,0.));
#264=DIRECTION('center_axis',(-3.66614458708E-16,1.,0.));
#265=DIRECTION('ref_axis',(-1.,-3.66614458708E-16,0.));
#266=DIRECTION('',(3.66614458708E-16,-1.,0.));
#267=DIRECTION('center_axis',(-8.04911692853238E-15,1.,0.));
#268=DIRECTION('ref_axis',(-1.,-8.04911692853238E-15,0.));
#269=DIRECTION('center_axis',(0.,0.,-1.));
#270=DIRECTION('ref_axis',(-1.,0.,0.));
#271=DIRECTION('center_axis',(0.,0.,1.));
#272=DIRECTION('ref_axis',(-1.,0.,0.));
#273=DIRECTION('center_axis',(-0.866025403784438,0.500000000000002,0.));
#274=DIRECTION('ref_axis',(-0.500000000000002,-0.866025403784438,0.));
#275=DIRECTION('center_axis',(-0.866025403784439,0.499999999999999,0.));
#276=DIRECTION('ref_axis',(-0.499999999999999,-0.866025403784439,0.));
#277=DIRECTION('',(0.866025403784439,-0.499999999999999,0.));
#278=DIRECTION('center_axis',(-0.866025403784438,0.500000000000002,0.));
#279=DIRECTION('ref_axis',(-0.500000000000002,-0.866025403784438,0.));
#280=DIRECTION('center_axis',(-0.866025403784438,0.500000000000002,0.));
#281=DIRECTION('ref_axis',(-0.500000000000002,-0.866025403784438,0.));
#282=DIRECTION('center_axis',(0.,0.,1.));
#283=DIRECTION('ref_axis',(1.,0.,0.));
#284=DIRECTION('center_axis',(0.,0.,-1.));
#285=DIRECTION('ref_axis',(1.,0.,0.));
#286=CARTESIAN_POINT('',(0.,0.,0.));
#287=CARTESIAN_POINT('Origin',(0.,0.15,0.));
#288=CARTESIAN_POINT('',(-2.5,0.3,-3.06161699786838E-16));
#289=CARTESIAN_POINT('',(2.5,0.3,-3.06161699786838E-16));
#290=CARTESIAN_POINT('Origin',(0.,0.3,0.));
#291=CARTESIAN_POINT('Origin',(0.,0.3,0.));
#292=CARTESIAN_POINT('',(-2.2,0.,2.69422295812418E-16));
#293=CARTESIAN_POINT('',(-2.35,0.15,2.87791997799628E-16));
#294=CARTESIAN_POINT('Origin',(0.,0.,0.));
#295=CARTESIAN_POINT('Origin',(0.,0.,0.));
#296=CARTESIAN_POINT('',(-2.5,84.2264973081037,0.));
#297=CARTESIAN_POINT('',(2.5,84.2264973081037,-3.06161699786838E-16));
#298=CARTESIAN_POINT('Origin',(0.,84.2264973081037,0.));
#299=CARTESIAN_POINT('Origin',(0.,84.2264973081037,0.));
#300=CARTESIAN_POINT('',(2.5,0.,-3.06161699786838E-16));
#301=CARTESIAN_POINT('Origin',(0.,0.,0.));
#302=CARTESIAN_POINT('Origin',(48.5583487540115,162.5,0.));
#303=CARTESIAN_POINT('',(48.7083487540115,164.7,-2.69422295812417E-16));
#304=CARTESIAN_POINT('Origin',(48.7083487540115,162.5,0.));
#305=CARTESIAN_POINT('',(48.4083487540115,165.,3.06161699786838E-16));
#306=CARTESIAN_POINT('',(48.5583487540115,164.85,2.87791997799627E-16));
#307=CARTESIAN_POINT('',(48.4083487540115,160.,-3.06161699786838E-16));
#308=CARTESIAN_POINT('Origin',(48.4083487540115,162.5,0.));
#309=CARTESIAN_POINT('Origin',(48.4083487540115,162.5,0.));
#310=CARTESIAN_POINT('Origin',(-46.2916512459885,162.5,0.));
#311=CARTESIAN_POINT('',(-46.2916512459886,160.,-3.06161699786838E-16));
#312=CARTESIAN_POINT('',(-46.2916512459885,160.,-3.06161699786838E-16));
#313=CARTESIAN_POINT('Origin',(-46.2916512459885,162.5,0.));
#314=CARTESIAN_POINT('Origin',(48.7083487540115,162.5,0.));
#315=CARTESIAN_POINT('Origin',(-46.2916512459885,152.5,0.));
#316=CARTESIAN_POINT('',(-53.7916512459886,152.5,3.06161699786838E-16));
#317=CARTESIAN_POINT('Origin',(-46.2916512459885,152.5,3.06161699786838E-16));
#318=CARTESIAN_POINT('Origin',(-56.2916512459886,152.5,0.));
#319=CARTESIAN_POINT('Origin',(-56.2916512459886,128.273502691896,0.));
#320=CARTESIAN_POINT('',(-53.7916512459886,128.273502691896,-3.06161699786838E-16));
#321=CARTESIAN_POINT('',(-53.7916512459886,128.273502691896,-3.06161699786838E-16));
#322=CARTESIAN_POINT('Origin',(-56.2916512459886,128.273502691896,0.));
#323=CARTESIAN_POINT('Origin',(-46.2916512459885,128.273502691896,0.));
#324=CARTESIAN_POINT('',(-50.0416512459885,121.778312163513,3.06161699786838E-16));
#325=CARTESIAN_POINT('Origin',(-46.2916512459885,128.273502691896,3.06161699786838E-16));
#326=CARTESIAN_POINT('Origin',(-51.2916512459885,119.613248654052,0.));
#327=CARTESIAN_POINT('Origin',(-5.,92.8867513459481,0.));
#328=CARTESIAN_POINT('',(-3.75,95.0518148554092,-3.06161699786838E-16));
#329=CARTESIAN_POINT('',(-3.75,95.0518148554092,-3.06161699786838E-16));
#330=CARTESIAN_POINT('',(-6.25000000000002,90.721687836487,0.));
#331=CARTESIAN_POINT('Origin',(-5.,92.8867513459481,0.));
#332=CARTESIAN_POINT('Origin',(-5.,92.8867513459481,0.));
#333=CARTESIAN_POINT('Origin',(-10.,84.2264973081037,0.));
#334=CARTESIAN_POINT('Origin',(-10.,84.2264973081037,-3.06161699786838E-16));
#335=UNCERTAINTY_MEASURE_WITH_UNIT(LENGTH_MEASURE(0.01),#339,
'DISTANCE_ACCURACY_VALUE',
'Maximum model space distance between geometric entities at asserted c
onnectivities');
#336=UNCERTAINTY_MEASURE_WITH_UNIT(LENGTH_MEASURE(0.01),#339,
'DISTANCE_ACCURACY_VALUE',
'Maximum model space distance between geometric entities at asserted c
onnectivities');
#337=(
GEOMETRIC_REPRESENTATION_CONTEXT(3)
GLOBAL_UNCERTAINTY_ASSIGNED_CONTEXT((#335))
GLOBAL_UNIT_ASSIGNED_CONTEXT((#339,#341,#342))
REPRESENTATION_CONTEXT('','3D')
);
#338=(
GEOMETRIC_REPRESENTATION_CONTEXT(3)
GLOBAL_UNCERTAINTY_ASSIGNED_CONTEXT((#336))
GLOBAL_UNIT_ASSIGNED_CONTEXT((#339,#341,#342))
REPRESENTATION_CONTEXT('','3D')
);
#339=(
LENGTH_UNIT()
NAMED_UNIT(*)
SI_UNIT(.MILLI.,.METRE.)
);
#340=(
LENGTH_UNIT()
NAMED_UNIT(*)
SI_UNIT(.CENTI.,.METRE.)
);
#341=(
NAMED_UNIT(*)
PLANE_ANGLE_UNIT()
SI_UNIT($,.RADIAN.)
);
#342=(
NAMED_UNIT(*)
SI_UNIT($,.STERADIAN.)
SOLID_ANGLE_UNIT()
);
#343=SHAPE_DEFINITION_REPRESENTATION(#344,#345);
#344=PRODUCT_DEFINITION_SHAPE('',$,#347);
#345=SHAPE_REPRESENTATION('',(#193),#337);
#346=PRODUCT_DEFINITION_CONTEXT('part definition',#351,'design');
#347=PRODUCT_DEFINITION('\X2\04120430043B0438043A\X0\ \X2\0434043504400436043004420435043B044C\X0\',
'holder',#348,#346);
#348=PRODUCT_DEFINITION_FORMATION('',$,#353);
#349=PRODUCT_RELATED_PRODUCT_CATEGORY('holder','holder',(#353));
#350=APPLICATION_PROTOCOL_DEFINITION('international standard',
'automotive_design',2009,#351);
#351=APPLICATION_CONTEXT(
'Core Data for Automotive Mechanical Design Process');
#352=PRODUCT_CONTEXT('part definition',#351,'mechanical');
#353=PRODUCT('\X2\04120430043B0438043A\X0\ \X2\0434043504400436043004420435043B044C\X0\',
'holder',$,(#352));
#354=PRESENTATION_STYLE_ASSIGNMENT((#355));
#355=SURFACE_STYLE_USAGE(.BOTH.,#358);
#356=SURFACE_STYLE_RENDERING_WITH_PROPERTIES($,#362,(#357));
#357=SURFACE_STYLE_TRANSPARENT(0.);
#358=SURFACE_SIDE_STYLE('',(#359,#356));
#359=SURFACE_STYLE_FILL_AREA(#360);
#360=FILL_AREA_STYLE('',(#361));
#361=FILL_AREA_STYLE_COLOUR('',#362);
#362=COLOUR_RGB('',0.768627450980392,0.76078431372549,0.8);
ENDSEC;
END-ISO-10303-21;
