ISO-10303-21;
HEADER;
/* Generated by software containing ST-Developer
 * from STEP Tools, Inc. (www.steptools.com) 
 */

FILE_DESCRIPTION(
/* description */ (''),
/* implementation_level */ '2;1');

FILE_NAME(
/* name */ 'roller.stp',
/* time_stamp */ '2024-06-20T09:53:56+04:00',
/* author */ ('Tofi'),
/* organization */ (''),
/* preprocessor_version */ 'ST-DEVELOPER v20',
/* originating_system */ 'Autodesk Inventor 2025',
/* authorisation */ '');

FILE_SCHEMA (('AUTOMOTIVE_DESIGN { 1 0 10303 214 3 1 1 }'));
ENDSEC;

DATA;
#10=MECHANICAL_DESIGN_GEOMETRIC_PRESENTATION_REPRESENTATION('',(#13,#14,
#15,#16,#17,#18),#413);
#11=SHAPE_REPRESENTATION_RELATIONSHIP('SRR','None',#420,#12);
#12=ADVANCED_BREP_SHAPE_REPRESENTATION('',(#19,#20),#412);
#13=STYLED_ITEM('',(#429),#19);
#14=STYLED_ITEM('',(#430),#215);
#15=STYLED_ITEM('',(#430),#216);
#16=STYLED_ITEM('',(#430),#217);
#17=STYLED_ITEM('',(#430),#218);
#18=STYLED_ITEM('',(#429),#20);
#19=MANIFOLD_SOLID_BREP('\X2\04220432043504400434043E0435\X0\ \X2\04420435043B043E\X0\1',
#219);
#20=MANIFOLD_SOLID_BREP('\X2\04220432043504400434043E0435\X0\ \X2\04420435043B043E\X0\2',
#220);
#21=CYLINDRICAL_SURFACE('',#266,2.5);
#22=CYLINDRICAL_SURFACE('',#268,17.5);
#23=CYLINDRICAL_SURFACE('',#272,17.5);
#24=CYLINDRICAL_SURFACE('',#274,19.5);
#25=TOROIDAL_SURFACE('',#253,5.,2.);
#26=TOROIDAL_SURFACE('',#259,5.,2.);
#27=FACE_BOUND('',#61,.T.);
#28=FACE_BOUND('',#64,.T.);
#29=FACE_BOUND('',#67,.T.);
#30=FACE_BOUND('',#70,.T.);
#31=FACE_BOUND('',#72,.T.);
#32=FACE_BOUND('',#75,.T.);
#33=FACE_BOUND('',#78,.T.);
#34=FACE_BOUND('',#82,.T.);
#35=PLANE('',#246);
#36=PLANE('',#251);
#37=PLANE('',#257);
#38=PLANE('',#263);
#39=PLANE('',#265);
#40=PLANE('',#267);
#41=PLANE('',#269);
#42=PLANE('',#276);
#43=FACE_OUTER_BOUND('',#59,.T.);
#44=FACE_OUTER_BOUND('',#60,.T.);
#45=FACE_OUTER_BOUND('',#62,.T.);
#46=FACE_OUTER_BOUND('',#63,.T.);
#47=FACE_OUTER_BOUND('',#65,.T.);
#48=FACE_OUTER_BOUND('',#66,.T.);
#49=FACE_OUTER_BOUND('',#68,.T.);
#50=FACE_OUTER_BOUND('',#69,.T.);
#51=FACE_OUTER_BOUND('',#71,.T.);
#52=FACE_OUTER_BOUND('',#73,.T.);
#53=FACE_OUTER_BOUND('',#74,.T.);
#54=FACE_OUTER_BOUND('',#76,.T.);
#55=FACE_OUTER_BOUND('',#77,.T.);
#56=FACE_OUTER_BOUND('',#79,.T.);
#57=FACE_OUTER_BOUND('',#80,.T.);
#58=FACE_OUTER_BOUND('',#81,.T.);
#59=EDGE_LOOP('',(#153,#154,#155,#156));
#60=EDGE_LOOP('',(#157));
#61=EDGE_LOOP('',(#158));
#62=EDGE_LOOP('',(#159,#160,#161,#162));
#63=EDGE_LOOP('',(#163));
#64=EDGE_LOOP('',(#164));
#65=EDGE_LOOP('',(#165,#166,#167,#168));
#66=EDGE_LOOP('',(#169));
#67=EDGE_LOOP('',(#170));
#68=EDGE_LOOP('',(#171,#172,#173,#174));
#69=EDGE_LOOP('',(#175));
#70=EDGE_LOOP('',(#176));
#71=EDGE_LOOP('',(#177));
#72=EDGE_LOOP('',(#178));
#73=EDGE_LOOP('',(#179,#180,#181,#182));
#74=EDGE_LOOP('',(#183));
#75=EDGE_LOOP('',(#184));
#76=EDGE_LOOP('',(#185,#186,#187,#188));
#77=EDGE_LOOP('',(#189));
#78=EDGE_LOOP('',(#190));
#79=EDGE_LOOP('',(#191,#192,#193,#194));
#80=EDGE_LOOP('',(#195,#196,#197,#198));
#81=EDGE_LOOP('',(#199));
#82=EDGE_LOOP('',(#200));
#83=LINE('',#358,#89);
#84=LINE('',#367,#90);
#85=LINE('',#392,#91);
#86=LINE('',#395,#92);
#87=LINE('',#404,#93);
#88=LINE('',#408,#94);
#89=VECTOR('',#283,11.);
#90=VECTOR('',#294,11.);
#91=VECTOR('',#329,2.5);
#92=VECTOR('',#334,17.5);
#93=VECTOR('',#345,17.5);
#94=VECTOR('',#350,19.5);
#95=CIRCLE('',#244,12.);
#96=CIRCLE('',#245,10.);
#97=CIRCLE('',#247,17.5);
#98=CIRCLE('',#249,12.);
#99=CIRCLE('',#250,10.);
#100=CIRCLE('',#252,17.5);
#101=CIRCLE('',#254,5.);
#102=CIRCLE('',#255,2.);
#103=CIRCLE('',#256,7.);
#104=CIRCLE('',#258,2.5);
#105=CIRCLE('',#260,5.);
#106=CIRCLE('',#261,2.);
#107=CIRCLE('',#262,7.);
#108=CIRCLE('',#264,2.5);
#109=CIRCLE('',#270,19.5);
#110=CIRCLE('',#271,17.5);
#111=CIRCLE('',#273,17.5);
#112=CIRCLE('',#275,19.5);
#113=VERTEX_POINT('',#355);
#114=VERTEX_POINT('',#357);
#115=VERTEX_POINT('',#361);
#116=VERTEX_POINT('',#364);
#117=VERTEX_POINT('',#366);
#118=VERTEX_POINT('',#370);
#119=VERTEX_POINT('',#373);
#120=VERTEX_POINT('',#375);
#121=VERTEX_POINT('',#379);
#122=VERTEX_POINT('',#382);
#123=VERTEX_POINT('',#384);
#124=VERTEX_POINT('',#388);
#125=VERTEX_POINT('',#397);
#126=VERTEX_POINT('',#399);
#127=VERTEX_POINT('',#402);
#128=VERTEX_POINT('',#406);
#129=EDGE_CURVE('',#113,#113,#95,.T.);
#130=EDGE_CURVE('',#113,#114,#83,.T.);
#131=EDGE_CURVE('',#114,#114,#96,.T.);
#132=EDGE_CURVE('',#115,#115,#97,.T.);
#133=EDGE_CURVE('',#116,#116,#98,.T.);
#134=EDGE_CURVE('',#116,#117,#84,.T.);
#135=EDGE_CURVE('',#117,#117,#99,.T.);
#136=EDGE_CURVE('',#118,#118,#100,.T.);
#137=EDGE_CURVE('',#119,#119,#101,.T.);
#138=EDGE_CURVE('',#119,#120,#102,.T.);
#139=EDGE_CURVE('',#120,#120,#103,.T.);
#140=EDGE_CURVE('',#121,#121,#104,.T.);
#141=EDGE_CURVE('',#122,#122,#105,.T.);
#142=EDGE_CURVE('',#122,#123,#106,.T.);
#143=EDGE_CURVE('',#123,#123,#107,.T.);
#144=EDGE_CURVE('',#124,#124,#108,.T.);
#145=EDGE_CURVE('',#124,#121,#85,.T.);
#146=EDGE_CURVE('',#118,#115,#86,.T.);
#147=EDGE_CURVE('',#125,#125,#109,.T.);
#148=EDGE_CURVE('',#126,#126,#110,.T.);
#149=EDGE_CURVE('',#127,#127,#111,.T.);
#150=EDGE_CURVE('',#127,#126,#87,.T.);
#151=EDGE_CURVE('',#128,#128,#112,.T.);
#152=EDGE_CURVE('',#128,#125,#88,.T.);
#153=ORIENTED_EDGE('',*,*,#129,.T.);
#154=ORIENTED_EDGE('',*,*,#130,.T.);
#155=ORIENTED_EDGE('',*,*,#131,.F.);
#156=ORIENTED_EDGE('',*,*,#130,.F.);
#157=ORIENTED_EDGE('',*,*,#132,.T.);
#158=ORIENTED_EDGE('',*,*,#129,.F.);
#159=ORIENTED_EDGE('',*,*,#133,.T.);
#160=ORIENTED_EDGE('',*,*,#134,.T.);
#161=ORIENTED_EDGE('',*,*,#135,.T.);
#162=ORIENTED_EDGE('',*,*,#134,.F.);
#163=ORIENTED_EDGE('',*,*,#136,.T.);
#164=ORIENTED_EDGE('',*,*,#133,.F.);
#165=ORIENTED_EDGE('',*,*,#137,.T.);
#166=ORIENTED_EDGE('',*,*,#138,.T.);
#167=ORIENTED_EDGE('',*,*,#139,.F.);
#168=ORIENTED_EDGE('',*,*,#138,.F.);
#169=ORIENTED_EDGE('',*,*,#137,.F.);
#170=ORIENTED_EDGE('',*,*,#140,.T.);
#171=ORIENTED_EDGE('',*,*,#141,.T.);
#172=ORIENTED_EDGE('',*,*,#142,.T.);
#173=ORIENTED_EDGE('',*,*,#143,.T.);
#174=ORIENTED_EDGE('',*,*,#142,.F.);
#175=ORIENTED_EDGE('',*,*,#141,.F.);
#176=ORIENTED_EDGE('',*,*,#144,.T.);
#177=ORIENTED_EDGE('',*,*,#131,.T.);
#178=ORIENTED_EDGE('',*,*,#139,.T.);
#179=ORIENTED_EDGE('',*,*,#144,.F.);
#180=ORIENTED_EDGE('',*,*,#145,.T.);
#181=ORIENTED_EDGE('',*,*,#140,.F.);
#182=ORIENTED_EDGE('',*,*,#145,.F.);
#183=ORIENTED_EDGE('',*,*,#135,.F.);
#184=ORIENTED_EDGE('',*,*,#143,.F.);
#185=ORIENTED_EDGE('',*,*,#136,.F.);
#186=ORIENTED_EDGE('',*,*,#146,.T.);
#187=ORIENTED_EDGE('',*,*,#132,.F.);
#188=ORIENTED_EDGE('',*,*,#146,.F.);
#189=ORIENTED_EDGE('',*,*,#147,.T.);
#190=ORIENTED_EDGE('',*,*,#148,.T.);
#191=ORIENTED_EDGE('',*,*,#149,.F.);
#192=ORIENTED_EDGE('',*,*,#150,.T.);
#193=ORIENTED_EDGE('',*,*,#148,.F.);
#194=ORIENTED_EDGE('',*,*,#150,.F.);
#195=ORIENTED_EDGE('',*,*,#151,.F.);
#196=ORIENTED_EDGE('',*,*,#152,.T.);
#197=ORIENTED_EDGE('',*,*,#147,.F.);
#198=ORIENTED_EDGE('',*,*,#152,.F.);
#199=ORIENTED_EDGE('',*,*,#151,.T.);
#200=ORIENTED_EDGE('',*,*,#149,.T.);
#201=CONICAL_SURFACE('',#243,11.,0.785398163397448);
#202=CONICAL_SURFACE('',#248,11.,0.785398163397448);
#203=ADVANCED_FACE('',(#43),#201,.F.);
#204=ADVANCED_FACE('',(#44,#27),#35,.F.);
#205=ADVANCED_FACE('',(#45),#202,.F.);
#206=ADVANCED_FACE('',(#46,#28),#36,.T.);
#207=ADVANCED_FACE('',(#47),#25,.T.);
#208=ADVANCED_FACE('',(#48,#29),#37,.F.);
#209=ADVANCED_FACE('',(#49),#26,.T.);
#210=ADVANCED_FACE('',(#50,#30),#38,.T.);
#211=ADVANCED_FACE('',(#51,#31),#39,.F.);
#212=ADVANCED_FACE('',(#52),#21,.F.);
#213=ADVANCED_FACE('',(#53,#32),#40,.T.);
#214=ADVANCED_FACE('',(#54),#22,.T.);
#215=ADVANCED_FACE('',(#55,#33),#41,.F.);
#216=ADVANCED_FACE('',(#56),#23,.F.);
#217=ADVANCED_FACE('',(#57),#24,.T.);
#218=ADVANCED_FACE('',(#58,#34),#42,.T.);
#219=CLOSED_SHELL('',(#203,#204,#205,#206,#207,#208,#209,#210,#211,#212,
#213,#214));
#220=CLOSED_SHELL('',(#215,#216,#217,#218));
#221=DERIVED_UNIT_ELEMENT(#224,1.);
#222=DERIVED_UNIT_ELEMENT(#415,-3.);
#223=DIMENSIONAL_EXPONENTS(0.,1.,0.,0.,0.,0.,0.);
#224=(
CONVERSION_BASED_UNIT('gram',#226)
MASS_UNIT()
NAMED_UNIT(#223)
);
#225=(
MASS_UNIT()
NAMED_UNIT(*)
SI_UNIT(.KILO.,.GRAM.)
);
#226=MASS_MEASURE_WITH_UNIT(MASS_MEASURE(0.001),#225);
#227=DERIVED_UNIT((#221,#222));
#228=MEASURE_REPRESENTATION_ITEM('density measure',
POSITIVE_RATIO_MEASURE(1.25),#227);
#229=PROPERTY_DEFINITION_REPRESENTATION(#234,#231);
#230=PROPERTY_DEFINITION_REPRESENTATION(#235,#232);
#231=REPRESENTATION('material name',(#233),#412);
#232=REPRESENTATION('density',(#228),#412);
#233=DESCRIPTIVE_REPRESENTATION_ITEM('Rubber, Silicone',
'Rubber, Silicone');
#234=PROPERTY_DEFINITION('material property','material name',#422);
#235=PROPERTY_DEFINITION('material property','density of part',#422);
#236=DATE_TIME_ROLE('creation_date');
#237=APPLIED_DATE_AND_TIME_ASSIGNMENT(#238,#236,(#422));
#238=DATE_AND_TIME(#239,#240);
#239=CALENDAR_DATE(2021,7,11);
#240=LOCAL_TIME(0,0,0.,#241);
#241=COORDINATED_UNIVERSAL_TIME_OFFSET(0,0,.BEHIND.);
#242=AXIS2_PLACEMENT_3D('',#353,#277,#278);
#243=AXIS2_PLACEMENT_3D('',#354,#279,#280);
#244=AXIS2_PLACEMENT_3D('',#356,#281,#282);
#245=AXIS2_PLACEMENT_3D('',#359,#284,#285);
#246=AXIS2_PLACEMENT_3D('',#360,#286,#287);
#247=AXIS2_PLACEMENT_3D('',#362,#288,#289);
#248=AXIS2_PLACEMENT_3D('',#363,#290,#291);
#249=AXIS2_PLACEMENT_3D('',#365,#292,#293);
#250=AXIS2_PLACEMENT_3D('',#368,#295,#296);
#251=AXIS2_PLACEMENT_3D('',#369,#297,#298);
#252=AXIS2_PLACEMENT_3D('',#371,#299,#300);
#253=AXIS2_PLACEMENT_3D('',#372,#301,#302);
#254=AXIS2_PLACEMENT_3D('',#374,#303,#304);
#255=AXIS2_PLACEMENT_3D('',#376,#305,#306);
#256=AXIS2_PLACEMENT_3D('',#377,#307,#308);
#257=AXIS2_PLACEMENT_3D('',#378,#309,#310);
#258=AXIS2_PLACEMENT_3D('',#380,#311,#312);
#259=AXIS2_PLACEMENT_3D('',#381,#313,#314);
#260=AXIS2_PLACEMENT_3D('',#383,#315,#316);
#261=AXIS2_PLACEMENT_3D('',#385,#317,#318);
#262=AXIS2_PLACEMENT_3D('',#386,#319,#320);
#263=AXIS2_PLACEMENT_3D('',#387,#321,#322);
#264=AXIS2_PLACEMENT_3D('',#389,#323,#324);
#265=AXIS2_PLACEMENT_3D('',#390,#325,#326);
#266=AXIS2_PLACEMENT_3D('',#391,#327,#328);
#267=AXIS2_PLACEMENT_3D('',#393,#330,#331);
#268=AXIS2_PLACEMENT_3D('',#394,#332,#333);
#269=AXIS2_PLACEMENT_3D('',#396,#335,#336);
#270=AXIS2_PLACEMENT_3D('',#398,#337,#338);
#271=AXIS2_PLACEMENT_3D('',#400,#339,#340);
#272=AXIS2_PLACEMENT_3D('',#401,#341,#342);
#273=AXIS2_PLACEMENT_3D('',#403,#343,#344);
#274=AXIS2_PLACEMENT_3D('',#405,#346,#347);
#275=AXIS2_PLACEMENT_3D('',#407,#348,#349);
#276=AXIS2_PLACEMENT_3D('',#409,#351,#352);
#277=DIRECTION('axis',(0.,0.,1.));
#278=DIRECTION('refdir',(1.,0.,0.));
#279=DIRECTION('center_axis',(0.,0.,-1.));
#280=DIRECTION('ref_axis',(-1.,0.,0.));
#281=DIRECTION('center_axis',(0.,0.,-1.));
#282=DIRECTION('ref_axis',(-1.,0.,0.));
#283=DIRECTION('',(-0.707106781186547,8.65956056235493E-17,0.707106781186548));
#284=DIRECTION('center_axis',(0.,0.,-1.));
#285=DIRECTION('ref_axis',(1.,0.,0.));
#286=DIRECTION('center_axis',(0.,0.,1.));
#287=DIRECTION('ref_axis',(1.,0.,0.));
#288=DIRECTION('center_axis',(0.,0.,-1.));
#289=DIRECTION('ref_axis',(1.,0.,0.));
#290=DIRECTION('center_axis',(0.,0.,1.));
#291=DIRECTION('ref_axis',(-1.,0.,0.));
#292=DIRECTION('center_axis',(0.,0.,1.));
#293=DIRECTION('ref_axis',(-1.,0.,0.));
#294=DIRECTION('',(-0.707106781186547,-8.65956056235493E-17,-0.707106781186548));
#295=DIRECTION('center_axis',(0.,0.,-1.));
#296=DIRECTION('ref_axis',(1.,0.,0.));
#297=DIRECTION('center_axis',(0.,0.,1.));
#298=DIRECTION('ref_axis',(1.,0.,0.));
#299=DIRECTION('center_axis',(0.,0.,1.));
#300=DIRECTION('ref_axis',(1.,0.,0.));
#301=DIRECTION('center_axis',(0.,0.,-1.));
#302=DIRECTION('ref_axis',(-1.,0.,0.));
#303=DIRECTION('center_axis',(0.,0.,1.));
#304=DIRECTION('ref_axis',(-1.,0.,0.));
#305=DIRECTION('center_axis',(-1.22464679914735E-16,-1.,0.));
#306=DIRECTION('ref_axis',(1.,-1.22464679914735E-16,0.));
#307=DIRECTION('center_axis',(0.,0.,1.));
#308=DIRECTION('ref_axis',(-1.,0.,0.));
#309=DIRECTION('center_axis',(0.,0.,1.));
#310=DIRECTION('ref_axis',(1.,0.,0.));
#311=DIRECTION('center_axis',(0.,0.,1.));
#312=DIRECTION('ref_axis',(1.,0.,0.));
#313=DIRECTION('center_axis',(0.,0.,1.));
#314=DIRECTION('ref_axis',(1.,0.,0.));
#315=DIRECTION('center_axis',(0.,0.,-1.));
#316=DIRECTION('ref_axis',(-1.,0.,0.));
#317=DIRECTION('center_axis',(1.22464679914735E-16,-1.,0.));
#318=DIRECTION('ref_axis',(-1.,-1.22464679914735E-16,0.));
#319=DIRECTION('center_axis',(0.,0.,1.));
#320=DIRECTION('ref_axis',(-1.,0.,0.));
#321=DIRECTION('center_axis',(0.,0.,1.));
#322=DIRECTION('ref_axis',(1.,0.,0.));
#323=DIRECTION('center_axis',(0.,0.,-1.));
#324=DIRECTION('ref_axis',(1.,0.,0.));
#325=DIRECTION('center_axis',(0.,0.,1.));
#326=DIRECTION('ref_axis',(1.,0.,0.));
#327=DIRECTION('center_axis',(0.,0.,-1.));
#328=DIRECTION('ref_axis',(1.,0.,0.));
#329=DIRECTION('',(0.,0.,-1.));
#330=DIRECTION('center_axis',(0.,0.,1.));
#331=DIRECTION('ref_axis',(1.,0.,0.));
#332=DIRECTION('center_axis',(0.,0.,1.));
#333=DIRECTION('ref_axis',(1.,0.,0.));
#334=DIRECTION('',(0.,0.,-1.));
#335=DIRECTION('center_axis',(0.,0.,1.));
#336=DIRECTION('ref_axis',(1.,0.,0.));
#337=DIRECTION('center_axis',(0.,0.,-1.));
#338=DIRECTION('ref_axis',(1.,0.,0.));
#339=DIRECTION('center_axis',(0.,0.,1.));
#340=DIRECTION('ref_axis',(-1.,0.,0.));
#341=DIRECTION('center_axis',(0.,0.,1.));
#342=DIRECTION('ref_axis',(-1.,0.,0.));
#343=DIRECTION('center_axis',(0.,0.,-1.));
#344=DIRECTION('ref_axis',(-1.,0.,0.));
#345=DIRECTION('',(0.,0.,-1.));
#346=DIRECTION('center_axis',(0.,0.,1.));
#347=DIRECTION('ref_axis',(1.,0.,0.));
#348=DIRECTION('center_axis',(0.,0.,1.));
#349=DIRECTION('ref_axis',(1.,0.,0.));
#350=DIRECTION('',(0.,0.,-1.));
#351=DIRECTION('center_axis',(0.,0.,1.));
#352=DIRECTION('ref_axis',(1.,0.,0.));
#353=CARTESIAN_POINT('',(0.,0.,0.));
#354=CARTESIAN_POINT('Origin',(0.,0.,-49.));
#355=CARTESIAN_POINT('',(12.,-1.46957615897682E-15,-50.));
#356=CARTESIAN_POINT('Origin',(0.,0.,-50.));
#357=CARTESIAN_POINT('',(10.,0.,-48.));
#358=CARTESIAN_POINT('',(11.,-1.34711147906209E-15,-49.));
#359=CARTESIAN_POINT('Origin',(0.,0.,-48.));
#360=CARTESIAN_POINT('Origin',(0.,0.,-50.));
#361=CARTESIAN_POINT('',(-17.5,-2.14313189850787E-15,-50.));
#362=CARTESIAN_POINT('Origin',(0.,0.,-50.));
#363=CARTESIAN_POINT('Origin',(0.,0.,49.));
#364=CARTESIAN_POINT('',(12.,1.46957615897682E-15,50.));
#365=CARTESIAN_POINT('Origin',(0.,0.,50.));
#366=CARTESIAN_POINT('',(10.,0.,48.));
#367=CARTESIAN_POINT('',(11.,1.34711147906209E-15,49.));
#368=CARTESIAN_POINT('Origin',(0.,0.,48.));
#369=CARTESIAN_POINT('Origin',(0.,0.,50.));
#370=CARTESIAN_POINT('',(-17.5,-2.14313189850787E-15,50.));
#371=CARTESIAN_POINT('Origin',(0.,0.,50.));
#372=CARTESIAN_POINT('Origin',(0.,0.,-48.));
#373=CARTESIAN_POINT('',(5.,6.12323399573677E-16,-50.));
#374=CARTESIAN_POINT('Origin',(0.,0.,-50.));
#375=CARTESIAN_POINT('',(7.,8.57252759403147E-16,-48.));
#376=CARTESIAN_POINT('Origin',(5.,-6.12323399573677E-16,-48.));
#377=CARTESIAN_POINT('Origin',(0.,0.,-48.));
#378=CARTESIAN_POINT('Origin',(0.,0.,-50.));
#379=CARTESIAN_POINT('',(-2.5,3.06161699786838E-16,-50.));
#380=CARTESIAN_POINT('Origin',(0.,0.,-50.));
#381=CARTESIAN_POINT('Origin',(0.,0.,48.));
#382=CARTESIAN_POINT('',(-5.,-6.12323399573677E-16,50.));
#383=CARTESIAN_POINT('Origin',(0.,0.,50.));
#384=CARTESIAN_POINT('',(-7.,-8.57252759403147E-16,48.));
#385=CARTESIAN_POINT('Origin',(-5.,-6.12323399573677E-16,48.));
#386=CARTESIAN_POINT('Origin',(0.,0.,48.));
#387=CARTESIAN_POINT('Origin',(0.,0.,50.));
#388=CARTESIAN_POINT('',(-2.5,3.06161699786838E-16,50.));
#389=CARTESIAN_POINT('Origin',(0.,0.,50.));
#390=CARTESIAN_POINT('Origin',(0.,0.,-48.));
#391=CARTESIAN_POINT('Origin',(0.,0.,50.));
#392=CARTESIAN_POINT('',(-2.5,3.06161699786838E-16,50.));
#393=CARTESIAN_POINT('Origin',(0.,0.,48.));
#394=CARTESIAN_POINT('Origin',(0.,0.,0.));
#395=CARTESIAN_POINT('',(-17.5,-2.14313189850787E-15,0.));
#396=CARTESIAN_POINT('Origin',(0.,0.,-50.));
#397=CARTESIAN_POINT('',(-19.5,-2.38806125833734E-15,-50.));
#398=CARTESIAN_POINT('Origin',(0.,0.,-50.));
#399=CARTESIAN_POINT('',(17.5,2.14313189850787E-15,-50.));
#400=CARTESIAN_POINT('Origin',(0.,0.,-50.));
#401=CARTESIAN_POINT('Origin',(0.,0.,0.));
#402=CARTESIAN_POINT('',(17.5,2.14313189850787E-15,50.));
#403=CARTESIAN_POINT('Origin',(0.,0.,50.));
#404=CARTESIAN_POINT('',(17.5,2.14313189850787E-15,0.));
#405=CARTESIAN_POINT('Origin',(0.,0.,0.));
#406=CARTESIAN_POINT('',(-19.5,-2.38806125833734E-15,50.));
#407=CARTESIAN_POINT('Origin',(0.,0.,50.));
#408=CARTESIAN_POINT('',(-19.5,-2.38806125833734E-15,0.));
#409=CARTESIAN_POINT('Origin',(0.,0.,50.));
#410=UNCERTAINTY_MEASURE_WITH_UNIT(LENGTH_MEASURE(0.01),#414,
'DISTANCE_ACCURACY_VALUE',
'Maximum model space distance between geometric entities at asserted c
onnectivities');
#411=UNCERTAINTY_MEASURE_WITH_UNIT(LENGTH_MEASURE(0.01),#414,
'DISTANCE_ACCURACY_VALUE',
'Maximum model space distance between geometric entities at asserted c
onnectivities');
#412=(
GEOMETRIC_REPRESENTATION_CONTEXT(3)
GLOBAL_UNCERTAINTY_ASSIGNED_CONTEXT((#410))
GLOBAL_UNIT_ASSIGNED_CONTEXT((#414,#416,#417))
REPRESENTATION_CONTEXT('','3D')
);
#413=(
GEOMETRIC_REPRESENTATION_CONTEXT(3)
GLOBAL_UNCERTAINTY_ASSIGNED_CONTEXT((#411))
GLOBAL_UNIT_ASSIGNED_CONTEXT((#414,#416,#417))
REPRESENTATION_CONTEXT('','3D')
);
#414=(
LENGTH_UNIT()
NAMED_UNIT(*)
SI_UNIT(.MILLI.,.METRE.)
);
#415=(
LENGTH_UNIT()
NAMED_UNIT(*)
SI_UNIT(.CENTI.,.METRE.)
);
#416=(
NAMED_UNIT(*)
PLANE_ANGLE_UNIT()
SI_UNIT($,.RADIAN.)
);
#417=(
NAMED_UNIT(*)
SI_UNIT($,.STERADIAN.)
SOLID_ANGLE_UNIT()
);
#418=SHAPE_DEFINITION_REPRESENTATION(#419,#420);
#419=PRODUCT_DEFINITION_SHAPE('',$,#422);
#420=SHAPE_REPRESENTATION('',(#242),#412);
#421=PRODUCT_DEFINITION_CONTEXT('part definition',#426,'design');
#422=PRODUCT_DEFINITION('\X2\04120430043B0438043A\X0\ \X2\04120430043B0438043A\X0\',
'roller',#423,#421);
#423=PRODUCT_DEFINITION_FORMATION('',$,#428);
#424=PRODUCT_RELATED_PRODUCT_CATEGORY('roller','roller',(#428));
#425=APPLICATION_PROTOCOL_DEFINITION('international standard',
'automotive_design',2009,#426);
#426=APPLICATION_CONTEXT(
'Core Data for Automotive Mechanical Design Process');
#427=PRODUCT_CONTEXT('part definition',#426,'mechanical');
#428=PRODUCT('\X2\04120430043B0438043A\X0\ \X2\04120430043B0438043A\X0\',
'roller',$,(#427));
#429=PRESENTATION_STYLE_ASSIGNMENT((#431));
#430=PRESENTATION_STYLE_ASSIGNMENT((#432));
#431=SURFACE_STYLE_USAGE(.BOTH.,#437);
#432=SURFACE_STYLE_USAGE(.BOTH.,#438);
#433=SURFACE_STYLE_RENDERING_WITH_PROPERTIES($,#445,(#435));
#434=SURFACE_STYLE_RENDERING_WITH_PROPERTIES($,#446,(#436));
#435=SURFACE_STYLE_TRANSPARENT(0.);
#436=SURFACE_STYLE_TRANSPARENT(0.);
#437=SURFACE_SIDE_STYLE('',(#439,#433));
#438=SURFACE_SIDE_STYLE('',(#440,#434));
#439=SURFACE_STYLE_FILL_AREA(#441);
#440=SURFACE_STYLE_FILL_AREA(#442);
#441=FILL_AREA_STYLE('',(#443));
#442=FILL_AREA_STYLE('',(#444));
#443=FILL_AREA_STYLE_COLOUR('',#445);
#444=FILL_AREA_STYLE_COLOUR('',#446);
#445=COLOUR_RGB('',0.0941176470588235,0.145098039215686,0.972549019607843);
#446=COLOUR_RGB('',0.301960784313725,0.301960784313725,0.301960784313725);
ENDSEC;
END-ISO-10303-21;
