ISO-10303-21;

HEADER;
FILE_DESCRIPTION((' '),'2;1');
FILE_NAME( 'BRIDGE_3.stp',
           '2024-04-03T16:35:05',
           (' '),
           ('---                        ---'),
           '                      V2024.1  Dec 29 2023',
           '        2024 (c)',
           ' ');
FILE_SCHEMA(('AP242_MANAGED_MODEL_BASED_3D_ENGINEERING_MIM_LF { 1 0 10303 442 1 1 4 }'));
ENDSEC;

DATA;
#1=APPLICATION_CONTEXT('Managed model based 3d engineering');
#2=APPLICATION_PROTOCOL_DEFINITION('international standard','ap242_managed_model_based_3d_engineering',2013,#1);
#3=(LENGTH_UNIT()NAMED_UNIT(*)SI_UNIT(.MILLI.,.METRE.));
#4=(NAMED_UNIT(*)PLANE_ANGLE_UNIT()SI_UNIT($,.RADIAN.));
#5=( GEOMETRIC_REPRESENTATION_CONTEXT(3)
       GLOBAL_UNCERTAINTY_ASSIGNED_CONTEXT((#6)) GLOBAL_UNIT_ASSIGNED_CONTEXT
  ((#3,#4)) REPRESENTATION_CONTEXT('Context #1',
  '3D Context with UNIT and UNCERTAINTY') );
#6=UNCERTAINTY_MEASURE_WITH_UNIT(LENGTH_MEASURE(0.005),#3,'distance_accuracy_value','Confusion accuracy');
#7=PRODUCT_CONTEXT('',#1,'mechanical');
#8=PRODUCT('BRIDGE_3','','',(#7));
#9=PRODUCT_DEFINITION_FORMATION('','',#8);
#10=PRODUCT_DEFINITION_CONTEXT('part definition',#1,'design');
#11=PRODUCT_DEFINITION('design','',#9,#10);
#12=PRODUCT_DEFINITION_SHAPE('','',#11);
#13=PRODUCT_CATEGORY('part',$);
#14=PRODUCT_RELATED_PRODUCT_CATEGORY('part',$,(#8));
#15=PRODUCT_CATEGORY_RELATIONSHIP('','',#13,#14);
#16=CARTESIAN_POINT('',(-0.5,15.0,-0.8660254038));
#17=VERTEX_POINT('',#16);
#18=CARTESIAN_POINT('',(0.5,15.0,-0.8660254038));
#19=VERTEX_POINT('',#18);
#20=CARTESIAN_POINT('',(-0.25,15.0,-0.8660254038));
#21=DIRECTION('',(1.0,0.0,0.0));
#22=VECTOR('',#21,1.0);
#23=LINE('',#20,#22);
#24=EDGE_CURVE('no 26',#17,#19,#23,.T.);
#25=ORIENTED_EDGE('no 14',*,*,#24,.F.);
#26=CARTESIAN_POINT('',(-0.5,14.0,-0.8660254038));
#27=VERTEX_POINT('',#26);
#28=CARTESIAN_POINT('',(-0.5,15.0,-0.8660254038));
#29=DIRECTION('',(0.0,-1.0,0.0));
#30=VECTOR('',#29,1.0);
#31=LINE('',#28,#30);
#32=EDGE_CURVE('no 39',#17,#27,#31,.T.);
#33=ORIENTED_EDGE('no 23',*,*,#32,.T.);
#34=CARTESIAN_POINT('',(0.5,14.0,-0.8660254038));
#35=VERTEX_POINT('',#34);
#36=CARTESIAN_POINT('',(0.5,14.0,-0.8660254038));
#37=DIRECTION('',(1.0,0.0,0.0));
#38=VECTOR('',#37,1.0);
#39=LINE('',#36,#38);
#40=EDGE_CURVE('no 63',#27,#35,#39,.T.);
#41=ORIENTED_EDGE('no 38',*,*,#40,.T.);
#42=CARTESIAN_POINT('',(0.5,15.0,-0.8660254038));
#43=DIRECTION('',(0.0,-1.0,0.0));
#44=VECTOR('',#43,1.0);
#45=LINE('',#42,#44);
#46=EDGE_CURVE('no 41',#19,#35,#45,.T.);
#47=ORIENTED_EDGE('no 24',*,*,#46,.F.);
#48=EDGE_LOOP('',(#25,#33,#41,#47));
#49=FACE_OUTER_BOUND('',#48,.T.);
#50=CARTESIAN_POINT('',(-0.5,15.0,-0.8660254038));
#51=DIRECTION('',(0.0,0.0,-1.0));
#52=DIRECTION('',(1.0,0.0,0.0));
#53=AXIS2_PLACEMENT_3D('',#50,#51,#52);
#54=PLANE('',#53);
#55=ADVANCED_FACE('no 4',(#49),#54,.F.);
#56=CARTESIAN_POINT('',(-1.0,15.0,0.0));
#57=VERTEX_POINT('',#56);
#58=CARTESIAN_POINT('',(-0.875,15.0,-0.2165063509));
#59=DIRECTION('',(0.5,0.0,-0.8660254038));
#60=VECTOR('',#59,1.0);
#61=LINE('',#58,#60);
#62=EDGE_CURVE('no 37',#57,#17,#61,.T.);
#63=ORIENTED_EDGE('no 22',*,*,#62,.F.);
#64=CARTESIAN_POINT('',(-1.0,14.0,0.0));
#65=VERTEX_POINT('',#64);
#66=CARTESIAN_POINT('',(-1.0,15.0,0.0));
#67=DIRECTION('',(-0.0,-1.0,0.0));
#68=VECTOR('',#67,1.0);
#69=LINE('',#66,#68);
#70=EDGE_CURVE('no 59',#57,#65,#69,.T.);
#71=ORIENTED_EDGE('no 34',*,*,#70,.T.);
#72=CARTESIAN_POINT('',(-0.5,14.0,-0.8660254038));
#73=DIRECTION('',(0.5,0.0,-0.8660254038));
#74=VECTOR('',#73,1.0);
#75=LINE('',#72,#74);
#76=EDGE_CURVE('no 94',#65,#27,#75,.T.);
#77=ORIENTED_EDGE('no 58',*,*,#76,.T.);
#78=ORIENTED_EDGE('no 35',*,*,#32,.F.);
#79=EDGE_LOOP('',(#63,#71,#77,#78));
#80=FACE_OUTER_BOUND('',#79,.T.);
#81=CARTESIAN_POINT('',(-1.0,15.0,0.0));
#82=DIRECTION('',(-0.8660254038,-0.0,-0.5));
#83=DIRECTION('',(0.5,0.0,-0.8660254038));
#84=AXIS2_PLACEMENT_3D('',#81,#82,#83);
#85=PLANE('',#84);
#86=ADVANCED_FACE('no 6',(#80),#85,.F.);
#87=CARTESIAN_POINT('',(-0.5,15.0,0.8660254038));
#88=VERTEX_POINT('',#87);
#89=CARTESIAN_POINT('',(-0.625,15.0,0.6495190528));
#90=DIRECTION('',(-0.5,0.0,-0.8660254038));
#91=VECTOR('',#90,1.0);
#92=LINE('',#89,#91);
#93=EDGE_CURVE('no 57',#88,#57,#92,.T.);
#94=ORIENTED_EDGE('no 33',*,*,#93,.F.);
#95=CARTESIAN_POINT('',(-0.5,14.0,0.8660254038));
#96=VERTEX_POINT('',#95);
#97=CARTESIAN_POINT('',(-0.5,15.0,0.8660254038));
#98=DIRECTION('',(0.0,-1.0,0.0));
#99=VECTOR('',#98,1.0);
#100=LINE('',#97,#99);
#101=EDGE_CURVE('no 90',#88,#96,#100,.T.);
#102=ORIENTED_EDGE('no 54',*,*,#101,.T.);
#103=CARTESIAN_POINT('',(-1.0,14.0,0.0));
#104=DIRECTION('',(-0.5,0.0,-0.8660254038));
#105=VECTOR('',#104,1.0);
#106=LINE('',#103,#105);
#107=EDGE_CURVE('no 127',#96,#65,#106,.T.);
#108=ORIENTED_EDGE('no 89',*,*,#107,.T.);
#109=ORIENTED_EDGE('no 55',*,*,#70,.F.);
#110=EDGE_LOOP('',(#94,#102,#108,#109));
#111=FACE_OUTER_BOUND('',#110,.T.);
#112=CARTESIAN_POINT('',(-0.5,15.0,0.8660254038));
#113=DIRECTION('',(-0.8660254038,0.0,0.5));
#114=DIRECTION('',(-0.5,0.0,-0.8660254038));
#115=AXIS2_PLACEMENT_3D('',#112,#113,#114);
#116=PLANE('',#115);
#117=ADVANCED_FACE('no 11',(#111),#116,.F.);
#118=CARTESIAN_POINT('',(0.5,15.0,0.8660254038));
#119=VERTEX_POINT('',#118);
#120=CARTESIAN_POINT('',(0.25,15.0,0.8660254038));
#121=DIRECTION('',(-1.0,0.0,0.0));
#122=VECTOR('',#121,1.0);
#123=LINE('',#120,#122);
#124=EDGE_CURVE('no 88',#119,#88,#123,.T.);
#125=ORIENTED_EDGE('no 53',*,*,#124,.F.);
#126=CARTESIAN_POINT('',(0.5,14.0,0.8660254038));
#127=VERTEX_POINT('',#126);
#128=CARTESIAN_POINT('',(0.5,15.0,0.8660254038));
#129=DIRECTION('',(0.0,-1.0,0.0));
#130=VECTOR('',#129,1.0);
#131=LINE('',#128,#130);
#132=EDGE_CURVE('no 123',#119,#127,#131,.T.);
#133=ORIENTED_EDGE('no 85',*,*,#132,.T.);
#134=CARTESIAN_POINT('',(-0.5,14.0,0.8660254038));
#135=DIRECTION('',(-1.0,0.0,0.0));
#136=VECTOR('',#135,1.0);
#137=LINE('',#134,#136);
#138=EDGE_CURVE('no 154',#127,#96,#137,.T.);
#139=ORIENTED_EDGE('no 122',*,*,#138,.T.);
#140=ORIENTED_EDGE('no 86',*,*,#101,.F.);
#141=EDGE_LOOP('',(#125,#133,#139,#140));
#142=FACE_OUTER_BOUND('',#141,.T.);
#143=CARTESIAN_POINT('',(0.5,15.0,0.8660254038));
#144=DIRECTION('',(0.0,0.0,1.0));
#145=DIRECTION('',(-1.0,0.0,0.0));
#146=AXIS2_PLACEMENT_3D('',#143,#144,#145);
#147=PLANE('',#146);
#148=ADVANCED_FACE('no 19',(#142),#147,.F.);
#149=CARTESIAN_POINT('',(1.0,15.0,0.0));
#150=VERTEX_POINT('',#149);
#151=CARTESIAN_POINT('',(0.875,15.0,0.2165063509));
#152=DIRECTION('',(-0.5,0.0,0.8660254038));
#153=VECTOR('',#152,1.0);
#154=LINE('',#151,#153);
#155=EDGE_CURVE('no 109',#150,#119,#154,.T.);
#156=ORIENTED_EDGE('no 84',*,*,#155,.F.);
#157=CARTESIAN_POINT('',(1.0,14.0,0.0));
#158=VERTEX_POINT('',#157);
#159=CARTESIAN_POINT('',(1.0,15.0,0.0));
#160=DIRECTION('',(0.0,-1.0,0.0));
#161=VECTOR('',#160,1.0);
#162=LINE('',#159,#161);
#163=EDGE_CURVE('no 137',#150,#158,#162,.T.);
#164=ORIENTED_EDGE('no 120',*,*,#163,.T.);
#165=CARTESIAN_POINT('',(0.5,14.0,0.8660254038));
#166=DIRECTION('',(-0.5,0.0,0.8660254038));
#167=VECTOR('',#166,1.0);
#168=LINE('',#165,#167);
#169=EDGE_CURVE('no 163',#158,#127,#168,.T.);
#170=ORIENTED_EDGE('no 152',*,*,#169,.T.);
#171=ORIENTED_EDGE('no 121',*,*,#132,.F.);
#172=EDGE_LOOP('',(#156,#164,#170,#171));
#173=FACE_OUTER_BOUND('',#172,.T.);
#174=CARTESIAN_POINT('',(1.0,15.0,-0.0));
#175=DIRECTION('',(0.8660254038,0.0,0.5));
#176=DIRECTION('',(-0.5,0.0,0.8660254038));
#177=AXIS2_PLACEMENT_3D('',#174,#175,#176);
#178=PLANE('',#177);
#179=ADVANCED_FACE('no 30',(#173),#178,.F.);
#180=CARTESIAN_POINT('',(0.625,15.0,-0.6495190528));
#181=DIRECTION('',(0.5,0.0,0.8660254038));
#182=VECTOR('',#181,1.0);
#183=LINE('',#180,#182);
#184=EDGE_CURVE('no 74',#19,#150,#183,.T.);
#185=ORIENTED_EDGE('no 68',*,*,#184,.F.);
#186=ORIENTED_EDGE('no 40',*,*,#46,.T.);
#187=CARTESIAN_POINT('',(1.0,14.0,0.0));
#188=DIRECTION('',(0.5,0.0,0.8660254038));
#189=VECTOR('',#188,1.0);
#190=LINE('',#187,#189);
#191=EDGE_CURVE('no 106',#35,#158,#190,.T.);
#192=ORIENTED_EDGE('no 67',*,*,#191,.T.);
#193=ORIENTED_EDGE('no 105',*,*,#163,.F.);
#194=EDGE_LOOP('',(#185,#186,#192,#193));
#195=FACE_OUTER_BOUND('',#194,.T.);
#196=CARTESIAN_POINT('',(0.5,15.0,-0.8660254038));
#197=DIRECTION('',(0.8660254038,0.0,-0.5));
#198=DIRECTION('',(0.5,0.0,0.8660254038));
#199=AXIS2_PLACEMENT_3D('',#196,#197,#198);
#200=PLANE('',#199);
#201=ADVANCED_FACE('no 50',(#195),#200,.F.);
#202=ORIENTED_EDGE('no 99',*,*,#191,.F.);
#203=ORIENTED_EDGE('no 62',*,*,#40,.F.);
#204=ORIENTED_EDGE('no 93',*,*,#76,.F.);
#205=ORIENTED_EDGE('no 126',*,*,#107,.F.);
#206=ORIENTED_EDGE('no 153',*,*,#138,.F.);
#207=ORIENTED_EDGE('no 136',*,*,#169,.F.);
#208=EDGE_LOOP('',(#202,#203,#204,#205,#206,#207));
#209=FACE_OUTER_BOUND('',#208,.T.);
#210=CARTESIAN_POINT('',(0.0,14.0,0.0));
#211=DIRECTION('',(0.0,-1.0,0.0));
#212=DIRECTION('',(0.0,0.0,-1.0));
#213=AXIS2_PLACEMENT_3D('',#210,#211,#212);
#214=PLANE('',#213);
#215=ADVANCED_FACE('no 82',(#209),#214,.F.);
#216=CARTESIAN_POINT('',(-1.2,0.0,0.0));
#217=VERTEX_POINT('',#216);
#218=CARTESIAN_POINT('',(0.0,0.0,0.0));
#219=DIRECTION('',(0.0,1.0,0.0));
#220=DIRECTION('',(1.0,0.0,0.0));
#221=AXIS2_PLACEMENT_3D('',#218,#219,#220);
#222=CIRCLE('',#221,1.2);
#223=EDGE_CURVE('no 198',#217,#217,#222,.T.);
#224=ORIENTED_EDGE('no 179',*,*,#223,.T.);
#225=EDGE_LOOP('',(#224));
#226=FACE_OUTER_BOUND('',#225,.T.);
#227=CARTESIAN_POINT('',(-1.5,0.3,-0.0));
#228=VERTEX_POINT('',#227);
#229=CARTESIAN_POINT('',(0.0,0.3,0.0));
#230=DIRECTION('',(-0.0,-1.0,-0.0));
#231=DIRECTION('',(1.0,0.0,0.0));
#232=AXIS2_PLACEMENT_3D('',#229,#230,#231);
#233=CIRCLE('',#232,1.5);
#234=EDGE_CURVE('no 208',#228,#228,#233,.T.);
#235=ORIENTED_EDGE('no 196',*,*,#234,.T.);
#236=EDGE_LOOP('',(#235));
#237=FACE_OUTER_BOUND('',#236,.T.);
#238=CARTESIAN_POINT('',(0.0,0.3,0.0));
#239=DIRECTION('',(0.0,1.0,0.0));
#240=DIRECTION('',(0.0,0.0,1.0));
#241=AXIS2_PLACEMENT_3D('',#238,#239,#240);
#242=TOROIDAL_SURFACE('',#241,1.2,0.3);
#243=ADVANCED_FACE('no 118',(#226,#237),#242,.T.);
#244=CARTESIAN_POINT('',(-1.5,14.7,0.0));
#245=VERTEX_POINT('',#244);
#246=CARTESIAN_POINT('',(0.0,14.7,0.0));
#247=DIRECTION('',(0.0,1.0,0.0));
#248=DIRECTION('',(1.0,0.0,0.0));
#249=AXIS2_PLACEMENT_3D('',#246,#247,#248);
#250=CIRCLE('',#249,1.5);
#251=EDGE_CURVE('no 207',#245,#245,#250,.T.);
#252=ORIENTED_EDGE('no 195',*,*,#251,.F.);
#253=EDGE_LOOP('',(#252));
#254=FACE_OUTER_BOUND('',#253,.T.);
#255=ORIENTED_EDGE('no 205',*,*,#234,.F.);
#256=EDGE_LOOP('',(#255));
#257=FACE_OUTER_BOUND('',#256,.T.);
#258=CARTESIAN_POINT('',(0.0,0.0,0.0));
#259=DIRECTION('',(0.0,1.0,0.0));
#260=DIRECTION('',(-1.0,0.0,0.0));
#261=AXIS2_PLACEMENT_3D('',#258,#259,#260);
#262=CYLINDRICAL_SURFACE('',#261,1.5);
#263=ADVANCED_FACE('no 149',(#254,#257),#262,.T.);
#264=ORIENTED_EDGE('no 197',*,*,#223,.F.);
#265=EDGE_LOOP('',(#264));
#266=FACE_OUTER_BOUND('',#265,.T.);
#267=CARTESIAN_POINT('',(0.0,0.0,0.0));
#268=DIRECTION('',(0.0,1.0,0.0));
#269=DIRECTION('',(0.0,0.0,1.0));
#270=AXIS2_PLACEMENT_3D('',#267,#268,#269);
#271=PLANE('',#270);
#272=ADVANCED_FACE('no 175',(#266),#271,.F.);
#273=ORIENTED_EDGE('no 206',*,*,#251,.T.);
#274=EDGE_LOOP('',(#273));
#275=FACE_OUTER_BOUND('',#274,.T.);
#276=CARTESIAN_POINT('',(-1.2,15.0,-0.0));
#277=VERTEX_POINT('',#276);
#278=CARTESIAN_POINT('',(0.0,15.0,0.0));
#279=DIRECTION('',(-0.0,-1.0,-0.0));
#280=DIRECTION('',(1.0,0.0,0.0));
#281=AXIS2_PLACEMENT_3D('',#278,#279,#280);
#282=CIRCLE('',#281,1.2);
#283=EDGE_CURVE('no 144',#277,#277,#282,.T.);
#284=ORIENTED_EDGE('no 143',*,*,#283,.T.);
#285=EDGE_LOOP('',(#284));
#286=FACE_OUTER_BOUND('',#285,.T.);
#287=CARTESIAN_POINT('',(0.0,14.7,0.0));
#288=DIRECTION('',(0.0,1.0,0.0));
#289=DIRECTION('',(0.0,0.0,1.0));
#290=AXIS2_PLACEMENT_3D('',#287,#288,#289);
#291=TOROIDAL_SURFACE('',#290,1.2,0.3);
#292=ADVANCED_FACE('no 186',(#275,#286),#291,.T.);
#293=ORIENTED_EDGE('no 25',*,*,#24,.T.);
#294=ORIENTED_EDGE('no 42',*,*,#184,.T.);
#295=ORIENTED_EDGE('no 73',*,*,#155,.T.);
#296=ORIENTED_EDGE('no 87',*,*,#124,.T.);
#297=ORIENTED_EDGE('no 56',*,*,#93,.T.);
#298=ORIENTED_EDGE('no 36',*,*,#62,.T.);
#299=EDGE_LOOP('',(#293,#294,#295,#296,#297,#298));
#300=FACE_BOUND('',#299,.T.);
#301=ORIENTED_EDGE('no 112',*,*,#283,.F.);
#302=EDGE_LOOP('',(#301));
#303=FACE_OUTER_BOUND('',#302,.T.);
#304=CARTESIAN_POINT('',(0.0,15.0,0.0));
#305=DIRECTION('',(0.0,1.0,0.0));
#306=DIRECTION('',(0.0,0.0,1.0));
#307=AXIS2_PLACEMENT_3D('',#304,#305,#306);
#308=PLANE('',#307);
#309=ADVANCED_FACE('no 76',(#300,#303),#308,.T.);
#310=CLOSED_SHELL('Solid1',(
    #55,#86,#117,#148,#179,#201,#215,#243,#263,#272,
    #292,#309));
#311=MANIFOLD_SOLID_BREP('Solid1',#310);
#312=COLOUR_RGB('',0.71765,0.71765,0.71765);
#313=FILL_AREA_STYLE_COLOUR('',#312);
#314=FILL_AREA_STYLE('',(#313));
#315=SURFACE_STYLE_FILL_AREA(#314);
#316=SURFACE_SIDE_STYLE('',(#315));
#317=SURFACE_STYLE_USAGE(.BOTH.,#316);
#318=PRESENTATION_STYLE_ASSIGNMENT((#317));
#319=STYLED_ITEM('',(#318),#311);
#320=COLOUR_RGB('',0.94902,0.94902,0.94902);
#321=FILL_AREA_STYLE_COLOUR('',#320);
#322=FILL_AREA_STYLE('',(#321));
#323=SURFACE_STYLE_FILL_AREA(#322);
#324=SURFACE_SIDE_STYLE('',(#323));
#325=SURFACE_STYLE_USAGE(.BOTH.,#324);
#326=PRESENTATION_STYLE_ASSIGNMENT((#325));
#327=OVER_RIDING_STYLED_ITEM('',(#326),#55,#319);
#328=OVER_RIDING_STYLED_ITEM('',(#326),#86,#319);
#329=OVER_RIDING_STYLED_ITEM('',(#326),#117,#319);
#330=OVER_RIDING_STYLED_ITEM('',(#326),#148,#319);
#331=OVER_RIDING_STYLED_ITEM('',(#326),#179,#319);
#332=OVER_RIDING_STYLED_ITEM('',(#326),#201,#319);
#333=OVER_RIDING_STYLED_ITEM('',(#326),#215,#319);
#334=OVER_RIDING_STYLED_ITEM('',(#326),#243,#319);
#335=OVER_RIDING_STYLED_ITEM('',(#326),#263,#319);
#336=OVER_RIDING_STYLED_ITEM('',(#326),#272,#319);
#337=OVER_RIDING_STYLED_ITEM('',(#326),#292,#319);
#338=OVER_RIDING_STYLED_ITEM('',(#326),#309,#319);
#339=CARTESIAN_POINT('',(0.,0.,0.));
#340=DIRECTION('',(0.,0.,1.));
#341=DIRECTION('',(1.,0.,0.));
#342=AXIS2_PLACEMENT_3D('Reference Axes',#339,#340,#341);
#343=SHAPE_REPRESENTATION('',(#342,#311),#5);
#344=SHAPE_DEFINITION_REPRESENTATION(#12,#343);
#345=CARTESIAN_POINT('',(19.6155244345,-19.6155244345,19.6155244345));
#346=DIRECTION('',(-0.5773502692,0.5773502692,-0.5773502692));
#347=DIRECTION('',(-0.7071067812,-0.7071067812,0.0));
#348=AXIS2_PLACEMENT_3D('View Reference',#345,#346,#347);
#349=CARTESIAN_POINT('',(0.0,0.0,0.0));
#350=CARTESIAN_POINT('',(-16.9875424689,-16.9875424689,16.9875424689));
#351=DIRECTION('',(0.0,0.0,1.0));
#352=DIRECTION('',(1.0,0.0,0.0));
#353=AXIS2_PLACEMENT_3D('View placement',#350,#351,#352);
#354=PLANAR_BOX('',33.9750849,33.9750849,#353);
#355=VIEW_VOLUME(.PARALLEL.,#349,16.9875425,0.,.F.,0.,.F.,.F.,#354);
#356=CAMERA_MODEL_D3('Isometric',#348,#355);
#357=CARTESIAN_POINT('',(0.,0.,0.));
#358=DIRECTION('',(0.,0.,1.));
#359=DIRECTION('',(1.,0.,0.));
#360=AXIS2_PLACEMENT_3D('',#357,#358,#359);
#361=REPRESENTATION_MAP(#360,#343);
#362=MAPPED_ITEM('',#361,#360);
#363=DRAUGHTING_MODEL('Isometric',(#356,#362),#5);
#364=CARTESIAN_POINT('',(0.0,0.0,235.3862932143));
#365=DIRECTION('',(-0.0,0.0,-1.0));
#366=DIRECTION('',(-1.0,0.0,0.0));
#367=AXIS2_PLACEMENT_3D('View Reference',#364,#365,#366);
#368=CARTESIAN_POINT('',(0.0,0.0,0.0));
#369=CARTESIAN_POINT('',(-117.6931466072,-117.6931466072,117.6931466072));
#370=DIRECTION('',(0.0,0.0,1.0));
#371=DIRECTION('',(1.0,0.0,0.0));
#372=AXIS2_PLACEMENT_3D('View placement',#369,#370,#371);
#373=PLANAR_BOX('',235.3862932,235.3862932,#372);
#374=VIEW_VOLUME(.PARALLEL.,#368,117.6931466,0.,.F.,0.,.F.,.F.,#373);
#375=CAMERA_MODEL_D3('Front',#367,#374);
#376=CARTESIAN_POINT('',(0.,0.,0.));
#377=DIRECTION('',(0.,0.,1.));
#378=DIRECTION('',(1.,0.,0.));
#379=AXIS2_PLACEMENT_3D('',#376,#377,#378);
#380=REPRESENTATION_MAP(#379,#343);
#381=MAPPED_ITEM('',#380,#379);
#382=DRAUGHTING_MODEL('Front',(#375,#381),#5);
#383=CARTESIAN_POINT('',(0.0,235.3862932143,0.0));
#384=DIRECTION('',(0.0,-1.0,0.0));
#385=DIRECTION('',(-1.0,-0.0,-0.0));
#386=AXIS2_PLACEMENT_3D('View Reference',#383,#384,#385);
#387=CARTESIAN_POINT('',(0.0,0.0,0.0));
#388=CARTESIAN_POINT('',(-117.6931466072,-117.6931466072,117.6931466072));
#389=DIRECTION('',(0.0,0.0,1.0));
#390=DIRECTION('',(1.0,0.0,0.0));
#391=AXIS2_PLACEMENT_3D('View placement',#388,#389,#390);
#392=PLANAR_BOX('',235.3862932,235.3862932,#391);
#393=VIEW_VOLUME(.PARALLEL.,#387,117.6931466,0.,.F.,0.,.F.,.F.,#392);
#394=CAMERA_MODEL_D3('Top',#386,#393);
#395=CARTESIAN_POINT('',(0.,0.,0.));
#396=DIRECTION('',(0.,0.,1.));
#397=DIRECTION('',(1.,0.,0.));
#398=AXIS2_PLACEMENT_3D('',#395,#396,#397);
#399=REPRESENTATION_MAP(#398,#343);
#400=MAPPED_ITEM('',#399,#398);
#401=DRAUGHTING_MODEL('Top',(#394,#400),#5);
#402=CARTESIAN_POINT('',(235.3862932143,0.0,0.0));
#403=DIRECTION('',(-1.0,0.0,0.0));
#404=DIRECTION('',(0.0,-0.0,1.0));
#405=AXIS2_PLACEMENT_3D('View Reference',#402,#403,#404);
#406=CARTESIAN_POINT('',(0.0,0.0,0.0));
#407=CARTESIAN_POINT('',(-117.6931466072,-117.6931466072,117.6931466072));
#408=DIRECTION('',(0.0,0.0,1.0));
#409=DIRECTION('',(1.0,0.0,0.0));
#410=AXIS2_PLACEMENT_3D('View placement',#407,#408,#409);
#411=PLANAR_BOX('',235.3862932,235.3862932,#410);
#412=VIEW_VOLUME(.PARALLEL.,#406,117.6931466,0.,.F.,0.,.F.,.F.,#411);
#413=CAMERA_MODEL_D3('Right',#405,#412);
#414=CARTESIAN_POINT('',(0.,0.,0.));
#415=DIRECTION('',(0.,0.,1.));
#416=DIRECTION('',(1.,0.,0.));
#417=AXIS2_PLACEMENT_3D('',#414,#415,#416);
#418=REPRESENTATION_MAP(#417,#343);
#419=MAPPED_ITEM('',#418,#417);
#420=DRAUGHTING_MODEL('Right',(#413,#419),#5);
#421=MECHANICAL_DESIGN_GEOMETRIC_PRESENTATION_REPRESENTATION('',(
    #319,#327,#328,#329,#330,#331,#332,#333,#334,#335,
    #336,#337,#338),#5);
ENDSEC;
END-ISO-10303-21;
