ISO-10303-21;
HEADER;
/* Generated by software containing ST-Developer
 * from STEP Tools, Inc. (www.steptools.com) 
 */

FILE_DESCRIPTION(
/* description */ (''),
/* implementation_level */ '2;1');

FILE_NAME(
/* name */ 'Sleds (Ranney-States Bot)_.step',
/* time_stamp */ '2024-01-25T18:12:34-05:00',
/* author */ (''),
/* organization */ (''),
/* preprocessor_version */ 'ST-DEVELOPER v20',
/* originating_system */ 'Autodesk Translation Framework v12.14.0.127',

/* authorisation */ '');

FILE_SCHEMA (('AUTOMOTIVE_DESIGN { 1 0 10303 214 3 1 1 }'));
ENDSEC;

DATA;
#10=MECHANICAL_DESIGN_GEOMETRIC_PRESENTATION_REPRESENTATION('',(#13),#391);
#11=SHAPE_REPRESENTATION_RELATIONSHIP('SRR','None',#401,#12);
#12=ADVANCED_BREP_SHAPE_REPRESENTATION('',(#14),#390);
#13=STYLED_ITEM('',(#410),#14);
#14=MANIFOLD_SOLID_BREP('Body1',#223);
#15=PLANE('',#240);
#16=PLANE('',#241);
#17=PLANE('',#248);
#18=PLANE('',#251);
#19=PLANE('',#254);
#20=PLANE('',#257);
#21=PLANE('',#258);
#22=FACE_OUTER_BOUND('',#34,.T.);
#23=FACE_OUTER_BOUND('',#35,.T.);
#24=FACE_OUTER_BOUND('',#36,.T.);
#25=FACE_OUTER_BOUND('',#37,.T.);
#26=FACE_OUTER_BOUND('',#38,.T.);
#27=FACE_OUTER_BOUND('',#39,.T.);
#28=FACE_OUTER_BOUND('',#40,.T.);
#29=FACE_OUTER_BOUND('',#41,.T.);
#30=FACE_OUTER_BOUND('',#42,.T.);
#31=FACE_OUTER_BOUND('',#43,.T.);
#32=FACE_OUTER_BOUND('',#44,.T.);
#33=FACE_OUTER_BOUND('',#45,.T.);
#34=EDGE_LOOP('',(#146,#147,#148,#149));
#35=EDGE_LOOP('',(#150,#151,#152,#153));
#36=EDGE_LOOP('',(#154,#155,#156,#157,#158,#159,#160,#161,#162,#163));
#37=EDGE_LOOP('',(#164,#165,#166,#167));
#38=EDGE_LOOP('',(#168,#169,#170,#171));
#39=EDGE_LOOP('',(#172,#173,#174,#175));
#40=EDGE_LOOP('',(#176,#177,#178,#179));
#41=EDGE_LOOP('',(#180,#181,#182,#183));
#42=EDGE_LOOP('',(#184,#185,#186,#187));
#43=EDGE_LOOP('',(#188,#189,#190,#191));
#44=EDGE_LOOP('',(#192,#193,#194,#195));
#45=EDGE_LOOP('',(#196,#197,#198,#199,#200,#201,#202,#203,#204,#205));
#46=LINE('',#331,#66);
#47=LINE('',#334,#67);
#48=LINE('',#337,#68);
#49=LINE('',#339,#69);
#50=LINE('',#340,#70);
#51=LINE('',#343,#71);
#52=LINE('',#347,#72);
#53=LINE('',#351,#73);
#54=LINE('',#355,#74);
#55=LINE('',#361,#75);
#56=LINE('',#362,#76);
#57=LINE('',#365,#77);
#58=LINE('',#366,#78);
#59=LINE('',#370,#79);
#60=LINE('',#372,#80);
#61=LINE('',#376,#81);
#62=LINE('',#379,#82);
#63=LINE('',#380,#83);
#64=LINE('',#384,#84);
#65=LINE('',#386,#85);
#66=VECTOR('',#265,0.393700787401575);
#67=VECTOR('',#268,0.393700787401575);
#68=VECTOR('',#271,0.393700787401575);
#69=VECTOR('',#272,0.393700787401575);
#70=VECTOR('',#273,0.393700787401575);
#71=VECTOR('',#276,0.393700787401575);
#72=VECTOR('',#279,0.393700787401575);
#73=VECTOR('',#282,0.393700787401575);
#74=VECTOR('',#285,0.393700787401575);
#75=VECTOR('',#292,0.393700787401575);
#76=VECTOR('',#293,0.393700787401575);
#77=VECTOR('',#296,0.393700787401575);
#78=VECTOR('',#297,0.393700787401575);
#79=VECTOR('',#302,0.393700787401575);
#80=VECTOR('',#305,0.393700787401575);
#81=VECTOR('',#310,0.393700787401575);
#82=VECTOR('',#313,0.393700787401575);
#83=VECTOR('',#314,0.393700787401575);
#84=VECTOR('',#319,0.393700787401575);
#85=VECTOR('',#322,0.393700787401575);
#86=CIRCLE('',#238,1.);
#87=CIRCLE('',#239,1.);
#88=CIRCLE('',#242,0.25);
#89=CIRCLE('',#243,0.125);
#90=CIRCLE('',#244,0.125);
#91=CIRCLE('',#245,0.25);
#92=CIRCLE('',#247,0.125);
#93=CIRCLE('',#250,0.25);
#94=CIRCLE('',#253,0.25);
#95=CIRCLE('',#256,0.125);
#96=VERTEX_POINT('',#327);
#97=VERTEX_POINT('',#328);
#98=VERTEX_POINT('',#330);
#99=VERTEX_POINT('',#332);
#100=VERTEX_POINT('',#336);
#101=VERTEX_POINT('',#338);
#102=VERTEX_POINT('',#342);
#103=VERTEX_POINT('',#344);
#104=VERTEX_POINT('',#346);
#105=VERTEX_POINT('',#348);
#106=VERTEX_POINT('',#350);
#107=VERTEX_POINT('',#352);
#108=VERTEX_POINT('',#354);
#109=VERTEX_POINT('',#358);
#110=VERTEX_POINT('',#359);
#111=VERTEX_POINT('',#364);
#112=VERTEX_POINT('',#368);
#113=VERTEX_POINT('',#374);
#114=VERTEX_POINT('',#378);
#115=VERTEX_POINT('',#382);
#116=EDGE_CURVE('',#96,#97,#86,.T.);
#117=EDGE_CURVE('',#97,#98,#46,.T.);
#118=EDGE_CURVE('',#98,#99,#87,.T.);
#119=EDGE_CURVE('',#99,#96,#47,.T.);
#120=EDGE_CURVE('',#97,#100,#48,.T.);
#121=EDGE_CURVE('',#101,#100,#49,.T.);
#122=EDGE_CURVE('',#101,#98,#50,.T.);
#123=EDGE_CURVE('',#102,#96,#51,.T.);
#124=EDGE_CURVE('',#103,#102,#88,.T.);
#125=EDGE_CURVE('',#104,#103,#52,.T.);
#126=EDGE_CURVE('',#105,#104,#89,.T.);
#127=EDGE_CURVE('',#106,#105,#53,.T.);
#128=EDGE_CURVE('',#107,#106,#90,.T.);
#129=EDGE_CURVE('',#108,#107,#54,.T.);
#130=EDGE_CURVE('',#100,#108,#91,.T.);
#131=EDGE_CURVE('',#109,#110,#92,.T.);
#132=EDGE_CURVE('',#110,#105,#55,.T.);
#133=EDGE_CURVE('',#104,#109,#56,.T.);
#134=EDGE_CURVE('',#111,#103,#57,.T.);
#135=EDGE_CURVE('',#109,#111,#58,.T.);
#136=EDGE_CURVE('',#112,#111,#93,.T.);
#137=EDGE_CURVE('',#102,#112,#59,.T.);
#138=EDGE_CURVE('',#112,#99,#60,.T.);
#139=EDGE_CURVE('',#113,#101,#94,.T.);
#140=EDGE_CURVE('',#108,#113,#61,.T.);
#141=EDGE_CURVE('',#114,#107,#62,.T.);
#142=EDGE_CURVE('',#113,#114,#63,.T.);
#143=EDGE_CURVE('',#115,#114,#95,.T.);
#144=EDGE_CURVE('',#106,#115,#64,.T.);
#145=EDGE_CURVE('',#115,#110,#65,.T.);
#146=ORIENTED_EDGE('',*,*,#116,.T.);
#147=ORIENTED_EDGE('',*,*,#117,.T.);
#148=ORIENTED_EDGE('',*,*,#118,.T.);
#149=ORIENTED_EDGE('',*,*,#119,.T.);
#150=ORIENTED_EDGE('',*,*,#117,.F.);
#151=ORIENTED_EDGE('',*,*,#120,.T.);
#152=ORIENTED_EDGE('',*,*,#121,.F.);
#153=ORIENTED_EDGE('',*,*,#122,.T.);
#154=ORIENTED_EDGE('',*,*,#116,.F.);
#155=ORIENTED_EDGE('',*,*,#123,.F.);
#156=ORIENTED_EDGE('',*,*,#124,.F.);
#157=ORIENTED_EDGE('',*,*,#125,.F.);
#158=ORIENTED_EDGE('',*,*,#126,.F.);
#159=ORIENTED_EDGE('',*,*,#127,.F.);
#160=ORIENTED_EDGE('',*,*,#128,.F.);
#161=ORIENTED_EDGE('',*,*,#129,.F.);
#162=ORIENTED_EDGE('',*,*,#130,.F.);
#163=ORIENTED_EDGE('',*,*,#120,.F.);
#164=ORIENTED_EDGE('',*,*,#131,.T.);
#165=ORIENTED_EDGE('',*,*,#132,.T.);
#166=ORIENTED_EDGE('',*,*,#126,.T.);
#167=ORIENTED_EDGE('',*,*,#133,.T.);
#168=ORIENTED_EDGE('',*,*,#133,.F.);
#169=ORIENTED_EDGE('',*,*,#125,.T.);
#170=ORIENTED_EDGE('',*,*,#134,.F.);
#171=ORIENTED_EDGE('',*,*,#135,.F.);
#172=ORIENTED_EDGE('',*,*,#136,.T.);
#173=ORIENTED_EDGE('',*,*,#134,.T.);
#174=ORIENTED_EDGE('',*,*,#124,.T.);
#175=ORIENTED_EDGE('',*,*,#137,.T.);
#176=ORIENTED_EDGE('',*,*,#119,.F.);
#177=ORIENTED_EDGE('',*,*,#138,.F.);
#178=ORIENTED_EDGE('',*,*,#137,.F.);
#179=ORIENTED_EDGE('',*,*,#123,.T.);
#180=ORIENTED_EDGE('',*,*,#139,.T.);
#181=ORIENTED_EDGE('',*,*,#121,.T.);
#182=ORIENTED_EDGE('',*,*,#130,.T.);
#183=ORIENTED_EDGE('',*,*,#140,.T.);
#184=ORIENTED_EDGE('',*,*,#140,.F.);
#185=ORIENTED_EDGE('',*,*,#129,.T.);
#186=ORIENTED_EDGE('',*,*,#141,.F.);
#187=ORIENTED_EDGE('',*,*,#142,.F.);
#188=ORIENTED_EDGE('',*,*,#143,.T.);
#189=ORIENTED_EDGE('',*,*,#141,.T.);
#190=ORIENTED_EDGE('',*,*,#128,.T.);
#191=ORIENTED_EDGE('',*,*,#144,.T.);
#192=ORIENTED_EDGE('',*,*,#132,.F.);
#193=ORIENTED_EDGE('',*,*,#145,.F.);
#194=ORIENTED_EDGE('',*,*,#144,.F.);
#195=ORIENTED_EDGE('',*,*,#127,.T.);
#196=ORIENTED_EDGE('',*,*,#118,.F.);
#197=ORIENTED_EDGE('',*,*,#122,.F.);
#198=ORIENTED_EDGE('',*,*,#139,.F.);
#199=ORIENTED_EDGE('',*,*,#142,.T.);
#200=ORIENTED_EDGE('',*,*,#143,.F.);
#201=ORIENTED_EDGE('',*,*,#145,.T.);
#202=ORIENTED_EDGE('',*,*,#131,.F.);
#203=ORIENTED_EDGE('',*,*,#135,.T.);
#204=ORIENTED_EDGE('',*,*,#136,.F.);
#205=ORIENTED_EDGE('',*,*,#138,.T.);
#206=CYLINDRICAL_SURFACE('',#237,1.);
#207=CYLINDRICAL_SURFACE('',#246,0.125);
#208=CYLINDRICAL_SURFACE('',#249,0.25);
#209=CYLINDRICAL_SURFACE('',#252,0.25);
#210=CYLINDRICAL_SURFACE('',#255,0.125);
#211=ADVANCED_FACE('',(#22),#206,.T.);
#212=ADVANCED_FACE('',(#23),#15,.T.);
#213=ADVANCED_FACE('',(#24),#16,.F.);
#214=ADVANCED_FACE('',(#25),#207,.T.);
#215=ADVANCED_FACE('',(#26),#17,.T.);
#216=ADVANCED_FACE('',(#27),#208,.T.);
#217=ADVANCED_FACE('',(#28),#18,.T.);
#218=ADVANCED_FACE('',(#29),#209,.T.);
#219=ADVANCED_FACE('',(#30),#19,.T.);
#220=ADVANCED_FACE('',(#31),#210,.T.);
#221=ADVANCED_FACE('',(#32),#20,.T.);
#222=ADVANCED_FACE('',(#33),#21,.T.);
#223=CLOSED_SHELL('',(#211,#212,#213,#214,#215,#216,#217,#218,#219,#220,
#221,#222));
#224=DERIVED_UNIT_ELEMENT(#226,1.);
#225=DERIVED_UNIT_ELEMENT(#395,-3.);
#226=(
MASS_UNIT()
NAMED_UNIT(*)
SI_UNIT(.KILO.,.GRAM.)
);
#227=DERIVED_UNIT((#224,#225));
#228=MEASURE_REPRESENTATION_ITEM('density measure',
POSITIVE_RATIO_MEASURE(1000.),#227);
#229=PROPERTY_DEFINITION_REPRESENTATION(#234,#231);
#230=PROPERTY_DEFINITION_REPRESENTATION(#235,#232);
#231=REPRESENTATION('material name',(#233),#390);
#232=REPRESENTATION('density',(#228),#390);
#233=DESCRIPTIVE_REPRESENTATION_ITEM('Generic','Generic');
#234=PROPERTY_DEFINITION('material property','material name',#403);
#235=PROPERTY_DEFINITION('material property','density of part',#403);
#236=AXIS2_PLACEMENT_3D('',#325,#259,#260);
#237=AXIS2_PLACEMENT_3D('',#326,#261,#262);
#238=AXIS2_PLACEMENT_3D('',#329,#263,#264);
#239=AXIS2_PLACEMENT_3D('',#333,#266,#267);
#240=AXIS2_PLACEMENT_3D('',#335,#269,#270);
#241=AXIS2_PLACEMENT_3D('',#341,#274,#275);
#242=AXIS2_PLACEMENT_3D('',#345,#277,#278);
#243=AXIS2_PLACEMENT_3D('',#349,#280,#281);
#244=AXIS2_PLACEMENT_3D('',#353,#283,#284);
#245=AXIS2_PLACEMENT_3D('',#356,#286,#287);
#246=AXIS2_PLACEMENT_3D('',#357,#288,#289);
#247=AXIS2_PLACEMENT_3D('',#360,#290,#291);
#248=AXIS2_PLACEMENT_3D('',#363,#294,#295);
#249=AXIS2_PLACEMENT_3D('',#367,#298,#299);
#250=AXIS2_PLACEMENT_3D('',#369,#300,#301);
#251=AXIS2_PLACEMENT_3D('',#371,#303,#304);
#252=AXIS2_PLACEMENT_3D('',#373,#306,#307);
#253=AXIS2_PLACEMENT_3D('',#375,#308,#309);
#254=AXIS2_PLACEMENT_3D('',#377,#311,#312);
#255=AXIS2_PLACEMENT_3D('',#381,#315,#316);
#256=AXIS2_PLACEMENT_3D('',#383,#317,#318);
#257=AXIS2_PLACEMENT_3D('',#385,#320,#321);
#258=AXIS2_PLACEMENT_3D('',#387,#323,#324);
#259=DIRECTION('axis',(0.,0.,1.));
#260=DIRECTION('refdir',(1.,0.,0.));
#261=DIRECTION('center_axis',(0.,0.,-1.));
#262=DIRECTION('ref_axis',(0.461748613235034,-0.887010833178222,0.));
#263=DIRECTION('center_axis',(0.,0.,1.));
#264=DIRECTION('ref_axis',(0.461748613235034,-0.887010833178222,0.));
#265=DIRECTION('',(0.,0.,1.));
#266=DIRECTION('center_axis',(0.,0.,-1.));
#267=DIRECTION('ref_axis',(0.461748613235034,-0.887010833178222,0.));
#268=DIRECTION('',(0.,0.,-1.));
#269=DIRECTION('center_axis',(0.819152044288992,-0.573576436351046,0.));
#270=DIRECTION('ref_axis',(0.,0.,-1.));
#271=DIRECTION('',(0.573576436351046,0.819152044288992,0.));
#272=DIRECTION('',(0.,0.,-1.));
#273=DIRECTION('',(-0.573576436351046,-0.819152044288992,0.));
#274=DIRECTION('center_axis',(0.,0.,1.));
#275=DIRECTION('ref_axis',(1.,0.,0.));
#276=DIRECTION('',(1.,0.,0.));
#277=DIRECTION('center_axis',(0.,0.,1.));
#278=DIRECTION('ref_axis',(-0.707106781186548,-0.707106781186547,0.));
#279=DIRECTION('',(0.,-1.,0.));
#280=DIRECTION('center_axis',(0.,0.,1.));
#281=DIRECTION('ref_axis',(-0.707106781186549,0.707106781186547,0.));
#282=DIRECTION('',(-1.,0.,0.));
#283=DIRECTION('center_axis',(0.,0.,1.));
#284=DIRECTION('ref_axis',(0.707106781186546,0.70710678118655,0.));
#285=DIRECTION('',(0.,1.,0.));
#286=DIRECTION('center_axis',(0.,0.,1.));
#287=DIRECTION('ref_axis',(0.953716950748227,-0.300705799504272,0.));
#288=DIRECTION('center_axis',(0.,0.,1.));
#289=DIRECTION('ref_axis',(-0.707106781186549,0.707106781186547,0.));
#290=DIRECTION('center_axis',(0.,0.,-1.));
#291=DIRECTION('ref_axis',(-0.707106781186549,0.707106781186547,0.));
#292=DIRECTION('',(0.,0.,-1.));
#293=DIRECTION('',(0.,0.,1.));
#294=DIRECTION('center_axis',(-1.,0.,0.));
#295=DIRECTION('ref_axis',(0.,-1.,0.));
#296=DIRECTION('',(0.,0.,-1.));
#297=DIRECTION('',(0.,-1.,0.));
#298=DIRECTION('center_axis',(0.,0.,1.));
#299=DIRECTION('ref_axis',(-0.707106781186548,-0.707106781186547,0.));
#300=DIRECTION('center_axis',(0.,0.,-1.));
#301=DIRECTION('ref_axis',(-0.707106781186548,-0.707106781186547,0.));
#302=DIRECTION('',(0.,0.,1.));
#303=DIRECTION('center_axis',(0.,-1.,0.));
#304=DIRECTION('ref_axis',(1.,0.,0.));
#305=DIRECTION('',(1.,0.,0.));
#306=DIRECTION('center_axis',(0.,0.,1.));
#307=DIRECTION('ref_axis',(0.953716950748227,-0.300705799504272,0.));
#308=DIRECTION('center_axis',(0.,0.,-1.));
#309=DIRECTION('ref_axis',(0.953716950748227,-0.300705799504272,0.));
#310=DIRECTION('',(0.,0.,1.));
#311=DIRECTION('center_axis',(1.,0.,0.));
#312=DIRECTION('ref_axis',(0.,1.,0.));
#313=DIRECTION('',(0.,0.,-1.));
#314=DIRECTION('',(0.,1.,0.));
#315=DIRECTION('center_axis',(0.,0.,1.));
#316=DIRECTION('ref_axis',(0.707106781186546,0.70710678118655,0.));
#317=DIRECTION('center_axis',(0.,0.,-1.));
#318=DIRECTION('ref_axis',(0.707106781186546,0.70710678118655,0.));
#319=DIRECTION('',(0.,0.,1.));
#320=DIRECTION('center_axis',(0.,1.,0.));
#321=DIRECTION('ref_axis',(-1.,0.,0.));
#322=DIRECTION('',(-1.,0.,0.));
#323=DIRECTION('center_axis',(0.,0.,1.));
#324=DIRECTION('ref_axis',(1.,0.,0.));
#325=CARTESIAN_POINT('',(0.,0.,0.));
#326=CARTESIAN_POINT('Origin',(1.25406975758126,1.,0.));
#327=CARTESIAN_POINT('',(1.25406975758126,0.,0.));
#328=CARTESIAN_POINT('',(2.07322180187025,0.426423563648954,0.));
#329=CARTESIAN_POINT('Origin',(1.25406975758126,1.,0.));
#330=CARTESIAN_POINT('',(2.07322180187025,0.426423563648954,0.05));
#331=CARTESIAN_POINT('',(2.07322180187025,0.426423563648954,0.));
#332=CARTESIAN_POINT('',(1.25406975758126,0.,0.05));
#333=CARTESIAN_POINT('Origin',(1.25406975758126,1.,0.05));
#334=CARTESIAN_POINT('',(1.25406975758126,0.,0.));
#335=CARTESIAN_POINT('Origin',(2.3873184040665,0.875,0.));
#336=CARTESIAN_POINT('',(2.95478801107225,1.68543058813198,0.));
#337=CARTESIAN_POINT('',(2.27072438938302,0.708486490331722,0.));
#338=CARTESIAN_POINT('',(2.95478801107225,1.68543058813198,0.05));
#339=CARTESIAN_POINT('',(2.95478801107225,1.68543058813198,0.));
#340=CARTESIAN_POINT('',(2.27072438938302,0.708486490331722,0.05));
#341=CARTESIAN_POINT('Origin',(1.5,1.,0.));
#342=CARTESIAN_POINT('',(0.25,0.,0.));
#343=CARTESIAN_POINT('',(0.,0.,0.));
#344=CARTESIAN_POINT('',(0.,0.25,0.));
#345=CARTESIAN_POINT('Origin',(0.25,0.25,0.));
#346=CARTESIAN_POINT('',(0.,1.875,0.));
#347=CARTESIAN_POINT('',(0.,2.,0.));
#348=CARTESIAN_POINT('',(0.125,2.,0.));
#349=CARTESIAN_POINT('Origin',(0.125,1.875,0.));
#350=CARTESIAN_POINT('',(2.875,2.,0.));
#351=CARTESIAN_POINT('',(3.,2.,0.));
#352=CARTESIAN_POINT('',(3.,1.875,0.));
#353=CARTESIAN_POINT('Origin',(2.875,1.875,0.));
#354=CARTESIAN_POINT('',(3.,1.82882469721975,0.));
#355=CARTESIAN_POINT('',(3.,0.,0.));
#356=CARTESIAN_POINT('Origin',(2.75,1.82882469721975,0.));
#357=CARTESIAN_POINT('Origin',(0.125,1.875,0.));
#358=CARTESIAN_POINT('',(0.,1.875,0.05));
#359=CARTESIAN_POINT('',(0.125,2.,0.05));
#360=CARTESIAN_POINT('Origin',(0.125,1.875,0.05));
#361=CARTESIAN_POINT('',(0.125,2.,0.));
#362=CARTESIAN_POINT('',(0.,1.875,0.));
#363=CARTESIAN_POINT('Origin',(0.,2.,0.));
#364=CARTESIAN_POINT('',(0.,0.25,0.05));
#365=CARTESIAN_POINT('',(0.,0.25,0.));
#366=CARTESIAN_POINT('',(0.,2.,0.05));
#367=CARTESIAN_POINT('Origin',(0.25,0.25,0.));
#368=CARTESIAN_POINT('',(0.25,0.,0.05));
#369=CARTESIAN_POINT('Origin',(0.25,0.25,0.05));
#370=CARTESIAN_POINT('',(0.25,0.,0.));
#371=CARTESIAN_POINT('Origin',(0.,0.,0.));
#372=CARTESIAN_POINT('',(0.,0.,0.05));
#373=CARTESIAN_POINT('Origin',(2.75,1.82882469721975,0.));
#374=CARTESIAN_POINT('',(3.,1.82882469721975,0.05));
#375=CARTESIAN_POINT('Origin',(2.75,1.82882469721975,0.05));
#376=CARTESIAN_POINT('',(3.,1.82882469721975,0.));
#377=CARTESIAN_POINT('Origin',(3.,0.,0.));
#378=CARTESIAN_POINT('',(3.,1.875,0.05));
#379=CARTESIAN_POINT('',(3.,1.875,0.));
#380=CARTESIAN_POINT('',(3.,0.,0.05));
#381=CARTESIAN_POINT('Origin',(2.875,1.875,0.));
#382=CARTESIAN_POINT('',(2.875,2.,0.05));
#383=CARTESIAN_POINT('Origin',(2.875,1.875,0.05));
#384=CARTESIAN_POINT('',(2.875,2.,0.));
#385=CARTESIAN_POINT('Origin',(3.,2.,0.));
#386=CARTESIAN_POINT('',(3.,2.,0.05));
#387=CARTESIAN_POINT('Origin',(1.5,1.,0.05));
#388=UNCERTAINTY_MEASURE_WITH_UNIT(LENGTH_MEASURE(0.000393700787401575),
#393,'DISTANCE_ACCURACY_VALUE',
'Maximum model space distance between geometric entities at asserted c
onnectivities');
#389=UNCERTAINTY_MEASURE_WITH_UNIT(LENGTH_MEASURE(0.000393700787401575),
#393,'DISTANCE_ACCURACY_VALUE',
'Maximum model space distance between geometric entities at asserted c
onnectivities');
#390=(
GEOMETRIC_REPRESENTATION_CONTEXT(3)
GLOBAL_UNCERTAINTY_ASSIGNED_CONTEXT((#388))
GLOBAL_UNIT_ASSIGNED_CONTEXT((#393,#397,#398))
REPRESENTATION_CONTEXT('','3D')
);
#391=(
GEOMETRIC_REPRESENTATION_CONTEXT(3)
GLOBAL_UNCERTAINTY_ASSIGNED_CONTEXT((#389))
GLOBAL_UNIT_ASSIGNED_CONTEXT((#393,#397,#398))
REPRESENTATION_CONTEXT('','3D')
);
#392=DIMENSIONAL_EXPONENTS(1.,0.,0.,0.,0.,0.,0.);
#393=(
CONVERSION_BASED_UNIT('inch',#396)
LENGTH_UNIT()
NAMED_UNIT(#392)
);
#394=(
LENGTH_UNIT()
NAMED_UNIT(*)
SI_UNIT(.MILLI.,.METRE.)
);
#395=(
LENGTH_UNIT()
NAMED_UNIT(*)
SI_UNIT($,.METRE.)
);
#396=LENGTH_MEASURE_WITH_UNIT(LENGTH_MEASURE(25.4),#394);
#397=(
NAMED_UNIT(*)
PLANE_ANGLE_UNIT()
SI_UNIT($,.RADIAN.)
);
#398=(
NAMED_UNIT(*)
SI_UNIT($,.STERADIAN.)
SOLID_ANGLE_UNIT()
);
#399=SHAPE_DEFINITION_REPRESENTATION(#400,#401);
#400=PRODUCT_DEFINITION_SHAPE('',$,#403);
#401=SHAPE_REPRESENTATION('',(#236),#390);
#402=PRODUCT_DEFINITION_CONTEXT('part definition',#407,'design');
#403=PRODUCT_DEFINITION('Sleds (Ranney-States Bot)',
'Sleds (Ranney-States Bot) v1',#404,#402);
#404=PRODUCT_DEFINITION_FORMATION('',$,#409);
#405=PRODUCT_RELATED_PRODUCT_CATEGORY('Sleds (Ranney-States Bot) v1',
'Sleds (Ranney-States Bot) v1',(#409));
#406=APPLICATION_PROTOCOL_DEFINITION('international standard',
'automotive_design',2009,#407);
#407=APPLICATION_CONTEXT(
'Core Data for Automotive Mechanical Design Process');
#408=PRODUCT_CONTEXT('part definition',#407,'mechanical');
#409=PRODUCT('Sleds (Ranney-States Bot)','Sleds (Ranney-States Bot) v1',
$,(#408));
#410=PRESENTATION_STYLE_ASSIGNMENT((#411));
#411=SURFACE_STYLE_USAGE(.BOTH.,#412);
#412=SURFACE_SIDE_STYLE('',(#413));
#413=SURFACE_STYLE_FILL_AREA(#414);
#414=FILL_AREA_STYLE('Default',(#415));
#415=FILL_AREA_STYLE_COLOUR('Default',#416);
#416=COLOUR_RGB('Default',0.749019607843137,0.749019607843137,0.749019607843137);
ENDSEC;
END-ISO-10303-21;
