ISO-10303-21;
HEADER;
/* Generated by software containing ST-Developer
 * from STEP Tools, Inc. (www.steptools.com) 
 */

FILE_DESCRIPTION(
/* description */ (''),
/* implementation_level */ '2;1');

FILE_NAME(
/* name */ 'C:/Users/cjvel/Downloads/Part5 v1.step',
/* time_stamp */ '2022-09-09T11:47:28-04:00',
/* author */ (''),
/* organization */ (''),
/* preprocessor_version */ 'ST-DEVELOPER v19',
/* originating_system */ 'Autodesk Translation Framework v11.7.0.108',
/* authorisation */ '');

FILE_SCHEMA (('AUTOMOTIVE_DESIGN { 1 0 10303 214 3 1 1 }'));
ENDSEC;

DATA;
#10=MECHANICAL_DESIGN_GEOMETRIC_PRESENTATION_REPRESENTATION('',(#185,#186,
#187,#188,#189,#190,#191,#192,#193,#194,#195,#196),#336);
#11=SHAPE_REPRESENTATION_RELATIONSHIP('SRR','None',#343,#12);
#12=ADVANCED_BREP_SHAPE_REPRESENTATION('',(#13),#335);
#13=MANIFOLD_SOLID_BREP('Body1',#208);
#14=FACE_BOUND('',#36,.T.);
#15=FACE_OUTER_BOUND('',#26,.T.);
#16=FACE_OUTER_BOUND('',#27,.T.);
#17=FACE_OUTER_BOUND('',#28,.T.);
#18=FACE_OUTER_BOUND('',#29,.T.);
#19=FACE_OUTER_BOUND('',#30,.T.);
#20=FACE_OUTER_BOUND('',#31,.T.);
#21=FACE_OUTER_BOUND('',#32,.T.);
#22=FACE_OUTER_BOUND('',#33,.T.);
#23=FACE_OUTER_BOUND('',#34,.T.);
#24=FACE_OUTER_BOUND('',#35,.T.);
#25=FACE_OUTER_BOUND('',#37,.T.);
#26=EDGE_LOOP('',(#126,#127,#128,#129));
#27=EDGE_LOOP('',(#130,#131,#132,#133));
#28=EDGE_LOOP('',(#134,#135,#136,#137));
#29=EDGE_LOOP('',(#138,#139,#140,#141));
#30=EDGE_LOOP('',(#142,#143,#144,#145));
#31=EDGE_LOOP('',(#146,#147,#148,#149));
#32=EDGE_LOOP('',(#150,#151,#152,#153));
#33=EDGE_LOOP('',(#154,#155,#156,#157));
#34=EDGE_LOOP('',(#158,#159,#160,#161));
#35=EDGE_LOOP('',(#162,#163,#164,#165));
#36=EDGE_LOOP('',(#166,#167,#168,#169));
#37=EDGE_LOOP('',(#170,#171,#172,#173));
#38=LINE('',#285,#62);
#39=LINE('',#287,#63);
#40=LINE('',#289,#64);
#41=LINE('',#290,#65);
#42=LINE('',#293,#66);
#43=LINE('',#295,#67);
#44=LINE('',#296,#68);
#45=LINE('',#299,#69);
#46=LINE('',#301,#70);
#47=LINE('',#302,#71);
#48=LINE('',#304,#72);
#49=LINE('',#305,#73);
#50=LINE('',#310,#74);
#51=LINE('',#312,#75);
#52=LINE('',#314,#76);
#53=LINE('',#315,#77);
#54=LINE('',#318,#78);
#55=LINE('',#320,#79);
#56=LINE('',#321,#80);
#57=LINE('',#324,#81);
#58=LINE('',#326,#82);
#59=LINE('',#327,#83);
#60=LINE('',#329,#84);
#61=LINE('',#330,#85);
#62=VECTOR('',#237,10.);
#63=VECTOR('',#238,10.);
#64=VECTOR('',#239,10.);
#65=VECTOR('',#240,10.);
#66=VECTOR('',#243,10.);
#67=VECTOR('',#244,10.);
#68=VECTOR('',#245,10.);
#69=VECTOR('',#248,10.);
#70=VECTOR('',#249,10.);
#71=VECTOR('',#250,10.);
#72=VECTOR('',#253,10.);
#73=VECTOR('',#254,10.);
#74=VECTOR('',#259,10.);
#75=VECTOR('',#260,10.);
#76=VECTOR('',#261,10.);
#77=VECTOR('',#262,10.);
#78=VECTOR('',#265,10.);
#79=VECTOR('',#266,10.);
#80=VECTOR('',#267,10.);
#81=VECTOR('',#270,10.);
#82=VECTOR('',#271,10.);
#83=VECTOR('',#272,10.);
#84=VECTOR('',#275,10.);
#85=VECTOR('',#276,10.);
#86=VERTEX_POINT('',#283);
#87=VERTEX_POINT('',#284);
#88=VERTEX_POINT('',#286);
#89=VERTEX_POINT('',#288);
#90=VERTEX_POINT('',#292);
#91=VERTEX_POINT('',#294);
#92=VERTEX_POINT('',#298);
#93=VERTEX_POINT('',#300);
#94=VERTEX_POINT('',#308);
#95=VERTEX_POINT('',#309);
#96=VERTEX_POINT('',#311);
#97=VERTEX_POINT('',#313);
#98=VERTEX_POINT('',#317);
#99=VERTEX_POINT('',#319);
#100=VERTEX_POINT('',#323);
#101=VERTEX_POINT('',#325);
#102=EDGE_CURVE('',#86,#87,#38,.T.);
#103=EDGE_CURVE('',#86,#88,#39,.T.);
#104=EDGE_CURVE('',#88,#89,#40,.T.);
#105=EDGE_CURVE('',#87,#89,#41,.T.);
#106=EDGE_CURVE('',#90,#86,#42,.T.);
#107=EDGE_CURVE('',#90,#91,#43,.T.);
#108=EDGE_CURVE('',#91,#88,#44,.T.);
#109=EDGE_CURVE('',#92,#90,#45,.T.);
#110=EDGE_CURVE('',#92,#93,#46,.T.);
#111=EDGE_CURVE('',#93,#91,#47,.T.);
#112=EDGE_CURVE('',#87,#92,#48,.T.);
#113=EDGE_CURVE('',#89,#93,#49,.T.);
#114=EDGE_CURVE('',#94,#95,#50,.T.);
#115=EDGE_CURVE('',#95,#96,#51,.T.);
#116=EDGE_CURVE('',#97,#96,#52,.T.);
#117=EDGE_CURVE('',#94,#97,#53,.T.);
#118=EDGE_CURVE('',#98,#94,#54,.T.);
#119=EDGE_CURVE('',#99,#97,#55,.T.);
#120=EDGE_CURVE('',#98,#99,#56,.T.);
#121=EDGE_CURVE('',#100,#98,#57,.T.);
#122=EDGE_CURVE('',#101,#99,#58,.T.);
#123=EDGE_CURVE('',#100,#101,#59,.T.);
#124=EDGE_CURVE('',#95,#100,#60,.T.);
#125=EDGE_CURVE('',#96,#101,#61,.T.);
#126=ORIENTED_EDGE('',*,*,#102,.F.);
#127=ORIENTED_EDGE('',*,*,#103,.T.);
#128=ORIENTED_EDGE('',*,*,#104,.T.);
#129=ORIENTED_EDGE('',*,*,#105,.F.);
#130=ORIENTED_EDGE('',*,*,#106,.F.);
#131=ORIENTED_EDGE('',*,*,#107,.T.);
#132=ORIENTED_EDGE('',*,*,#108,.T.);
#133=ORIENTED_EDGE('',*,*,#103,.F.);
#134=ORIENTED_EDGE('',*,*,#109,.F.);
#135=ORIENTED_EDGE('',*,*,#110,.T.);
#136=ORIENTED_EDGE('',*,*,#111,.T.);
#137=ORIENTED_EDGE('',*,*,#107,.F.);
#138=ORIENTED_EDGE('',*,*,#112,.F.);
#139=ORIENTED_EDGE('',*,*,#105,.T.);
#140=ORIENTED_EDGE('',*,*,#113,.T.);
#141=ORIENTED_EDGE('',*,*,#110,.F.);
#142=ORIENTED_EDGE('',*,*,#113,.F.);
#143=ORIENTED_EDGE('',*,*,#104,.F.);
#144=ORIENTED_EDGE('',*,*,#108,.F.);
#145=ORIENTED_EDGE('',*,*,#111,.F.);
#146=ORIENTED_EDGE('',*,*,#114,.T.);
#147=ORIENTED_EDGE('',*,*,#115,.T.);
#148=ORIENTED_EDGE('',*,*,#116,.F.);
#149=ORIENTED_EDGE('',*,*,#117,.F.);
#150=ORIENTED_EDGE('',*,*,#118,.T.);
#151=ORIENTED_EDGE('',*,*,#117,.T.);
#152=ORIENTED_EDGE('',*,*,#119,.F.);
#153=ORIENTED_EDGE('',*,*,#120,.F.);
#154=ORIENTED_EDGE('',*,*,#121,.T.);
#155=ORIENTED_EDGE('',*,*,#120,.T.);
#156=ORIENTED_EDGE('',*,*,#122,.F.);
#157=ORIENTED_EDGE('',*,*,#123,.F.);
#158=ORIENTED_EDGE('',*,*,#124,.T.);
#159=ORIENTED_EDGE('',*,*,#123,.T.);
#160=ORIENTED_EDGE('',*,*,#125,.F.);
#161=ORIENTED_EDGE('',*,*,#115,.F.);
#162=ORIENTED_EDGE('',*,*,#125,.T.);
#163=ORIENTED_EDGE('',*,*,#122,.T.);
#164=ORIENTED_EDGE('',*,*,#119,.T.);
#165=ORIENTED_EDGE('',*,*,#116,.T.);
#166=ORIENTED_EDGE('',*,*,#102,.T.);
#167=ORIENTED_EDGE('',*,*,#112,.T.);
#168=ORIENTED_EDGE('',*,*,#109,.T.);
#169=ORIENTED_EDGE('',*,*,#106,.T.);
#170=ORIENTED_EDGE('',*,*,#124,.F.);
#171=ORIENTED_EDGE('',*,*,#114,.F.);
#172=ORIENTED_EDGE('',*,*,#118,.F.);
#173=ORIENTED_EDGE('',*,*,#121,.F.);
#174=PLANE('',#222);
#175=PLANE('',#223);
#176=PLANE('',#224);
#177=PLANE('',#225);
#178=PLANE('',#226);
#179=PLANE('',#227);
#180=PLANE('',#228);
#181=PLANE('',#229);
#182=PLANE('',#230);
#183=PLANE('',#231);
#184=PLANE('',#232);
#185=STYLED_ITEM('',(#353),#197);
#186=STYLED_ITEM('',(#353),#198);
#187=STYLED_ITEM('',(#353),#199);
#188=STYLED_ITEM('',(#353),#200);
#189=STYLED_ITEM('',(#353),#201);
#190=STYLED_ITEM('',(#353),#202);
#191=STYLED_ITEM('',(#353),#203);
#192=STYLED_ITEM('',(#353),#204);
#193=STYLED_ITEM('',(#353),#205);
#194=STYLED_ITEM('',(#353),#206);
#195=STYLED_ITEM('',(#353),#207);
#196=STYLED_ITEM('',(#352),#13);
#197=ADVANCED_FACE('',(#15),#174,.F.);
#198=ADVANCED_FACE('',(#16),#175,.F.);
#199=ADVANCED_FACE('',(#17),#176,.F.);
#200=ADVANCED_FACE('',(#18),#177,.F.);
#201=ADVANCED_FACE('',(#19),#178,.F.);
#202=ADVANCED_FACE('',(#20),#179,.T.);
#203=ADVANCED_FACE('',(#21),#180,.T.);
#204=ADVANCED_FACE('',(#22),#181,.T.);
#205=ADVANCED_FACE('',(#23),#182,.T.);
#206=ADVANCED_FACE('',(#24,#14),#183,.T.);
#207=ADVANCED_FACE('',(#25),#184,.F.);
#208=CLOSED_SHELL('',(#197,#198,#199,#200,#201,#202,#203,#204,#205,#206,
#207));
#209=DERIVED_UNIT_ELEMENT(#211,1.);
#210=DERIVED_UNIT_ELEMENT(#338,-3.);
#211=(
MASS_UNIT()
NAMED_UNIT(*)
SI_UNIT(.KILO.,.GRAM.)
);
#212=DERIVED_UNIT((#209,#210));
#213=MEASURE_REPRESENTATION_ITEM('density measure',
POSITIVE_RATIO_MEASURE(1000.),#212);
#214=PROPERTY_DEFINITION_REPRESENTATION(#219,#216);
#215=PROPERTY_DEFINITION_REPRESENTATION(#220,#217);
#216=REPRESENTATION('material name',(#218),#335);
#217=REPRESENTATION('density',(#213),#335);
#218=DESCRIPTIVE_REPRESENTATION_ITEM('Generic','Generic');
#219=PROPERTY_DEFINITION('material property','material name',#345);
#220=PROPERTY_DEFINITION('material property','density of part',#345);
#221=AXIS2_PLACEMENT_3D('placement',#281,#233,#234);
#222=AXIS2_PLACEMENT_3D('',#282,#235,#236);
#223=AXIS2_PLACEMENT_3D('',#291,#241,#242);
#224=AXIS2_PLACEMENT_3D('',#297,#246,#247);
#225=AXIS2_PLACEMENT_3D('',#303,#251,#252);
#226=AXIS2_PLACEMENT_3D('',#306,#255,#256);
#227=AXIS2_PLACEMENT_3D('',#307,#257,#258);
#228=AXIS2_PLACEMENT_3D('',#316,#263,#264);
#229=AXIS2_PLACEMENT_3D('',#322,#268,#269);
#230=AXIS2_PLACEMENT_3D('',#328,#273,#274);
#231=AXIS2_PLACEMENT_3D('',#331,#277,#278);
#232=AXIS2_PLACEMENT_3D('',#332,#279,#280);
#233=DIRECTION('axis',(0.,0.,1.));
#234=DIRECTION('refdir',(1.,0.,0.));
#235=DIRECTION('center_axis',(-1.,0.,0.));
#236=DIRECTION('ref_axis',(0.,0.,-1.));
#237=DIRECTION('',(0.,0.,-1.));
#238=DIRECTION('',(0.,-1.,0.));
#239=DIRECTION('',(0.,0.,-1.));
#240=DIRECTION('',(0.,-1.,0.));
#241=DIRECTION('center_axis',(0.,0.,1.));
#242=DIRECTION('ref_axis',(-1.,0.,0.));
#243=DIRECTION('',(-1.,0.,0.));
#244=DIRECTION('',(0.,-1.,0.));
#245=DIRECTION('',(-1.,0.,0.));
#246=DIRECTION('center_axis',(1.,0.,0.));
#247=DIRECTION('ref_axis',(0.,0.,1.));
#248=DIRECTION('',(0.,0.,1.));
#249=DIRECTION('',(0.,-1.,0.));
#250=DIRECTION('',(0.,0.,1.));
#251=DIRECTION('center_axis',(0.,0.,-1.));
#252=DIRECTION('ref_axis',(1.,0.,0.));
#253=DIRECTION('',(1.,0.,0.));
#254=DIRECTION('',(1.,0.,0.));
#255=DIRECTION('center_axis',(0.,-1.,0.));
#256=DIRECTION('ref_axis',(0.,0.,-1.));
#257=DIRECTION('center_axis',(1.,0.,-1.6335226448755E-16));
#258=DIRECTION('ref_axis',(-1.6335226448755E-16,0.,-1.));
#259=DIRECTION('',(-1.6335226448755E-16,0.,-1.));
#260=DIRECTION('',(0.,1.,0.));
#261=DIRECTION('',(-1.6335226448755E-16,0.,-1.));
#262=DIRECTION('',(0.,1.,0.));
#263=DIRECTION('center_axis',(4.04544053959493E-32,0.,1.));
#264=DIRECTION('ref_axis',(1.,0.,-4.04544053959493E-32));
#265=DIRECTION('',(1.,0.,-4.04544053959493E-32));
#266=DIRECTION('',(1.,0.,-4.04544053959493E-32));
#267=DIRECTION('',(0.,1.,0.));
#268=DIRECTION('center_axis',(-1.,0.,0.));
#269=DIRECTION('ref_axis',(0.,0.,1.));
#270=DIRECTION('',(0.,0.,1.));
#271=DIRECTION('',(0.,0.,1.));
#272=DIRECTION('',(0.,1.,0.));
#273=DIRECTION('center_axis',(1.82190445066692E-16,0.,-1.));
#274=DIRECTION('ref_axis',(-1.,0.,-1.82190445066692E-16));
#275=DIRECTION('',(-1.,0.,-1.82190445066692E-16));
#276=DIRECTION('',(-1.,0.,-1.82190445066692E-16));
#277=DIRECTION('center_axis',(0.,1.,0.));
#278=DIRECTION('ref_axis',(0.,0.,1.));
#279=DIRECTION('center_axis',(0.,1.,0.));
#280=DIRECTION('ref_axis',(0.,0.,1.));
#281=CARTESIAN_POINT('',(0.,0.,0.));
#282=CARTESIAN_POINT('Origin',(-1455.,80.,-97.4999999999999));
#283=CARTESIAN_POINT('',(-1455.,80.,-97.4999999999999));
#284=CARTESIAN_POINT('',(-1455.,80.,-652.5));
#285=CARTESIAN_POINT('',(-1455.,80.,-236.25));
#286=CARTESIAN_POINT('',(-1455.,30.,-97.4999999999999));
#287=CARTESIAN_POINT('',(-1455.,80.,-97.4999999999999));
#288=CARTESIAN_POINT('',(-1455.,30.,-652.5));
#289=CARTESIAN_POINT('',(-1455.,30.,-652.5));
#290=CARTESIAN_POINT('',(-1455.,80.,-652.5));
#291=CARTESIAN_POINT('Origin',(-105.,80.,-97.4999999999999));
#292=CARTESIAN_POINT('',(-105.,80.,-97.4999999999999));
#293=CARTESIAN_POINT('',(-442.5,80.,-97.4999999999999));
#294=CARTESIAN_POINT('',(-105.,30.,-97.4999999999999));
#295=CARTESIAN_POINT('',(-105.,80.,-97.4999999999999));
#296=CARTESIAN_POINT('',(-1455.,30.,-97.4999999999999));
#297=CARTESIAN_POINT('Origin',(-105.,80.,-652.5));
#298=CARTESIAN_POINT('',(-105.,80.,-652.5));
#299=CARTESIAN_POINT('',(-105.,80.,-513.75));
#300=CARTESIAN_POINT('',(-105.,30.,-652.5));
#301=CARTESIAN_POINT('',(-105.,80.,-652.5));
#302=CARTESIAN_POINT('',(-105.,30.,-97.4999999999999));
#303=CARTESIAN_POINT('Origin',(-1455.,80.,-652.5));
#304=CARTESIAN_POINT('',(-1117.5,80.,-652.5));
#305=CARTESIAN_POINT('',(-105.,30.,-652.5));
#306=CARTESIAN_POINT('Origin',(-780.,30.,-375.));
#307=CARTESIAN_POINT('Origin',(0.,0.,0.));
#308=CARTESIAN_POINT('',(0.,0.,0.));
#309=CARTESIAN_POINT('',(-1.22514198365662E-13,0.,-750.));
#310=CARTESIAN_POINT('',(0.,0.,0.));
#311=CARTESIAN_POINT('',(-1.22514198365662E-13,80.,-750.));
#312=CARTESIAN_POINT('',(-1.22514198365662E-13,0.,-750.));
#313=CARTESIAN_POINT('',(0.,80.,0.));
#314=CARTESIAN_POINT('',(0.,80.,0.));
#315=CARTESIAN_POINT('',(0.,0.,0.));
#316=CARTESIAN_POINT('Origin',(-1560.,0.,6.31088724176809E-29));
#317=CARTESIAN_POINT('',(-1560.,0.,6.31088724176809E-29));
#318=CARTESIAN_POINT('',(-1560.,0.,6.31088724176809E-29));
#319=CARTESIAN_POINT('',(-1560.,80.,0.));
#320=CARTESIAN_POINT('',(-1560.,80.,6.31088724176809E-29));
#321=CARTESIAN_POINT('',(-1560.,0.,6.31088724176809E-29));
#322=CARTESIAN_POINT('Origin',(-1560.,0.,-750.));
#323=CARTESIAN_POINT('',(-1560.,0.,-750.));
#324=CARTESIAN_POINT('',(-1560.,0.,-750.));
#325=CARTESIAN_POINT('',(-1560.,80.,-750.));
#326=CARTESIAN_POINT('',(-1560.,80.,-750.));
#327=CARTESIAN_POINT('',(-1560.,0.,-750.));
#328=CARTESIAN_POINT('Origin',(-1.22514198365662E-13,0.,-750.));
#329=CARTESIAN_POINT('',(0.,0.,-750.));
#330=CARTESIAN_POINT('',(0.,80.,-750.));
#331=CARTESIAN_POINT('Origin',(-780.,80.,-375.));
#332=CARTESIAN_POINT('Origin',(-780.,0.,-375.));
#333=UNCERTAINTY_MEASURE_WITH_UNIT(LENGTH_MEASURE(0.01),#337,
'DISTANCE_ACCURACY_VALUE',
'Maximum model space distance between geometric entities at asserted c
onnectivities');
#334=UNCERTAINTY_MEASURE_WITH_UNIT(LENGTH_MEASURE(0.01),#337,
'DISTANCE_ACCURACY_VALUE',
'Maximum model space distance between geometric entities at asserted c
onnectivities');
#335=(
GEOMETRIC_REPRESENTATION_CONTEXT(3)
GLOBAL_UNCERTAINTY_ASSIGNED_CONTEXT((#333))
GLOBAL_UNIT_ASSIGNED_CONTEXT((#337,#339,#340))
REPRESENTATION_CONTEXT('','3D')
);
#336=(
GEOMETRIC_REPRESENTATION_CONTEXT(3)
GLOBAL_UNCERTAINTY_ASSIGNED_CONTEXT((#334))
GLOBAL_UNIT_ASSIGNED_CONTEXT((#337,#339,#340))
REPRESENTATION_CONTEXT('','3D')
);
#337=(
LENGTH_UNIT()
NAMED_UNIT(*)
SI_UNIT(.MILLI.,.METRE.)
);
#338=(
LENGTH_UNIT()
NAMED_UNIT(*)
SI_UNIT($,.METRE.)
);
#339=(
NAMED_UNIT(*)
PLANE_ANGLE_UNIT()
SI_UNIT($,.RADIAN.)
);
#340=(
NAMED_UNIT(*)
SI_UNIT($,.STERADIAN.)
SOLID_ANGLE_UNIT()
);
#341=SHAPE_DEFINITION_REPRESENTATION(#342,#343);
#342=PRODUCT_DEFINITION_SHAPE('',$,#345);
#343=SHAPE_REPRESENTATION('',(#221),#335);
#344=PRODUCT_DEFINITION_CONTEXT('part definition',#349,'design');
#345=PRODUCT_DEFINITION('Part5','Part5 v1',#346,#344);
#346=PRODUCT_DEFINITION_FORMATION('',$,#351);
#347=PRODUCT_RELATED_PRODUCT_CATEGORY('Part5 v1','Part5 v1',(#351));
#348=APPLICATION_PROTOCOL_DEFINITION('international standard',
'automotive_design',2009,#349);
#349=APPLICATION_CONTEXT(
'Core Data for Automotive Mechanical Design Process');
#350=PRODUCT_CONTEXT('part definition',#349,'mechanical');
#351=PRODUCT('Part5','Part5 v1',$,(#350));
#352=PRESENTATION_STYLE_ASSIGNMENT((#354));
#353=PRESENTATION_STYLE_ASSIGNMENT((#355));
#354=SURFACE_STYLE_USAGE(.BOTH.,#356);
#355=SURFACE_STYLE_USAGE(.BOTH.,#357);
#356=SURFACE_SIDE_STYLE('',(#358));
#357=SURFACE_SIDE_STYLE('',(#359));
#358=SURFACE_STYLE_FILL_AREA(#360);
#359=SURFACE_STYLE_FILL_AREA(#361);
#360=FILL_AREA_STYLE('Default',(#362));
#361=FILL_AREA_STYLE('Glossy - Black',(#363));
#362=FILL_AREA_STYLE_COLOUR('Default',#364);
#363=FILL_AREA_STYLE_COLOUR('Glossy - Black',#365);
#364=COLOUR_RGB('Default',0.749019607843137,0.749019607843137,0.749019607843137);
#365=COLOUR_RGB('Glossy - Black',0.,0.,0.);
ENDSEC;
END-ISO-10303-21;
