ISO-10303-21;
HEADER;
FILE_DESCRIPTION (( 'STEP AP214' ),
    '1' );
FILE_NAME ('Part11.STEP',
    '2013-07-01T20:58:24',
    ( '' ),
    ( '' ),
    'SwSTEP 2.0',
    'SolidWorks 2013',
    '' );
FILE_SCHEMA (( 'AUTOMOTIVE_DESIGN' ));
ENDSEC;

DATA;
#1 = VECTOR ( 'NONE', #20, 1000.000000000000000 ) ;
#2 = CARTESIAN_POINT ( 'NONE',  ( -48.44481142024047000, -0.5000000000000000000, -3.991262159094521000 ) ) ;
#3 = EDGE_CURVE ( 'NONE', #210, #17, #114, .T. ) ;
#4 = EDGE_CURVE ( 'NONE', #233, #126, #170, .T. ) ;
#5 = ORIENTED_EDGE ( 'NONE', *, *, #77, .F. ) ;
#6 = PRODUCT_DEFINITION ( 'UNKNOWN', '', #68, #156 ) ;
#7 = ORIENTED_EDGE ( 'NONE', *, *, #37, .T. ) ;
#8 = VECTOR ( 'NONE', #119, 1000.000000000000000 ) ;
#9 = CARTESIAN_POINT ( 'NONE',  ( -21.54564736240330400, 0.5000000000000000000, -28.40699943368012000 ) ) ;
#10 = DIRECTION ( 'NONE',  ( -0.0000000000000000000, -1.000000000000000000, -0.0000000000000000000 ) ) ;
#11 = DIRECTION ( 'NONE',  ( 0.0000000000000000000, 0.0000000000000000000, 1.000000000000000000 ) ) ;
#12 = EDGE_LOOP ( 'NONE', ( #84, #88, #25, #115, #101 ) ) ;
#13 = DIRECTION ( 'NONE',  ( 1.000000000000000000, 0.0000000000000000000, 0.0000000000000000000 ) ) ;
#14 = FACE_OUTER_BOUND ( 'NONE', #29, .T. ) ;
#15 = CARTESIAN_POINT ( 'NONE',  ( -33.17443690150589900, -0.5000000000000000000, -7.920583112809645800 ) ) ;
#16 = ORIENTED_EDGE ( 'NONE', *, *, #112, .F. ) ;
#17 = VERTEX_POINT ( 'NONE', #237 ) ;
#18 = DIRECTION ( 'NONE',  ( 0.0000000000000000000, 0.0000000000000000000, -1.000000000000000000 ) ) ;
#19 =( GEOMETRIC_REPRESENTATION_CONTEXT ( 3 ) GLOBAL_UNCERTAINTY_ASSIGNED_CONTEXT ( ( #55 ) ) GLOBAL_UNIT_ASSIGNED_CONTEXT ( ( #160, #40, #208 ) ) REPRESENTATION_CONTEXT ( 'NONE', 'WORKASPACE' ) );
#20 = DIRECTION ( 'NONE',  ( -0.0000000000000000000, -1.000000000000000000, -0.0000000000000000000 ) ) ;
#21 = EDGE_CURVE ( 'NONE', #43, #181, #214, .T. ) ;
#22 = EDGE_CURVE ( 'NONE', #210, #239, #72, .T. ) ;
#23 = CARTESIAN_POINT ( 'NONE',  ( 48.45435263759670600, -0.5000000000000000000, 7.920583112809645800 ) ) ;
#24 = FILL_AREA_STYLE_COLOUR ( '', #41 ) ;
#25 = ORIENTED_EDGE ( 'NONE', *, *, #152, .T. ) ;
#26 = CARTESIAN_POINT ( 'NONE',  ( 48.45435263759670600, 0.5000000000000000000, 7.920583112809645800 ) ) ;
#27 = ORIENTED_EDGE ( 'NONE', *, *, #22, .F. ) ;
#28 =( NAMED_UNIT ( * ) PLANE_ANGLE_UNIT ( ) SI_UNIT ( $, .RADIAN. ) );
#29 = EDGE_LOOP ( 'NONE', ( #147, #166, #42, #52 ) ) ;
#30 = AXIS2_PLACEMENT_3D ( 'NONE', #26, #199, #218 ) ;
#31 = DIRECTION ( 'NONE',  ( -0.0000000000000000000, -1.000000000000000000, -0.0000000000000000000 ) ) ;
#32 = CARTESIAN_POINT ( 'NONE',  ( -21.54564736240330400, 0.5000000000000000000, -28.40699943368012000 ) ) ;
#33 = CARTESIAN_POINT ( 'NONE',  ( -33.17443690150589900, 0.5000000000000000000, -7.920583112809645800 ) ) ;
#34 = ORIENTED_EDGE ( 'NONE', *, *, #207, .T. ) ;
#35 = DIRECTION ( 'NONE',  ( 0.0000000000000000000, 0.0000000000000000000, 1.000000000000000000 ) ) ;
#36 = VECTOR ( 'NONE', #50, 1000.000000000000000 ) ;
#37 = EDGE_CURVE ( 'NONE', #96, #126, #99, .T. ) ;
#38 = DIRECTION ( 'NONE',  ( -1.000000000000000000, -0.0000000000000000000, -0.0000000000000000000 ) ) ;
#39 = ADVANCED_FACE ( 'NONE', ( #150 ), #125, .F. ) ;
#40 =( NAMED_UNIT ( * ) PLANE_ANGLE_UNIT ( ) SI_UNIT ( $, .RADIAN. ) );
#41 = COLOUR_RGB ( '',0.7921568627450980000, 0.8196078431372548800, 0.9333333333333333500 ) ;
#42 = ORIENTED_EDGE ( 'NONE', *, *, #152, .F. ) ;
#43 = VERTEX_POINT ( 'NONE', #201 ) ;
#44 = DIRECTION ( 'NONE',  ( 0.0000000000000000000, 1.000000000000000000, -0.0000000000000000000 ) ) ;
#45 = AXIS2_PLACEMENT_3D ( 'NONE', #236, #144, #195 ) ;
#46 = CARTESIAN_POINT ( 'NONE',  ( 48.45435263759670600, -0.5000000000000000000, -7.920583112809645800 ) ) ;
#47 = DIRECTION ( 'NONE',  ( 0.0000000000000000000, 0.0000000000000000000, -1.000000000000000000 ) ) ;
#48 = ORIENTED_EDGE ( 'NONE', *, *, #171, .T. ) ;
#49 = VECTOR ( 'NONE', #31, 1000.000000000000000 ) ;
#50 = DIRECTION ( 'NONE',  ( 0.0000000000000000000, 0.0000000000000000000, -1.000000000000000000 ) ) ;
#51 = CARTESIAN_POINT ( 'NONE',  ( -21.54564736240330100, 0.5000000000000000000, 7.920583112809645800 ) ) ;
#52 = ORIENTED_EDGE ( 'NONE', *, *, #189, .T. ) ;
#53 = LINE ( 'NONE', #103, #49 ) ;
#54 = AXIS2_PLACEMENT_3D ( 'NONE', #9, #221, #149 ) ;
#55 = UNCERTAINTY_MEASURE_WITH_UNIT (LENGTH_MEASURE( 1.000000000000000100E-005 ), #160, 'distance_accuracy_value', 'NONE');
#56 = EDGE_CURVE ( 'NONE', #121, #181, #82, .T. ) ;
#57 = DIRECTION ( 'NONE',  ( -0.0000000000000000000, -1.000000000000000000, -0.0000000000000000000 ) ) ;
#58 = ADVANCED_FACE ( 'NONE', ( #130 ), #118, .T. ) ;
#59 = PLANE ( 'NONE',  #194 ) ;
#60 = ORIENTED_EDGE ( 'NONE', *, *, #131, .F. ) ;
#61 = CARTESIAN_POINT ( 'NONE',  ( 0.0000000000000000000, 0.0000000000000000000, 0.0000000000000000000 ) ) ;
#62 = PRESENTATION_STYLE_ASSIGNMENT (( #85 ) ) ;
#63 = FACE_OUTER_BOUND ( 'NONE', #74, .T. ) ;
#64 = PLANE ( 'NONE',  #104 ) ;
#65 = ORIENTED_EDGE ( 'NONE', *, *, #56, .F. ) ;
#66 =( LENGTH_UNIT ( ) NAMED_UNIT ( * ) SI_UNIT ( .MILLI., .METRE. ) );
#67 = ORIENTED_EDGE ( 'NONE', *, *, #21, .F. ) ;
#68 = PRODUCT_DEFINITION_FORMATION_WITH_SPECIFIED_SOURCE ( 'ANY', '', #134, .NOT_KNOWN. ) ;
#69 = DIRECTION ( 'NONE',  ( -1.000000000000000000, -0.0000000000000000000, -0.0000000000000000000 ) ) ;
#70 = FACE_OUTER_BOUND ( 'NONE', #203, .T. ) ;
#71 = LINE ( 'NONE', #188, #1 ) ;
#72 = LINE ( 'NONE', #95, #145 ) ;
#73 = APPLICATION_PROTOCOL_DEFINITION ( 'draft international standard', 'automotive_design', 1998, #137 ) ;
#74 = EDGE_LOOP ( 'NONE', ( #158, #65, #60, #217 ) ) ;
#75 = CARTESIAN_POINT ( 'NONE',  ( 48.45435263759670600, 0.5000000000000000000, 7.920583112809645800 ) ) ;
#76 = ADVANCED_FACE ( 'NONE', ( #124 ), #105, .T. ) ;
#77 = EDGE_CURVE ( 'NONE', #181, #233, #230, .T. ) ;
#78 = CARTESIAN_POINT ( 'NONE',  ( -33.17443690150589900, -0.5000000000000000000, 23.71642287732871800 ) ) ;
#79 = ORIENTED_EDGE ( 'NONE', *, *, #56, .T. ) ;
#80 = APPLICATION_CONTEXT ( 'automotive_design' ) ;
#81 = DIRECTION ( 'NONE',  ( -1.000000000000000000, 0.0000000000000000000, -0.0000000000000000000 ) ) ;
#82 = LINE ( 'NONE', #224, #109 ) ;
#83 = DIRECTION ( 'NONE',  ( 0.0000000000000000000, 0.0000000000000000000, -1.000000000000000000 ) ) ;
#84 = ORIENTED_EDGE ( 'NONE', *, *, #131, .T. ) ;
#85 = SURFACE_STYLE_USAGE ( .BOTH. , #108 ) ;
#86 =( GEOMETRIC_REPRESENTATION_CONTEXT ( 3 ) GLOBAL_UNCERTAINTY_ASSIGNED_CONTEXT ( ( #168 ) ) GLOBAL_UNIT_ASSIGNED_CONTEXT ( ( #100, #28, #197 ) ) REPRESENTATION_CONTEXT ( 'NONE', 'WORKASPACE' ) );
#87 = AXIS2_PLACEMENT_3D ( 'NONE', #132, #206, #157 ) ;
#88 = ORIENTED_EDGE ( 'NONE', *, *, #190, .T. ) ;
#89 = ORIENTED_EDGE ( 'NONE', *, *, #3, .T. ) ;
#90 = CARTESIAN_POINT ( 'NONE',  ( -33.17443690150589900, 0.5000000000000000000, -7.920583112809645800 ) ) ;
#91 = UNCERTAINTY_MEASURE_WITH_UNIT (LENGTH_MEASURE( 1.000000000000000100E-005 ), #66, 'distance_accuracy_value', 'NONE');
#92 = CARTESIAN_POINT ( 'NONE',  ( -21.54564736240330400, -0.5000000000000000000, 7.920583112809645800 ) ) ;
#93 = ADVANCED_FACE ( 'NONE', ( #70 ), #64, .F. ) ;
#94 = CIRCLE ( 'NONE', #45, 31.63700599013835600 ) ;
#95 = CARTESIAN_POINT ( 'NONE',  ( -21.54564736240330400, 0.5000000000000000000, 7.920583112809645800 ) ) ;
#96 = VERTEX_POINT ( 'NONE', #155 ) ;
#97 = PLANE ( 'NONE',  #30 ) ;
#98 = AXIS2_PLACEMENT_3D ( 'NONE', #32, #57, #185 ) ;
#99 = LINE ( 'NONE', #146, #140 ) ;
#100 =( LENGTH_UNIT ( ) NAMED_UNIT ( * ) SI_UNIT ( .MILLI., .METRE. ) );
#101 = ORIENTED_EDGE ( 'NONE', *, *, #22, .T. ) ;
#102 = APPLICATION_PROTOCOL_DEFINITION ( 'draft international standard', 'automotive_design', 1998, #80 ) ;
#103 = CARTESIAN_POINT ( 'NONE',  ( 48.45435263759670600, 0.5000000000000000000, 7.920583112809645800 ) ) ;
#104 = AXIS2_PLACEMENT_3D ( 'NONE', #204, #183, #81 ) ;
#105 = PLANE ( 'NONE',  #87 ) ;
#106 = DIRECTION ( 'NONE',  ( -0.0000000000000000000, -1.000000000000000000, -0.0000000000000000000 ) ) ;
#107 = VERTEX_POINT ( 'NONE', #129 ) ;
#108 = SURFACE_SIDE_STYLE ('',( #138 ) ) ;
#109 = VECTOR ( 'NONE', #10, 1000.000000000000000 ) ;
#110 = EDGE_CURVE ( 'NONE', #239, #43, #53, .T. ) ;
#111 = CARTESIAN_POINT ( 'NONE',  ( -21.54564736240330400, -0.5000000000000000000, -28.40699943368012000 ) ) ;
#112 = EDGE_CURVE ( 'NONE', #96, #210, #133, .T. ) ;
#113 = PRODUCT_RELATED_PRODUCT_CATEGORY ( 'part', '', ( #134 ) ) ;
#114 = LINE ( 'NONE', #51, #184 ) ;
#115 = ORIENTED_EDGE ( 'NONE', *, *, #112, .T. ) ;
#116 = STYLED_ITEM ( 'NONE', ( #142 ), #205 ) ;
#117 = LINE ( 'NONE', #90, #148 ) ;
#118 = CYLINDRICAL_SURFACE ( 'NONE', #98, 36.32758254648976500 ) ;
#119 = DIRECTION ( 'NONE',  ( 1.000000000000000000, 0.0000000000000000000, 0.0000000000000000000 ) ) ;
#120 = DIRECTION ( 'NONE',  ( 1.000000000000000000, 0.0000000000000000000, 0.0000000000000000000 ) ) ;
#121 = VERTEX_POINT ( 'NONE', #123 ) ;
#122 = VECTOR ( 'NONE', #38, 1000.000000000000000 ) ;
#123 = CARTESIAN_POINT ( 'NONE',  ( 48.45435263759670600, 0.5000000000000000000, -7.920583112809645800 ) ) ;
#124 = FACE_OUTER_BOUND ( 'NONE', #12, .T. ) ;
#125 = PLANE ( 'NONE',  #213 ) ;
#126 = VERTEX_POINT ( 'NONE', #2 ) ;
#127 = PRODUCT_CONTEXT ( 'NONE', #137, 'mechanical' ) ;
#128 = CYLINDRICAL_SURFACE ( 'NONE', #136, 31.63700599013835600 ) ;
#129 = CARTESIAN_POINT ( 'NONE',  ( -33.17443690150589900, 0.5000000000000000000, -7.920583112809645800 ) ) ;
#130 = FACE_OUTER_BOUND ( 'NONE', #154, .T. ) ;
#131 = EDGE_CURVE ( 'NONE', #239, #121, #177, .T. ) ;
#132 = CARTESIAN_POINT ( 'NONE',  ( -33.17443690150589900, 0.5000000000000000000, 23.71642287732871800 ) ) ;
#133 = CIRCLE ( 'NONE', #54, 36.32758254648976500 ) ;
#134 = PRODUCT ( 'Part11', 'Part11', '', ( #127 ) ) ;
#135 = ORIENTED_EDGE ( 'NONE', *, *, #4, .F. ) ;
#136 = AXIS2_PLACEMENT_3D ( 'NONE', #234, #106, #83 ) ;
#137 = APPLICATION_CONTEXT ( 'automotive_design' ) ;
#138 = SURFACE_STYLE_FILL_AREA ( #162 ) ;
#139 = AXIS2_PLACEMENT_3D ( 'NONE', #61, #35, #13 ) ;
#140 = VECTOR ( 'NONE', #173, 1000.000000000000000 ) ;
#141 = DIRECTION ( 'NONE',  ( -0.0000000000000000000, -1.000000000000000000, -0.0000000000000000000 ) ) ;
#142 = PRESENTATION_STYLE_ASSIGNMENT (( #165 ) ) ;
#143 = ORIENTED_EDGE ( 'NONE', *, *, #3, .F. ) ;
#144 = DIRECTION ( 'NONE',  ( 0.0000000000000000000, 1.000000000000000000, 0.0000000000000000000 ) ) ;
#145 = VECTOR ( 'NONE', #120, 1000.000000000000000 ) ;
#146 = CARTESIAN_POINT ( 'NONE',  ( -48.44481142024047000, 0.5000000000000000000, -3.991262159094521000 ) ) ;
#147 = ORIENTED_EDGE ( 'NONE', *, *, #4, .T. ) ;
#148 = VECTOR ( 'NONE', #69, 1000.000000000000000 ) ;
#149 = DIRECTION ( 'NONE',  ( 0.0000000000000000000, 0.0000000000000000000, -1.000000000000000000 ) ) ;
#150 = FACE_OUTER_BOUND ( 'NONE', #231, .T. ) ;
#151 = ADVANCED_FACE ( 'NONE', ( #63 ), #97, .F. ) ;
#152 = EDGE_CURVE ( 'NONE', #107, #96, #94, .T. ) ;
#153 = DIRECTION ( 'NONE',  ( 0.0000000000000000000, 1.000000000000000000, 0.0000000000000000000 ) ) ;
#154 = EDGE_LOOP ( 'NONE', ( #34, #143, #16, #7 ) ) ;
#155 = CARTESIAN_POINT ( 'NONE',  ( -48.44481142024047000, 0.5000000000000000000, -3.991262159094521000 ) ) ;
#156 = PRODUCT_DEFINITION_CONTEXT ( 'detailed design', #80, 'design' ) ;
#157 = DIRECTION ( 'NONE',  ( 0.0000000000000000000, -0.0000000000000000000, 1.000000000000000000 ) ) ;
#158 = ORIENTED_EDGE ( 'NONE', *, *, #21, .T. ) ;
#159 =( NAMED_UNIT ( * ) SI_UNIT ( $, .STERADIAN. ) SOLID_ANGLE_UNIT ( ) );
#160 =( LENGTH_UNIT ( ) NAMED_UNIT ( * ) SI_UNIT ( .MILLI., .METRE. ) );
#161 = PRESENTATION_LAYER_ASSIGNMENT (  '', '', ( #167 ) ) ;
#162 = FILL_AREA_STYLE ('',( #187 ) ) ;
#163 = VECTOR ( 'NONE', #47, 1000.000000000000000 ) ;
#164 = DIRECTION ( 'NONE',  ( 0.0000000000000000000, 1.000000000000000000, 0.0000000000000000000 ) ) ;
#165 = SURFACE_STYLE_USAGE ( .BOTH. , #192 ) ;
#166 = ORIENTED_EDGE ( 'NONE', *, *, #37, .F. ) ;
#167 = STYLED_ITEM ( 'NONE', ( #62 ), #216 ) ;
#168 = UNCERTAINTY_MEASURE_WITH_UNIT (LENGTH_MEASURE( 1.000000000000000100E-005 ), #100, 'distance_accuracy_value', 'NONE');
#169 = LINE ( 'NONE', #92, #8 ) ;
#170 = CIRCLE ( 'NONE', #178, 31.63700599013835600 ) ;
#171 = EDGE_CURVE ( 'NONE', #17, #43, #169, .T. ) ;
#172 = CIRCLE ( 'NONE', #235, 36.32758254648976500 ) ;
#173 = DIRECTION ( 'NONE',  ( -0.0000000000000000000, -1.000000000000000000, -0.0000000000000000000 ) ) ;
#174 = PRODUCT_DEFINITION_SHAPE ( 'NONE', 'NONE',  #6 ) ;
#175 = EDGE_LOOP ( 'NONE', ( #186, #193, #219, #79 ) ) ;
#176 = MECHANICAL_DESIGN_GEOMETRIC_PRESENTATION_REPRESENTATION (  '', ( #116 ), #222 ) ;
#177 = LINE ( 'NONE', #75, #36 ) ;
#178 = AXIS2_PLACEMENT_3D ( 'NONE', #78, #164, #191 ) ;
#179 = DIRECTION ( 'NONE',  ( 0.0000000000000000000, -0.0000000000000000000, 1.000000000000000000 ) ) ;
#180 = CARTESIAN_POINT ( 'NONE',  ( 48.45435263759670600, 0.5000000000000000000, 7.920583112809645800 ) ) ;
#181 = VERTEX_POINT ( 'NONE', #46 ) ;
#182 = PRESENTATION_LAYER_ASSIGNMENT (  '', '', ( #116 ) ) ;
#183 = DIRECTION ( 'NONE',  ( 0.0000000000000000000, 0.0000000000000000000, -1.000000000000000000 ) ) ;
#184 = VECTOR ( 'NONE', #141, 1000.000000000000000 ) ;
#185 = DIRECTION ( 'NONE',  ( 0.0000000000000000000, 0.0000000000000000000, -1.000000000000000000 ) ) ;
#186 = ORIENTED_EDGE ( 'NONE', *, *, #77, .T. ) ;
#187 = FILL_AREA_STYLE_COLOUR ( '', #209 ) ;
#188 = CARTESIAN_POINT ( 'NONE',  ( -33.17443690150589900, 0.5000000000000000000, -7.920583112809645800 ) ) ;
#189 = EDGE_CURVE ( 'NONE', #107, #233, #71, .T. ) ;
#190 = EDGE_CURVE ( 'NONE', #121, #107, #117, .T. ) ;
#191 = DIRECTION ( 'NONE',  ( 0.0000000000000000000, 0.0000000000000000000, 1.000000000000000000 ) ) ;
#192 = SURFACE_SIDE_STYLE ('',( #215 ) ) ;
#193 = ORIENTED_EDGE ( 'NONE', *, *, #189, .F. ) ;
#194 = AXIS2_PLACEMENT_3D ( 'NONE', #33, #11, #226 ) ;
#195 = DIRECTION ( 'NONE',  ( 0.0000000000000000000, 0.0000000000000000000, 1.000000000000000000 ) ) ;
#196 = CARTESIAN_POINT ( 'NONE',  ( -33.17443690150589900, -0.5000000000000000000, 23.71642287732871800 ) ) ;
#197 =( NAMED_UNIT ( * ) SI_UNIT ( $, .STERADIAN. ) SOLID_ANGLE_UNIT ( ) );
#198 = ORIENTED_EDGE ( 'NONE', *, *, #171, .F. ) ;
#199 = DIRECTION ( 'NONE',  ( -1.000000000000000000, 0.0000000000000000000, 0.0000000000000000000 ) ) ;
#200 = CLOSED_SHELL ( 'NONE', ( #151, #225, #223, #58, #93, #76, #39 ) ) ;
#201 = CARTESIAN_POINT ( 'NONE',  ( 48.45435263759670600, -0.5000000000000000000, 7.920583112809645800 ) ) ;
#202 = CARTESIAN_POINT ( 'NONE',  ( -33.17443690150589900, -0.5000000000000000000, -7.920583112809645800 ) ) ;
#203 = EDGE_LOOP ( 'NONE', ( #48, #220, #27, #89 ) ) ;
#204 = CARTESIAN_POINT ( 'NONE',  ( -21.54564736240330400, 0.5000000000000000000, 7.920583112809645800 ) ) ;
#205 = ADVANCED_BREP_SHAPE_REPRESENTATION ( 'Part11', ( #216, #139 ), #86 ) ;
#206 = DIRECTION ( 'NONE',  ( 0.0000000000000000000, 1.000000000000000000, 0.0000000000000000000 ) ) ;
#207 = EDGE_CURVE ( 'NONE', #126, #17, #172, .T. ) ;
#208 =( NAMED_UNIT ( * ) SI_UNIT ( $, .STERADIAN. ) SOLID_ANGLE_UNIT ( ) );
#209 = COLOUR_RGB ( '',0.7921568627450980000, 0.8196078431372548800, 0.9333333333333333500 ) ;
#210 = VERTEX_POINT ( 'NONE', #211 ) ;
#211 = CARTESIAN_POINT ( 'NONE',  ( -21.54564736240330100, 0.5000000000000000000, 7.920583112809645800 ) ) ;
#212 = FACE_OUTER_BOUND ( 'NONE', #175, .T. ) ;
#213 = AXIS2_PLACEMENT_3D ( 'NONE', #196, #153, #179 ) ;
#214 = LINE ( 'NONE', #23, #163 ) ;
#215 = SURFACE_STYLE_FILL_AREA ( #238 ) ;
#216 = MANIFOLD_SOLID_BREP ( 'Boss-Extrude3', #200 ) ;
#217 = ORIENTED_EDGE ( 'NONE', *, *, #110, .T. ) ;
#218 = DIRECTION ( 'NONE',  ( 0.0000000000000000000, 0.0000000000000000000, 1.000000000000000000 ) ) ;
#219 = ORIENTED_EDGE ( 'NONE', *, *, #190, .F. ) ;
#220 = ORIENTED_EDGE ( 'NONE', *, *, #110, .F. ) ;
#221 = DIRECTION ( 'NONE',  ( 0.0000000000000000000, 1.000000000000000000, -0.0000000000000000000 ) ) ;
#222 =( GEOMETRIC_REPRESENTATION_CONTEXT ( 3 ) GLOBAL_UNCERTAINTY_ASSIGNED_CONTEXT ( ( #91 ) ) GLOBAL_UNIT_ASSIGNED_CONTEXT ( ( #66, #232, #159 ) ) REPRESENTATION_CONTEXT ( 'NONE', 'WORKASPACE' ) );
#223 = ADVANCED_FACE ( 'NONE', ( #14 ), #128, .T. ) ;
#224 = CARTESIAN_POINT ( 'NONE',  ( 48.45435263759670600, 0.5000000000000000000, -7.920583112809645800 ) ) ;
#225 = ADVANCED_FACE ( 'NONE', ( #212 ), #59, .F. ) ;
#226 = DIRECTION ( 'NONE',  ( 1.000000000000000000, 0.0000000000000000000, -0.0000000000000000000 ) ) ;
#227 = ORIENTED_EDGE ( 'NONE', *, *, #207, .F. ) ;
#228 = SHAPE_DEFINITION_REPRESENTATION ( #174, #205 ) ;
#229 = MECHANICAL_DESIGN_GEOMETRIC_PRESENTATION_REPRESENTATION (  '', ( #167 ), #19 ) ;
#230 = LINE ( 'NONE', #15, #122 ) ;
#231 = EDGE_LOOP ( 'NONE', ( #67, #198, #227, #135, #5 ) ) ;
#232 =( NAMED_UNIT ( * ) PLANE_ANGLE_UNIT ( ) SI_UNIT ( $, .RADIAN. ) );
#233 = VERTEX_POINT ( 'NONE', #202 ) ;
#234 = CARTESIAN_POINT ( 'NONE',  ( -33.17443690150589900, 0.5000000000000000000, 23.71642287732871800 ) ) ;
#235 = AXIS2_PLACEMENT_3D ( 'NONE', #111, #44, #18 ) ;
#236 = CARTESIAN_POINT ( 'NONE',  ( -33.17443690150589900, 0.5000000000000000000, 23.71642287732871800 ) ) ;
#237 = CARTESIAN_POINT ( 'NONE',  ( -21.54564736240330100, -0.5000000000000000000, 7.920583112809645800 ) ) ;
#238 = FILL_AREA_STYLE ('',( #24 ) ) ;
#239 = VERTEX_POINT ( 'NONE', #180 ) ;
ENDSEC;
END-ISO-10303-21;
