ISO-10303-21;
HEADER;
/* Generated by software containing ST-Developer
 * from STEP Tools, Inc. (www.steptools.com) 
 */

FILE_DESCRIPTION(
/* description */ ('',
'CAx-IF Rec.Pracs.---Representation and Presentation of Product Manufa
cturing Information (PMI)---4.0---2014-10-13'),
/* implementation_level */ '2;1');

FILE_NAME(
/* name */ 'C:\\Users\\Mikes\\Desktop\\Bolzen-Scheibe 2.stp',
/* time_stamp */ '2021-07-06T12:18:32+02:00',
/* author */ ('Mikes'),
/* organization */ (''),
/* preprocessor_version */ 'ST-DEVELOPER v18.1',
/* originating_system */ 'Autodesk Inventor 2021',
/* authorisation */ '');

FILE_SCHEMA (('AP242_MANAGED_MODEL_BASED_3D_ENGINEERING_MIM_LF { 1 0 10303 442 1 1 4 }'));
ENDSEC;

DATA;
#10=MECHANICAL_DESIGN_AND_DRAUGHTING_RELATIONSHIP('Isometrisch','',#24,
#25);
#11=MECHANICAL_DESIGN_AND_DRAUGHTING_RELATIONSHIP('Vorne','',#26,#25);
#12=MECHANICAL_DESIGN_AND_DRAUGHTING_RELATIONSHIP('Oben','',#27,#25);
#13=MECHANICAL_DESIGN_AND_DRAUGHTING_RELATIONSHIP('Rechts','',#28,#25);
#14=MAPPED_ITEM('',#19,#204);
#15=MAPPED_ITEM('',#20,#205);
#16=MAPPED_ITEM('',#21,#206);
#17=MAPPED_ITEM('',#22,#207);
#18=MAPPED_ITEM('',#23,#208);
#19=REPRESENTATION_MAP(#204,#46);
#20=REPRESENTATION_MAP(#205,#338);
#21=REPRESENTATION_MAP(#206,#46);
#22=REPRESENTATION_MAP(#207,#46);
#23=REPRESENTATION_MAP(#208,#46);
#24=DRAUGHTING_MODEL('Isometrisch',(#14,#30),#330);
#25=DRAUGHTING_MODEL('',(#15,#205),#330);
#26=DRAUGHTING_MODEL('Vorne',(#16,#31),#330);
#27=DRAUGHTING_MODEL('Oben',(#17,#32),#330);
#28=DRAUGHTING_MODEL('Rechts',(#18,#33),#330);
#29=MECHANICAL_DESIGN_GEOMETRIC_PRESENTATION_REPRESENTATION('',(#48,#49,
#50,#51),#331);
#30=CAMERA_MODEL_D3('Isometrisch',#196,#34);
#31=CAMERA_MODEL_D3('Vorne',#198,#35);
#32=CAMERA_MODEL_D3('Oben',#200,#36);
#33=CAMERA_MODEL_D3('Rechts',#202,#37);
#34=VIEW_VOLUME(.PARALLEL.,#313,16.9875424688562,0.,.F.,0.,.F.,.F.,#38);
#35=VIEW_VOLUME(.PARALLEL.,#316,117.693146607172,0.,.F.,0.,.F.,.F.,#39);
#36=VIEW_VOLUME(.PARALLEL.,#319,117.693146607172,0.,.F.,0.,.F.,.F.,#40);
#37=VIEW_VOLUME(.PARALLEL.,#322,117.693146607172,0.,.F.,0.,.F.,.F.,#41);
#38=PLANAR_BOX('view window',0.,0.,#197);
#39=PLANAR_BOX('view window',0.,0.,#199);
#40=PLANAR_BOX('view window',0.,0.,#201);
#41=PLANAR_BOX('view window',0.,0.,#203);
#42=GEOMETRICALLY_BOUNDED_WIREFRAME_SHAPE_REPRESENTATION('',(#43),#330);
#43=GEOMETRIC_CURVE_SET('Skizze1',(#95,#96));
#44=SHAPE_REPRESENTATION_RELATIONSHIP('SRR','None',#338,#46);
#45=SHAPE_REPRESENTATION_RELATIONSHIP('SRR','None',#338,#42);
#46=ADVANCED_BREP_SHAPE_REPRESENTATION('',(#53),#330);
#47=INVISIBILITY((#49,#50,#51));
#48=STYLED_ITEM('',(#347),#53);
#49=STYLED_ITEM('',(#348),#95);
#50=STYLED_ITEM('',(#348),#96);
#51=STYLED_ITEM('',(#349),#43);
#52=STYLED_ITEM('',(#350),#15);
#53=MANIFOLD_SOLID_BREP('Volumenk\X\F6rper1',#158);
#54=FACE_BOUND('',#70,.T.);
#55=FACE_BOUND('',#73,.T.);
#56=PLANE('',#183);
#57=PLANE('',#188);
#58=CYLINDRICAL_SURFACE('',#181,15.25);
#59=CYLINDRICAL_SURFACE('',#193,25.);
#60=FACE_OUTER_BOUND('',#67,.T.);
#61=FACE_OUTER_BOUND('',#68,.T.);
#62=FACE_OUTER_BOUND('',#69,.T.);
#63=FACE_OUTER_BOUND('',#71,.T.);
#64=FACE_OUTER_BOUND('',#72,.T.);
#65=FACE_OUTER_BOUND('',#74,.T.);
#66=FACE_OUTER_BOUND('',#75,.T.);
#67=EDGE_LOOP('',(#120,#121,#122,#123));
#68=EDGE_LOOP('',(#124,#125,#126,#127));
#69=EDGE_LOOP('',(#128,#129));
#70=EDGE_LOOP('',(#130));
#71=EDGE_LOOP('',(#131,#132,#133,#134));
#72=EDGE_LOOP('',(#135));
#73=EDGE_LOOP('',(#136));
#74=EDGE_LOOP('',(#137,#138,#139,#140,#141));
#75=EDGE_LOOP('',(#142,#143,#144,#145,#146,#147));
#76=LINE('',#283,#81);
#77=LINE('',#288,#82);
#78=LINE('',#297,#83);
#79=LINE('',#303,#84);
#80=LINE('',#308,#85);
#81=VECTOR('',#215,15.75);
#82=VECTOR('',#222,15.25);
#83=VECTOR('',#233,15.75);
#84=VECTOR('',#240,24.);
#85=VECTOR('',#247,25.);
#86=CIRCLE('',#179,15.25);
#87=CIRCLE('',#180,16.25);
#88=CIRCLE('',#182,15.25);
#89=CIRCLE('',#184,25.);
#90=CIRCLE('',#185,25.);
#91=CIRCLE('',#187,16.25);
#92=CIRCLE('',#189,23.);
#93=CIRCLE('',#191,25.);
#94=CIRCLE('',#192,25.);
#95=CIRCLE('',#194,15.25);
#96=CIRCLE('',#195,25.);
#97=VERTEX_POINT('',#280);
#98=VERTEX_POINT('',#282);
#99=VERTEX_POINT('',#286);
#100=VERTEX_POINT('',#290);
#101=VERTEX_POINT('',#291);
#102=VERTEX_POINT('',#295);
#103=VERTEX_POINT('',#299);
#104=VERTEX_POINT('',#302);
#105=VERTEX_POINT('',#304);
#106=EDGE_CURVE('',#97,#97,#86,.T.);
#107=EDGE_CURVE('',#97,#98,#76,.T.);
#108=EDGE_CURVE('',#98,#98,#87,.T.);
#109=EDGE_CURVE('',#99,#99,#88,.T.);
#110=EDGE_CURVE('',#99,#97,#77,.T.);
#111=EDGE_CURVE('',#100,#101,#89,.T.);
#112=EDGE_CURVE('',#101,#100,#90,.T.);
#113=EDGE_CURVE('',#102,#102,#91,.T.);
#114=EDGE_CURVE('',#102,#99,#78,.T.);
#115=EDGE_CURVE('',#103,#103,#92,.T.);
#116=EDGE_CURVE('',#103,#104,#79,.T.);
#117=EDGE_CURVE('',#104,#105,#93,.T.);
#118=EDGE_CURVE('',#105,#104,#94,.T.);
#119=EDGE_CURVE('',#105,#101,#80,.T.);
#120=ORIENTED_EDGE('',*,*,#106,.T.);
#121=ORIENTED_EDGE('',*,*,#107,.T.);
#122=ORIENTED_EDGE('',*,*,#108,.T.);
#123=ORIENTED_EDGE('',*,*,#107,.F.);
#124=ORIENTED_EDGE('',*,*,#109,.F.);
#125=ORIENTED_EDGE('',*,*,#110,.T.);
#126=ORIENTED_EDGE('',*,*,#106,.F.);
#127=ORIENTED_EDGE('',*,*,#110,.F.);
#128=ORIENTED_EDGE('',*,*,#111,.F.);
#129=ORIENTED_EDGE('',*,*,#112,.F.);
#130=ORIENTED_EDGE('',*,*,#108,.F.);
#131=ORIENTED_EDGE('',*,*,#113,.T.);
#132=ORIENTED_EDGE('',*,*,#114,.T.);
#133=ORIENTED_EDGE('',*,*,#109,.T.);
#134=ORIENTED_EDGE('',*,*,#114,.F.);
#135=ORIENTED_EDGE('',*,*,#115,.F.);
#136=ORIENTED_EDGE('',*,*,#113,.F.);
#137=ORIENTED_EDGE('',*,*,#115,.T.);
#138=ORIENTED_EDGE('',*,*,#116,.T.);
#139=ORIENTED_EDGE('',*,*,#117,.T.);
#140=ORIENTED_EDGE('',*,*,#118,.T.);
#141=ORIENTED_EDGE('',*,*,#116,.F.);
#142=ORIENTED_EDGE('',*,*,#117,.F.);
#143=ORIENTED_EDGE('',*,*,#118,.F.);
#144=ORIENTED_EDGE('',*,*,#119,.T.);
#145=ORIENTED_EDGE('',*,*,#112,.T.);
#146=ORIENTED_EDGE('',*,*,#111,.T.);
#147=ORIENTED_EDGE('',*,*,#119,.F.);
#148=CONICAL_SURFACE('',#178,15.75,0.785398163397449);
#149=CONICAL_SURFACE('',#186,15.75,0.785398163397449);
#150=CONICAL_SURFACE('',#190,24.,0.785398163397449);
#151=ADVANCED_FACE('',(#60),#148,.F.);
#152=ADVANCED_FACE('',(#61),#58,.F.);
#153=ADVANCED_FACE('',(#62,#54),#56,.F.);
#154=ADVANCED_FACE('',(#63),#149,.F.);
#155=ADVANCED_FACE('',(#64,#55),#57,.T.);
#156=ADVANCED_FACE('',(#65),#150,.T.);
#157=ADVANCED_FACE('',(#66),#59,.T.);
#158=CLOSED_SHELL('',(#151,#152,#153,#154,#155,#156,#157));
#159=DERIVED_UNIT_ELEMENT(#161,1.);
#160=DERIVED_UNIT_ELEMENT(#333,3.);
#161=(
MASS_UNIT()
NAMED_UNIT(*)
SI_UNIT($,.GRAM.)
);
#162=DERIVED_UNIT((#159,#160));
#163=MEASURE_REPRESENTATION_ITEM('density measure',
POSITIVE_RATIO_MEASURE(1.),#162);
#164=PROPERTY_DEFINITION_REPRESENTATION(#169,#166);
#165=PROPERTY_DEFINITION_REPRESENTATION(#170,#167);
#166=REPRESENTATION('material name',(#168),#330);
#167=REPRESENTATION('density',(#163),#330);
#168=DESCRIPTIVE_REPRESENTATION_ITEM('Generic','Generic');
#169=PROPERTY_DEFINITION('material property','material name',#340);
#170=PROPERTY_DEFINITION('material property','density of part',#340);
#171=DATE_TIME_ROLE('creation_date');
#172=APPLIED_DATE_AND_TIME_ASSIGNMENT(#173,#171,(#340));
#173=DATE_AND_TIME(#174,#175);
#174=CALENDAR_DATE(2021,15,6);
#175=LOCAL_TIME(0,0,0.,#176);
#176=COORDINATED_UNIVERSAL_TIME_OFFSET(0,0,.BEHIND.);
#177=AXIS2_PLACEMENT_3D('placement',#278,#209,#210);
#178=AXIS2_PLACEMENT_3D('',#279,#211,#212);
#179=AXIS2_PLACEMENT_3D('',#281,#213,#214);
#180=AXIS2_PLACEMENT_3D('',#284,#216,#217);
#181=AXIS2_PLACEMENT_3D('',#285,#218,#219);
#182=AXIS2_PLACEMENT_3D('',#287,#220,#221);
#183=AXIS2_PLACEMENT_3D('',#289,#223,#224);
#184=AXIS2_PLACEMENT_3D('',#292,#225,#226);
#185=AXIS2_PLACEMENT_3D('',#293,#227,#228);
#186=AXIS2_PLACEMENT_3D('',#294,#229,#230);
#187=AXIS2_PLACEMENT_3D('',#296,#231,#232);
#188=AXIS2_PLACEMENT_3D('',#298,#234,#235);
#189=AXIS2_PLACEMENT_3D('',#300,#236,#237);
#190=AXIS2_PLACEMENT_3D('',#301,#238,#239);
#191=AXIS2_PLACEMENT_3D('',#305,#241,#242);
#192=AXIS2_PLACEMENT_3D('',#306,#243,#244);
#193=AXIS2_PLACEMENT_3D('',#307,#245,#246);
#194=AXIS2_PLACEMENT_3D('',#309,#248,#249);
#195=AXIS2_PLACEMENT_3D('',#310,#250,#251);
#196=AXIS2_PLACEMENT_3D('view reference',#311,#252,#253);
#197=AXIS2_PLACEMENT_3D('view window',#312,#254,#255);
#198=AXIS2_PLACEMENT_3D('view reference',#314,#256,#257);
#199=AXIS2_PLACEMENT_3D('view window',#315,#258,#259);
#200=AXIS2_PLACEMENT_3D('view reference',#317,#260,#261);
#201=AXIS2_PLACEMENT_3D('view window',#318,#262,#263);
#202=AXIS2_PLACEMENT_3D('view reference',#320,#264,#265);
#203=AXIS2_PLACEMENT_3D('view window',#321,#266,#267);
#204=AXIS2_PLACEMENT_3D('',#323,#268,#269);
#205=AXIS2_PLACEMENT_3D('',#324,#270,#271);
#206=AXIS2_PLACEMENT_3D('',#325,#272,#273);
#207=AXIS2_PLACEMENT_3D('',#326,#274,#275);
#208=AXIS2_PLACEMENT_3D('',#327,#276,#277);
#209=DIRECTION('axis',(0.,0.,1.));
#210=DIRECTION('refdir',(1.,0.,0.));
#211=DIRECTION('center_axis',(0.,-1.,0.));
#212=DIRECTION('ref_axis',(1.,0.,0.));
#213=DIRECTION('center_axis',(0.,1.,0.));
#214=DIRECTION('ref_axis',(1.,0.,0.));
#215=DIRECTION('',(-0.707106781186548,-0.707106781186547,8.65956056235494E-17));
#216=DIRECTION('center_axis',(0.,-1.,0.));
#217=DIRECTION('ref_axis',(1.,0.,0.));
#218=DIRECTION('center_axis',(0.,1.,0.));
#219=DIRECTION('ref_axis',(1.,0.,0.));
#220=DIRECTION('center_axis',(0.,-1.,0.));
#221=DIRECTION('ref_axis',(1.,0.,0.));
#222=DIRECTION('',(0.,-1.,0.));
#223=DIRECTION('center_axis',(0.,1.,0.));
#224=DIRECTION('ref_axis',(0.,0.,1.));
#225=DIRECTION('center_axis',(0.,1.,0.));
#226=DIRECTION('ref_axis',(-1.,0.,0.));
#227=DIRECTION('center_axis',(0.,1.,0.));
#228=DIRECTION('ref_axis',(-1.,0.,0.));
#229=DIRECTION('center_axis',(0.,1.,0.));
#230=DIRECTION('ref_axis',(1.,0.,0.));
#231=DIRECTION('center_axis',(0.,1.,0.));
#232=DIRECTION('ref_axis',(1.,0.,0.));
#233=DIRECTION('',(0.707106781186548,-0.707106781186547,-8.65956056235494E-17));
#234=DIRECTION('center_axis',(0.,1.,0.));
#235=DIRECTION('ref_axis',(0.,0.,1.));
#236=DIRECTION('center_axis',(0.,-1.,0.));
#237=DIRECTION('ref_axis',(1.,0.,0.));
#238=DIRECTION('center_axis',(0.,-1.,0.));
#239=DIRECTION('ref_axis',(1.,0.,0.));
#240=DIRECTION('',(-0.707106781186548,-0.707106781186547,8.65956056235494E-17));
#241=DIRECTION('center_axis',(0.,1.,0.));
#242=DIRECTION('ref_axis',(1.,0.,0.));
#243=DIRECTION('center_axis',(0.,1.,0.));
#244=DIRECTION('ref_axis',(1.,0.,0.));
#245=DIRECTION('center_axis',(0.,1.,0.));
#246=DIRECTION('ref_axis',(-1.,0.,0.));
#247=DIRECTION('',(0.,-1.,0.));
#248=DIRECTION('center_axis',(0.,1.,0.));
#249=DIRECTION('ref_axis',(-1.,0.,0.));
#250=DIRECTION('center_axis',(0.,1.,0.));
#251=DIRECTION('ref_axis',(-1.,0.,0.));
#252=DIRECTION('center_axis',(-0.577350269189626,0.577350269189626,-0.577350269189626));
#253=DIRECTION('ref_axis',(-0.707106781186548,-0.707106781186548,0.));
#254=DIRECTION('center_axis',(0.,0.,1.));
#255=DIRECTION('ref_axis',(1.,0.,0.));
#256=DIRECTION('center_axis',(2.22044604925031E-16,1.,0.));
#257=DIRECTION('ref_axis',(-1.,2.22044604925031E-16,-4.93038065763132E-32));
#258=DIRECTION('center_axis',(0.,0.,1.));
#259=DIRECTION('ref_axis',(1.,0.,0.));
#260=DIRECTION('center_axis',(2.22044604925031E-16,0.,-1.));
#261=DIRECTION('ref_axis',(-1.,0.,-2.22044604925031E-16));
#262=DIRECTION('center_axis',(0.,0.,1.));
#263=DIRECTION('ref_axis',(1.,0.,0.));
#264=DIRECTION('center_axis',(-1.,0.,0.));
#265=DIRECTION('ref_axis',(0.,-1.,2.22044604925031E-16));
#266=DIRECTION('center_axis',(0.,0.,1.));
#267=DIRECTION('ref_axis',(1.,0.,0.));
#268=DIRECTION('center_axis',(0.,0.,1.));
#269=DIRECTION('ref_axis',(1.,0.,0.));
#270=DIRECTION('center_axis',(0.,0.,1.));
#271=DIRECTION('ref_axis',(1.,0.,0.));
#272=DIRECTION('center_axis',(0.,0.,1.));
#273=DIRECTION('ref_axis',(1.,0.,0.));
#274=DIRECTION('center_axis',(0.,0.,1.));
#275=DIRECTION('ref_axis',(1.,0.,0.));
#276=DIRECTION('center_axis',(0.,0.,1.));
#277=DIRECTION('ref_axis',(1.,0.,0.));
#278=CARTESIAN_POINT('',(0.,0.,0.));
#279=CARTESIAN_POINT('Origin',(0.,0.5,0.));
#280=CARTESIAN_POINT('',(-15.25,1.,1.86758636869971E-15));
#281=CARTESIAN_POINT('Origin',(0.,1.,0.));
#282=CARTESIAN_POINT('',(-16.25,0.,-1.99005104861445E-15));
#283=CARTESIAN_POINT('',(-15.75,0.5,1.92881870865708E-15));
#284=CARTESIAN_POINT('Origin',(0.,0.,0.));
#285=CARTESIAN_POINT('Origin',(0.,0.,0.));
#286=CARTESIAN_POINT('',(-15.25,4.,-1.86758636869971E-15));
#287=CARTESIAN_POINT('Origin',(0.,4.,0.));
#288=CARTESIAN_POINT('',(-15.25,0.,1.86758636869971E-15));
#289=CARTESIAN_POINT('Origin',(0.,0.,0.));
#290=CARTESIAN_POINT('',(-25.,0.,0.));
#291=CARTESIAN_POINT('',(25.,0.,-3.06161699786838E-15));
#292=CARTESIAN_POINT('Origin',(0.,0.,0.));
#293=CARTESIAN_POINT('Origin',(0.,0.,0.));
#294=CARTESIAN_POINT('Origin',(0.,4.5,0.));
#295=CARTESIAN_POINT('',(-16.25,5.,1.99005104861445E-15));
#296=CARTESIAN_POINT('Origin',(0.,5.,0.));
#297=CARTESIAN_POINT('',(-15.75,4.5,1.92881870865708E-15));
#298=CARTESIAN_POINT('Origin',(0.,5.,0.));
#299=CARTESIAN_POINT('',(-23.,5.,-2.81668763803891E-15));
#300=CARTESIAN_POINT('Origin',(0.,5.,0.));
#301=CARTESIAN_POINT('Origin',(0.,4.,0.));
#302=CARTESIAN_POINT('',(-25.,3.,3.06161699786838E-15));
#303=CARTESIAN_POINT('',(-24.,4.,2.93915231795365E-15));
#304=CARTESIAN_POINT('',(25.,3.,-3.06161699786838E-15));
#305=CARTESIAN_POINT('Origin',(0.,3.,0.));
#306=CARTESIAN_POINT('Origin',(0.,3.,0.));
#307=CARTESIAN_POINT('Origin',(0.,0.,0.));
#308=CARTESIAN_POINT('',(25.,0.,-3.06161699786838E-15));
#309=CARTESIAN_POINT('Origin',(0.,0.,0.));
#310=CARTESIAN_POINT('Origin',(0.,0.,0.));
#311=CARTESIAN_POINT('Origin',(9.80776221726431,-9.80776221726431,9.80776221726431));
#312=CARTESIAN_POINT('Origin',(0.,0.,16.9875424688562));
#313=CARTESIAN_POINT('',(0.,0.,0.));
#314=CARTESIAN_POINT('Origin',(-2.61331282407732E-14,-117.693146607172,
0.));
#315=CARTESIAN_POINT('Origin',(0.,0.,117.693146607172));
#316=CARTESIAN_POINT('',(0.,0.,0.));
#317=CARTESIAN_POINT('Origin',(-2.61331282407732E-14,0.,117.693146607172));
#318=CARTESIAN_POINT('Origin',(0.,0.,117.693146607172));
#319=CARTESIAN_POINT('',(0.,0.,0.));
#320=CARTESIAN_POINT('Origin',(117.693146607172,0.,0.));
#321=CARTESIAN_POINT('Origin',(0.,0.,117.693146607172));
#322=CARTESIAN_POINT('',(0.,0.,0.));
#323=CARTESIAN_POINT('Origin',(0.,0.,0.));
#324=CARTESIAN_POINT('Origin',(0.,0.,0.));
#325=CARTESIAN_POINT('Origin',(0.,0.,0.));
#326=CARTESIAN_POINT('Origin',(0.,0.,0.));
#327=CARTESIAN_POINT('Origin',(0.,0.,0.));
#328=UNCERTAINTY_MEASURE_WITH_UNIT(LENGTH_MEASURE(0.01),#332,
'DISTANCE_ACCURACY_VALUE',
'Maximum model space distance between geometric entities at asserted c
onnectivities');
#329=UNCERTAINTY_MEASURE_WITH_UNIT(LENGTH_MEASURE(0.01),#332,
'DISTANCE_ACCURACY_VALUE',
'Maximum model space distance between geometric entities at asserted c
onnectivities');
#330=(
GEOMETRIC_REPRESENTATION_CONTEXT(3)
GLOBAL_UNCERTAINTY_ASSIGNED_CONTEXT((#328))
GLOBAL_UNIT_ASSIGNED_CONTEXT((#332,#334,#335))
REPRESENTATION_CONTEXT('','3D')
);
#331=(
GEOMETRIC_REPRESENTATION_CONTEXT(3)
GLOBAL_UNCERTAINTY_ASSIGNED_CONTEXT((#329))
GLOBAL_UNIT_ASSIGNED_CONTEXT((#332,#334,#335))
REPRESENTATION_CONTEXT('','3D')
);
#332=(
LENGTH_UNIT()
NAMED_UNIT(*)
SI_UNIT(.MILLI.,.METRE.)
);
#333=(
LENGTH_UNIT()
NAMED_UNIT(*)
SI_UNIT(.CENTI.,.METRE.)
);
#334=(
NAMED_UNIT(*)
PLANE_ANGLE_UNIT()
SI_UNIT($,.RADIAN.)
);
#335=(
NAMED_UNIT(*)
SI_UNIT($,.STERADIAN.)
SOLID_ANGLE_UNIT()
);
#336=SHAPE_DEFINITION_REPRESENTATION(#337,#338);
#337=PRODUCT_DEFINITION_SHAPE('',$,#340);
#338=SHAPE_REPRESENTATION('',(#177),#330);
#339=PRODUCT_DEFINITION_CONTEXT('part definition',#344,'design');
#340=PRODUCT_DEFINITION('Bolzen-Scheibe 2','Bolzen-Scheibe 2',#341,#339);
#341=PRODUCT_DEFINITION_FORMATION('',$,#346);
#342=PRODUCT_RELATED_PRODUCT_CATEGORY('Bolzen-Scheibe 2',
'Bolzen-Scheibe 2',(#346));
#343=APPLICATION_PROTOCOL_DEFINITION('international standard',
'ap242_managed_model_based_3d_engineering',2011,#344);
#344=APPLICATION_CONTEXT('Managed model based 3d engineering');
#345=PRODUCT_CONTEXT('part definition',#344,'mechanical');
#346=PRODUCT('Bolzen-Scheibe 2','Bolzen-Scheibe 2',$,(#345));
#347=PRESENTATION_STYLE_ASSIGNMENT((#351));
#348=PRESENTATION_STYLE_ASSIGNMENT((#352));
#349=PRESENTATION_STYLE_ASSIGNMENT((NULL_STYLE(.NULL.)));
#350=PRESENTATION_STYLE_ASSIGNMENT((NULL_STYLE(.NULL.)));
#351=SURFACE_STYLE_USAGE(.BOTH.,#355);
#352=SURFACE_STYLE_USAGE(.BOTH.,#356);
#353=SURFACE_STYLE_RENDERING_WITH_PROPERTIES($,#363,(#354));
#354=SURFACE_STYLE_TRANSPARENT(0.);
#355=SURFACE_SIDE_STYLE('',(#357,#353));
#356=SURFACE_SIDE_STYLE('',(#358));
#357=SURFACE_STYLE_FILL_AREA(#359);
#358=SURFACE_STYLE_FILL_AREA(#360);
#359=FILL_AREA_STYLE('',(#361));
#360=FILL_AREA_STYLE('',(#362));
#361=FILL_AREA_STYLE_COLOUR('',#363);
#362=FILL_AREA_STYLE_COLOUR('',#364);
#363=COLOUR_RGB('',0.749019607843137,0.749019607843137,0.749019607843137);
#364=COLOUR_RGB('',0.,0.,0.501960784313725);
ENDSEC;
END-ISO-10303-21;
