  0
SECTION
  2
HEADER
  9
$ACADVER
  1
AC1018
  9
$ACADMAINTVER
 70
     0
  9
$DWGCODEPAGE
  3
ANSI_1252
  9
$INSBASE
 10
0.0
 20
0.0
 30
0.0
  9
$EXTMIN
 10
-0.5
 20
-0.5
 30
-0.5
  9
$EXTMAX
 10
5.0
 20
5.0
 30
5.0
  9
$LIMMIN
 10
-0.5
 20
-0.5
  9
$LIMMAX
 10
5.0
 20
5.0
  9
$ORTHOMODE
 70
     0
  9
$REGENMODE
 70
     1
  9
$FILLMODE
 70
     1
  9
$QTEXTMODE
 70
     0
  9
$MIRRTEXT
 70
     1
  9
$LTSCALE
 40
1.0
  9
$ATTMODE
 70
     1
  9
$TEXTSIZE
 40
0.2
  9
$TRACEWID
 40
0.05
  9
$TEXTSTYLE
  7
Standard
  9
$CLAYER
  8
0
  9
$CELTYPE
  6
ByLayer
  9
$CECOLOR
 62
   256
  9
$CELTSCALE
 40
1.0
  9
$DISPSILH
 70
     0
  9
$DIMSCALE
 40
1.0
  9
$DIMASZ
 40
0.18
  9
$DIMEXO
 40
0.0625
  9
$DIMDLI
 40
0.38
  9
$DIMRND
 40
0.0
  9
$DIMDLE
 40
0.0
  9
$DIMEXE
 40
0.18
  9
$DIMTP
 40
0.0
  9
$DIMTM
 40
0.0
  9
$DIMTXT
 40
0.18
  9
$DIMCEN
 40
0.09
  9
$DIMTSZ
 40
0.0
  9
$DIMTOL
 70
     0
  9
$DIMLIM
 70
     0
  9
$DIMTIH
 70
     1
  9
$DIMTOH
 70
     1
  9
$DIMSE1
 70
     0
  9
$DIMSE2
 70
     0
  9
$DIMTAD
 70
     0
  9
$DIMZIN
 70
     0
  9
$DIMBLK
  1

  9
$DIMASO
 70
     1
  9
$DIMSHO
 70
     1
  9
$DIMPOST
  1

  9
$DIMAPOST
  1

  9
$DIMALT
 70
     0
  9
$DIMALTD
 70
     2
  9
$DIMALTF
 40
25.4
  9
$DIMLFAC
 40
1.0
  9
$DIMTOFL
 70
     0
  9
$DIMTVP
 40
0.0
  9
$DIMTIX
 70
     0
  9
$DIMSOXD
 70
     0
  9
$DIMSAH
 70
     0
  9
$DIMBLK1
  1

  9
$DIMBLK2
  1

  9
$DIMSTYLE
  2
Standard
  9
$DIMCLRD
 70
     0
  9
$DIMCLRE
 70
     0
  9
$DIMCLRT
 70
     0
  9
$DIMTFAC
 40
1.0
  9
$DIMGAP
 40
0.09
  9
$DIMJUST
 70
     0
  9
$DIMSD1
 70
     0
  9
$DIMSD2
 70
     0
  9
$DIMTOLJ
 70
     1
  9
$DIMTZIN
 70
     0
  9
$DIMALTZ
 70
     0
  9
$DIMALTTZ
 70
     0
  9
$DIMUPT
 70
     0
  9
$DIMDEC
 70
     4
  9
$DIMTDEC
 70
     4
  9
$DIMALTU
 70
     2
  9
$DIMALTTD
 70
     2
  9
$DIMTXSTY
  7
Standard
  9
$DIMAUNIT
 70
     0
  9
$DIMADEC
 70
     0
  9
$DIMALTRND
 40
0.0
  9
$DIMAZIN
 70
     0
  9
$DIMDSEP
 70
    46
  9
$DIMATFIT
 70
     3
  9
$DIMFRAC
 70
     0
  9
$DIMLDRBLK
  1

  9
$DIMLUNIT
 70
     2
  9
$DIMLWD
 70
    -2
  9
$DIMLWE
 70
    -2
  9
$DIMTMOVE
 70
     0
  9
$LUNITS
 70
     2
  9
$LUPREC
 70
     4
  9
$SKETCHINC
 40
0.1
  9
$FILLETRAD
 40
0.5
  9
$AUNITS
 70
     0
  9
$AUPREC
 70
     0
  9
$MENU
  1
.
  9
$ELEVATION
 40
0.0
  9
$PELEVATION
 40
0.0
  9
$THICKNESS
 40
0.0
  9
$LIMCHECK
 70
     0
  9
$CHAMFERA
 40
0.5
  9
$CHAMFERB
 40
0.5
  9
$CHAMFERC
 40
1.0
  9
$CHAMFERD
 40
0.0
  9
$SKPOLY
 70
     0
  9
$TDCREATE
 40
2456436.725634028
  9
$TDUCREATE
 40
2456436.933967361
  9
$TDUPDATE
 40
2456436.725634039
  9
$TDUUPDATE
 40
2456436.933967373
  9
$TDINDWG
 40
0.0000000116
  9
$TDUSRTIMER
 40
0.0000000116
  9
$USRTIMER
 70
     1
  9
$ANGBASE
 50
0.0
  9
$ANGDIR
 70
     0
  9
$PDMODE
 70
     0
  9
$PDSIZE
 40
0.0
  9
$PLINEWID
 40
0.0
  9
$SPLFRAME
 70
     0
  9
$SPLINETYPE
 70
     6
  9
$SPLINESEGS
 70
     8
  9
$HANDSEED
  5
30D
  9
$SURFTAB1
 70
     6
  9
$SURFTAB2
 70
     6
  9
$SURFTYPE
 70
     6
  9
$SURFU
 70
     6
  9
$SURFV
 70
     6
  9
$UCSBASE
  2

  9
$UCSNAME
  2

  9
$UCSORG
 10
0.0
 20
0.0
 30
0.0
  9
$UCSXDIR
 10
1.0
 20
0.0
 30
0.0
  9
$UCSYDIR
 10
0.0
 20
1.0
 30
0.0
  9
$UCSORTHOREF
  2

  9
$UCSORTHOVIEW
 70
     0
  9
$UCSORGTOP
 10
0.0
 20
0.0
 30
0.0
  9
$UCSORGBOTTOM
 10
0.0
 20
0.0
 30
0.0
  9
$UCSORGLEFT
 10
0.0
 20
0.0
 30
0.0
  9
$UCSORGRIGHT
 10
0.0
 20
0.0
 30
0.0
  9
$UCSORGFRONT
 10
0.0
 20
0.0
 30
0.0
  9
$UCSORGBACK
 10
0.0
 20
0.0
 30
0.0
  9
$PUCSBASE
  2

  9
$PUCSNAME
  2

  9
$PUCSORG
 10
0.0
 20
0.0
 30
0.0
  9
$PUCSXDIR
 10
1.0
 20
0.0
 30
0.0
  9
$PUCSYDIR
 10
0.0
 20
1.0
 30
0.0
  9
$PUCSORTHOREF
  2

  9
$PUCSORTHOVIEW
 70
     0
  9
$PUCSORGTOP
 10
0.0
 20
0.0
 30
0.0
  9
$PUCSORGBOTTOM
 10
0.0
 20
0.0
 30
0.0
  9
$PUCSORGLEFT
 10
0.0
 20
0.0
 30
0.0
  9
$PUCSORGRIGHT
 10
0.0
 20
0.0
 30
0.0
  9
$PUCSORGFRONT
 10
0.0
 20
0.0
 30
0.0
  9
$PUCSORGBACK
 10
0.0
 20
0.0
 30
0.0
  9
$USERI1
 70
     0
  9
$USERI2
 70
     0
  9
$USERI3
 70
     0
  9
$USERI4
 70
     0
  9
$USERI5
 70
     0
  9
$USERR1
 40
0.0
  9
$USERR2
 40
0.0
  9
$USERR3
 40
0.0
  9
$USERR4
 40
0.0
  9
$USERR5
 40
0.0
  9
$WORLDVIEW
 70
     1
  9
$SHADEDGE
 70
     3
  9
$SHADEDIF
 70
    70
  9
$TILEMODE
 70
     1
  9
$MAXACTVP
 70
    64
  9
$PINSBASE
 10
0.0
 20
0.0
 30
0.0
  9
$PLIMCHECK
 70
     0
  9
$PEXTMIN
 10
-0.5
 20
-0.5
 30
-0.5
  9
$PEXTMAX
 10
5.0
 20
5.0
 30
5.0
  9
$PLIMMIN
 10
-0.5
 20
-0.5
  9
$PLIMMAX
 10
5.0
 20
5.0
  9
$UNITMODE
 70
     0
  9
$VISRETAIN
 70
     1
  9
$PLINEGEN
 70
     0
  9
$PSLTSCALE
 70
     1
  9
$TREEDEPTH
 70
  3020
  9
$CMLSTYLE
  2
Standard
  9
$CMLJUST
 70
     0
  9
$CMLSCALE
 40
1.0
  9
$PROXYGRAPHICS
 70
     1
  9
$MEASUREMENT
 70
     0
  9
$CELWEIGHT
370
    -1
  9
$ENDCAPS
280
     0
  9
$JOINSTYLE
280
     0
  9
$LWDISPLAY
290
     1
  9
$INSUNITS
 70
     1
  9
$HYPERLINKBASE
  1

  9
$STYLESHEET
  1

  9
$XEDIT
290
     1
  9
$CEPSNTYPE
380
     0
  9
$PSTYLEMODE
290
     1
  9
$FINGERPRINTGUID
  2
{842841A6-6A77-4E99-88D5-CF81F4CA774C}
  9
$VERSIONGUID
  2
{FAEB1C32-E019-11D5-929B-00C0DF256EC4}
  9
$EXTNAMES
290
     1
  9
$PSVPSCALE
 40
0.0
  9
$OLESTARTUP
290
     0
  9
$SORTENTS
280
   127
  9
$INDEXCTL
280
     0
  9
$HIDETEXT
280
     1
  9
$XCLIPFRAME
290
     0
  9
$HALOGAP
280
     0
  9
$OBSCOLOR
 70
   257
  9
$OBSLTYPE
280
     0
  9
$INTERSECTIONDISPLAY
280
     0
  9
$INTERSECTIONCOLOR
 70
   257
  9
$DIMASSOC
280
     2
  9
$PROJECTNAME
  1

  0
ENDSEC
  0
SECTION
  2
CLASSES
  0
CLASS
  1
ACDBDICTIONARYWDFLT
  2
AcDbDictionaryWithDefault
  3
ObjectDBX Classes
 90
        0
 91
        4
280
     0
281
     0
  0
CLASS
  1
VISUALSTYLE
  2
AcDbVisualStyle
  3
ObjectDBX Classes
 90
     4095
 91
        4
280
     0
281
     0
  0
CLASS
  1
MATERIAL
  2
AcDbMaterial
  3
ObjectDBX Classes
 90
     1153
 91
        4
280
     0
281
     0
  0
ENDSEC
  0
SECTION
  2
TABLES
  0
TABLE
  2
VPORT
  5
8
330
0
100
AcDbSymbolTable
 70
    17
  0
VPORT
  5
29
330
8
100
AcDbSymbolTableRecord
100
AcDbViewportTableRecord
  2
DUMMY
 70
     0
 10
0.0
 20
0.0
 11
1.0
 21
1.0
 12
10.429907
 22
4.5
 13
0.0
 23
0.0
 14
0.5
 24
0.5
 15
0.5
 25
0.5
 16
0.0
 26
0.0
 36
1.0
 17
0.0
 27
0.0
 37
0.0
 40
9.0
 41
1.972973
 42
50.0
 43
0.0
 44
0.0
 50
0.0
 51
0.0
 71
     0
 72
   100
 73
     1
 74
     3
 75
     0
 76
     0
 77
     0
 78
     0
281
     0
 65
     1
110
0.0
120
0.0
130
0.0
111
1.0
121
0.0
131
0.0
112
0.0
122
1.0
132
0.0
 79
     0
146
0.0
  0
VPORT
  5
2D5
330
8
100
AcDbSymbolTableRecord
100
AcDbViewportTableRecord
  2
*ACTIVE
 70
     0
 10
0.0
 20
0.0
 11
1.0
 21
1.0
 12
9.297249
 22
1.362772
 13
0.0
 23
0.0
 14
0.5
 24
0.5
 15
0.5
 25
0.5
 16
0.7188730927569434
 26
-0.5850486126764431
 36
0.3754192287502549
 17
0.0
 27
0.0
 37
0.0
 40
53.287801
 41
0.333224
 42
50.0
 43
200.480101
 44
-200.480101
 50
0.0
 51
0.0
 71
     0
 72
   100
 73
     1
 74
     3
 75
     0
 76
     0
 77
     0
 78
     0
281
     0
 65
     1
110
0.0
120
0.0
130
0.0
111
1.0
121
0.0
131
0.0
112
0.0
122
1.0
132
0.0
 79
     0
146
0.0
  0
VPORT
  5
2D6
330
8
100
AcDbSymbolTableRecord
100
AcDbViewportTableRecord
  2
L1
 70
     0
 10
0.0
 20
0.0
 11
1.0
 21
1.0
 12
9.297249
 22
1.362772
 13
0.0
 23
0.0
 14
0.5
 24
0.5
 15
0.5
 25
0.5
 16
0.7188730927569434
 26
-0.5850486126764431
 36
0.3754192287502549
 17
0.0
 27
0.0
 37
0.0
 40
53.287801
 41
0.333224
 42
50.0
 43
200.480101
 44
-200.480101
 50
0.0
 51
0.0
 71
     0
 72
   100
 73
     1
 74
     3
 75
     0
 76
     0
 77
     0
 78
     0
281
     0
 65
     1
110
0.0
120
0.0
130
0.0
111
1.0
121
0.0
131
0.0
112
0.0
122
1.0
132
0.0
 79
     0
146
0.0
  0
VPORT
  5
2D7
330
8
100
AcDbSymbolTableRecord
100
AcDbViewportTableRecord
  2
L2
 70
     0
 10
0.0
 20
0.0
 11
0.5
 21
1.0
 12
0.0
 22
0.0
 13
0.0
 23
0.0
 14
0.5
 24
0.5
 15
0.5
 25
0.5
 16
0.0
 26
-1.0
 36
0.0
 17
0.0
 27
0.0
 37
0.0
 40
51.634893
 41
0.343891
 42
50.0
 43
26.402727
 44
-26.402727
 50
0.0
 51
0.0
 71
     0
 72
   100
 73
     1
 74
     3
 75
     0
 76
     0
 77
     0
 78
     0
281
     0
 65
     1
110
0.0
120
0.0
130
0.0
111
1.0
121
0.0
131
0.0
112
0.0
122
1.0
132
0.0
 79
     0
146
0.0
  0
VPORT
  5
2D8
330
8
100
AcDbSymbolTableRecord
100
AcDbViewportTableRecord
  2
L2
 70
     0
 10
0.5
 20
0.0
 11
1.0
 21
1.0
 12
0.0
 22
0.0
 13
0.0
 23
0.0
 14
0.5
 24
0.5
 15
0.5
 25
0.5
 16
1.0
 26
0.0
 36
0.0
 17
0.0
 27
0.0
 37
0.0
 40
51.634893
 41
0.343891
 42
50.0
 43
26.23526
 44
-26.23526
 50
0.0
 51
0.0
 71
     0
 72
   100
 73
     1
 74
     3
 75
     0
 76
     0
 77
     0
 78
     0
281
     0
 65
     1
110
0.0
120
0.0
130
0.0
111
1.0
121
0.0
131
0.0
112
0.0
122
1.0
132
0.0
 79
     0
146
0.0
  0
VPORT
  5
2D9
330
8
100
AcDbSymbolTableRecord
100
AcDbViewportTableRecord
  2
L3
 70
     0
 10
0.0
 20
0.5
 11
1.0
 21
1.0
 12
0.0
 22
0.0
 13
0.0
 23
0.0
 14
0.5
 24
0.5
 15
0.5
 25
0.5
 16
0.0
 26
0.0
 36
1.0
 17
0.0
 27
0.0
 37
0.0
 40
9.327018
 41
1.903798
 42
50.0
 43
25.817447
 44
-25.817447
 50
0.0
 51
0.0
 71
     0
 72
   100
 73
     1
 74
     3
 75
     0
 76
     0
 77
     0
 78
     0
281
     0
 65
     1
110
0.0
120
0.0
130
0.0
111
1.0
121
0.0
131
0.0
112
0.0
122
1.0
132
0.0
 79
     0
146
0.0
  0
VPORT
  5
2DA
330
8
100
AcDbSymbolTableRecord
100
AcDbViewportTableRecord
  2
L3
 70
     0
 10
0.0
 20
0.0
 11
1.0
 21
0.5
 12
0.0
 22
0.0
 13
0.0
 23
0.0
 14
0.5
 24
0.5
 15
0.5
 25
0.5
 16
0.0
 26
-1.0
 36
0.0
 17
0.0
 27
0.0
 37
0.0
 40
51.634893
 41
0.343891
 42
50.0
 43
26.402727
 44
-26.402727
 50
0.0
 51
0.0
 71
     0
 72
   100
 73
     1
 74
     3
 75
     0
 76
     0
 77
     0
 78
     0
281
     0
 65
     1
110
0.0
120
0.0
130
0.0
111
1.0
121
0.0
131
0.0
112
0.0
122
1.0
132
0.0
 79
     0
146
0.0
  0
VPORT
  5
2DB
330
8
100
AcDbSymbolTableRecord
100
AcDbViewportTableRecord
  2
L4
 70
     0
 10
0.0
 20
0.5
 11
0.5
 21
1.0
 12
0.0
 22
0.0
 13
0.0
 23
0.0
 14
0.5
 24
0.5
 15
0.5
 25
0.5
 16
0.0
 26
0.0
 36
1.0
 17
0.0
 27
0.0
 37
0.0
 40
9.327018
 41
1.903798
 42
50.0
 43
25.817447
 44
-25.817447
 50
0.0
 51
0.0
 71
     0
 72
   100
 73
     1
 74
     3
 75
     0
 76
     0
 77
     0
 78
     0
281
     0
 65
     1
110
0.0
120
0.0
130
0.0
111
1.0
121
0.0
131
0.0
112
0.0
122
1.0
132
0.0
 79
     0
146
0.0
  0
VPORT
  5
2DC
330
8
100
AcDbSymbolTableRecord
100
AcDbViewportTableRecord
  2
L4
 70
     0
 10
0.0
 20
0.0
 11
0.5
 21
0.5
 12
0.0
 22
0.0
 13
0.0
 23
0.0
 14
0.5
 24
0.5
 15
0.5
 25
0.5
 16
0.0
 26
-1.0
 36
0.0
 17
0.0
 27
0.0
 37
0.0
 40
51.634893
 41
0.343891
 42
50.0
 43
26.402727
 44
-26.402727
 50
0.0
 51
0.0
 71
     0
 72
   100
 73
     1
 74
     3
 75
     0
 76
     0
 77
     0
 78
     0
281
     0
 65
     1
110
0.0
120
0.0
130
0.0
111
1.0
121
0.0
131
0.0
112
0.0
122
1.0
132
0.0
 79
     0
146
0.0
  0
VPORT
  5
2DD
330
8
100
AcDbSymbolTableRecord
100
AcDbViewportTableRecord
  2
L4
 70
     0
 10
0.5
 20
0.0
 11
1.0
 21
0.5
 12
0.0
 22
0.0
 13
0.0
 23
0.0
 14
0.5
 24
0.5
 15
0.5
 25
0.5
 16
1.0
 26
0.0
 36
0.0
 17
0.0
 27
0.0
 37
0.0
 40
51.634893
 41
0.343891
 42
50.0
 43
26.23526
 44
-26.23526
 50
0.0
 51
0.0
 71
     0
 72
   100
 73
     1
 74
     3
 75
     0
 76
     0
 77
     0
 78
     0
281
     0
 65
     1
110
0.0
120
0.0
130
0.0
111
1.0
121
0.0
131
0.0
112
0.0
122
1.0
132
0.0
 79
     0
146
0.0
  0
VPORT
  5
2DE
330
8
100
AcDbSymbolTableRecord
100
AcDbViewportTableRecord
  2
L4
 70
     0
 10
0.5
 20
0.5
 11
1.0
 21
1.0
 12
0.0
 22
0.0
 13
0.0
 23
0.0
 14
0.5
 24
0.5
 15
0.5
 25
0.5
 16
0.5773502691896258
 26
-0.5773502691896258
 36
0.5773502691896258
 17
0.0
 27
0.0
 37
0.0
 40
50.481389
 41
0.351749
 42
50.0
 43
26.249388
 44
-26.249388
 50
0.0
 51
0.0
 71
     0
 72
   100
 73
     1
 74
     3
 75
     0
 76
     0
 77
     0
 78
     0
281
     0
 65
     1
110
0.0
120
0.0
130
0.0
111
1.0
121
0.0
131
0.0
112
0.0
122
1.0
132
0.0
 79
     0
146
0.0
  0
VPORT
  5
2DF
330
8
100
AcDbSymbolTableRecord
100
AcDbViewportTableRecord
  2
L6
 70
     0
 10
0.0
 20
0.5
 11
0.333333
 21
1.0
 12
9.297249
 22
1.362772
 13
0.0
 23
0.0
 14
0.5
 24
0.5
 15
0.5
 25
0.5
 16
0.7188730927569434
 26
-0.5850486126764431
 36
0.3754192287502549
 17
0.0
 27
0.0
 37
0.0
 40
53.287801
 41
0.333224
 42
50.0
 43
200.480101
 44
-200.480101
 50
0.0
 51
0.0
 71
     0
 72
   100
 73
     1
 74
     3
 75
     0
 76
     0
 77
     0
 78
     0
281
     0
 65
     1
110
0.0
120
0.0
130
0.0
111
1.0
121
0.0
131
0.0
112
0.0
122
1.0
132
0.0
 79
     0
146
0.0
  0
VPORT
  5
2E0
330
8
100
AcDbSymbolTableRecord
100
AcDbViewportTableRecord
  2
L6
 70
     0
 10
0.0
 20
0.0
 11
0.333333
 21
0.5
 12
0.0
 22
0.0
 13
0.0
 23
0.0
 14
0.5
 24
0.5
 15
0.5
 25
0.5
 16
-1.0
 26
0.0
 36
0.0
 17
0.0
 27
0.0
 37
0.0
 40
51.634893
 41
0.343891
 42
50.0
 43
26.23526
 44
-26.23526
 50
0.0
 51
0.0
 71
     0
 72
   100
 73
     1
 74
     3
 75
     0
 76
     0
 77
     0
 78
     0
281
     0
 65
     1
110
0.0
120
0.0
130
0.0
111
1.0
121
0.0
131
0.0
112
0.0
122
1.0
132
0.0
 79
     0
146
0.0
  0
VPORT
  5
2E1
330
8
100
AcDbSymbolTableRecord
100
AcDbViewportTableRecord
  2
L6
 70
     0
 10
0.333333
 20
0.5
 11
0.666667
 21
1.0
 12
0.0
 22
0.0
 13
0.0
 23
0.0
 14
0.5
 24
0.5
 15
0.5
 25
0.5
 16
0.0
 26
0.0
 36
1.0
 17
0.0
 27
0.0
 37
0.0
 40
9.327018
 41
1.903798
 42
50.0
 43
25.817447
 44
-25.817447
 50
0.0
 51
0.0
 71
     0
 72
   100
 73
     1
 74
     3
 75
     0
 76
     0
 77
     0
 78
     0
281
     0
 65
     1
110
0.0
120
0.0
130
0.0
111
1.0
121
0.0
131
0.0
112
0.0
122
1.0
132
0.0
 79
     0
146
0.0
  0
VPORT
  5
2E2
330
8
100
AcDbSymbolTableRecord
100
AcDbViewportTableRecord
  2
L6
 70
     0
 10
0.333333
 20
0.0
 11
0.666667
 21
0.5
 12
0.0
 22
0.0
 13
0.0
 23
0.0
 14
0.5
 24
0.5
 15
0.5
 25
0.5
 16
0.0
 26
-1.0
 36
0.0
 17
0.0
 27
0.0
 37
0.0
 40
51.634893
 41
0.343891
 42
50.0
 43
26.402727
 44
-26.402727
 50
0.0
 51
0.0
 71
     0
 72
   100
 73
     1
 74
     3
 75
     0
 76
     0
 77
     0
 78
     0
281
     0
 65
     1
110
0.0
120
0.0
130
0.0
111
1.0
121
0.0
131
0.0
112
0.0
122
1.0
132
0.0
 79
     0
146
0.0
  0
VPORT
  5
2E3
330
8
100
AcDbSymbolTableRecord
100
AcDbViewportTableRecord
  2
L6
 70
     0
 10
0.666667
 20
0.5
 11
1.0
 21
1.0
 12
0.0
 22
0.0
 13
0.0
 23
0.0
 14
0.5
 24
0.5
 15
0.5
 25
0.5
 16
0.5773502691896258
 26
-0.5773502691896258
 36
0.5773502691896258
 17
0.0
 27
0.0
 37
0.0
 40
50.481389
 41
0.351749
 42
50.0
 43
26.249388
 44
-26.249388
 50
0.0
 51
0.0
 71
     0
 72
   100
 73
     1
 74
     3
 75
     0
 76
     0
 77
     0
 78
     0
281
     0
 65
     1
110
0.0
120
0.0
130
0.0
111
1.0
121
0.0
131
0.0
112
0.0
122
1.0
132
0.0
 79
     0
146
0.0
  0
VPORT
  5
2E4
330
8
100
AcDbSymbolTableRecord
100
AcDbViewportTableRecord
  2
L6
 70
     0
 10
0.666667
 20
0.0
 11
1.0
 21
0.5
 12
0.0
 22
0.0
 13
0.0
 23
0.0
 14
0.5
 24
0.5
 15
0.5
 25
0.5
 16
1.0
 26
0.0
 36
0.0
 17
0.0
 27
0.0
 37
0.0
 40
51.634893
 41
0.343891
 42
50.0
 43
26.23526
 44
-26.23526
 50
0.0
 51
0.0
 71
     0
 72
   100
 73
     1
 74
     3
 75
     0
 76
     0
 77
     0
 78
     0
281
     0
 65
     1
110
0.0
120
0.0
130
0.0
111
1.0
121
0.0
131
0.0
112
0.0
122
1.0
132
0.0
 79
     0
146
0.0
  0
ENDTAB
  0
TABLE
  2
LTYPE
  5
5
330
0
100
AcDbSymbolTable
 70
     7
  0
LTYPE
  5
14
330
5
100
AcDbSymbolTableRecord
100
AcDbLinetypeTableRecord
  2
BYBLOCK
 70
     0
  3

 72
    65
 73
     0
 40
0.0
  0
LTYPE
  5
15
330
5
100
AcDbSymbolTableRecord
100
AcDbLinetypeTableRecord
  2
BYLAYER
 70
     0
  3

 72
    65
 73
     0
 40
0.0
  0
LTYPE
  5
16
330
5
100
AcDbSymbolTableRecord
100
AcDbLinetypeTableRecord
  2
CONTINUOUS
 70
     0
  3
Solid line
 72
    65
 73
     0
 40
0.0
  0
LTYPE
  5
3F
330
5
100
AcDbSymbolTableRecord
100
AcDbLinetypeTableRecord
  2
DASHED
 70
     0
  3
__ __ __ __ __ __ __ __ __
 72
    65
 73
     2
 40
25.72
 49
12.86
 74
     4
 75
     0
340
0
 46
0.0
 50
0.0
 44
0.0
 45
0.0
 49
-12.86
 74
     4
 75
     0
340
0
 46
0.0
 50
0.0
 44
0.0
 45
0.0
  0
LTYPE
  5
40
330
5
100
AcDbSymbolTableRecord
100
AcDbLinetypeTableRecord
  2
HIDDEN
 70
     0
  3
_ _ _ _ _ _ _ _ _ _ _ _ _ _ _
 72
    65
 73
     2
 40
0.5
 49
0.25
 74
     4
 75
     0
340
0
 46
0.0
 50
0.0
 44
0.0
 45
0.0
 49
-0.25
 74
     4
 75
     0
340
0
 46
0.0
 50
0.0
 44
0.0
 45
0.0
  0
LTYPE
  5
41
330
5
100
AcDbSymbolTableRecord
100
AcDbLinetypeTableRecord
  2
PHANTOM
 70
     0
  3
____ _ _ ____ _ _ _____ _ _ ____
 72
    65
 73
     6
 40
50.5
 49
18.0
 74
     4
 75
     0
340
0
 46
0.0
 50
0.0
 44
0.0
 45
0.0
 49
-6.5
 74
     4
 75
     0
340
0
 46
0.0
 50
0.0
 44
0.0
 45
0.0
 49
6.5
 74
     4
 75
     0
340
0
 46
0.0
 50
0.0
 44
0.0
 45
0.0
 49
-6.5
 74
     4
 75
     0
340
0
 46
0.0
 50
0.0
 44
0.0
 45
0.0
 49
6.5
 74
     4
 75
     0
340
0
 46
0.0
 50
0.0
 44
0.0
 45
0.0
 49
-6.5
 74
     4
 75
     0
340
0
 46
0.0
 50
0.0
 44
0.0
 45
0.0
  0
LTYPE
  5
42
330
5
100
AcDbSymbolTableRecord
100
AcDbLinetypeTableRecord
  2
CENTER
 70
     0
  3
____ _ ____ _ ____ _ ____
 72
    65
 73
     4
 40
47.4
 49
22.0
 74
     4
 75
     0
340
0
 46
0.0
 50
0.0
 44
0.0
 45
0.0
 49
-8.5
 74
     4
 75
     0
340
0
 46
0.0
 50
0.0
 44
0.0
 45
0.0
 49
8.5
 74
     4
 75
     0
340
0
 46
0.0
 50
0.0
 44
0.0
 45
0.0
 49
-8.5
 74
     4
 75
     0
340
0
 46
0.0
 50
0.0
 44
0.0
 45
0.0
  0
LTYPE
  5
43
330
5
100
AcDbSymbolTableRecord
100
AcDbLinetypeTableRecord
  2
DOT
 70
     0
  3
.........................
 72
    65
 73
     2
 40
10.0
 49
0.0
 74
     4
 75
     0
340
0
 46
0.0
 50
0.0
 44
0.0
 45
0.0
 49
-10.0
 74
     4
 75
     0
340
0
 46
0.0
 50
0.0
 44
0.0
 45
0.0
  0
LTYPE
  5
44
330
5
100
AcDbSymbolTableRecord
100
AcDbLinetypeTableRecord
  2
DASHDOT
 70
     0
  3
_._._._._._._._._._._._._._._._.
 72
    65
 73
     4
 40
70.0
 49
31.0
 74
     4
 75
     0
340
0
 46
0.0
 50
0.0
 44
0.0
 45
0.0
 49
-13.0
 74
     4
 75
     0
340
0
 46
0.0
 50
0.0
 44
0.0
 45
0.0
 49
13.0
 74
     4
 75
     0
340
0
 46
0.0
 50
0.0
 44
0.0
 45
0.0
 49
-13.0
 74
     4
 75
     0
340
0
 46
0.0
 50
0.0
 44
0.0
 45
0.0
  0
ENDTAB
  0
TABLE
  2
LAYER
  5
2
330
0
100
AcDbSymbolTable
 70
     3
  0
LAYER
  5
10
330
2
100
AcDbSymbolTableRecord
100
AcDbLayerTableRecord
  2
0
 70
     0
 62
     7
  6
CONTINUOUS
370
    -3
390
F
  0
LAYER
  5
46
330
2
100
AcDbSymbolTableRecord
100
AcDbLayerTableRecord
  2
61
 70
     0
 62
     7
420
 16777215
  6
CONTINUOUS
370
    -3
390
F
  0
LAYER
  5
48
330
2
100
AcDbSymbolTableRecord
100
AcDbLayerTableRecord
  2
1
 70
     0
 62
     7
420
 16777215
  6
CONTINUOUS
370
    -3
390
F
  0
ENDTAB
  0
TABLE
  2
STYLE
  5
3
330
0
100
AcDbSymbolTable
 70
     1
  0
STYLE
  5
11
330
3
100
AcDbSymbolTableRecord
100
AcDbTextStyleTableRecord
  2
Standard
 70
     0
 40
0.0
 41
1.0
 50
0.0
 71
     0
 42
0.2
  3
txt
  4

  0
ENDTAB
  0
TABLE
  2
VIEW
  5
6
330
0
100
AcDbSymbolTable
 70
     8
  0
VIEW
  5
2CD
330
6
100
AcDbSymbolTableRecord
100
AcDbViewTableRecord
  2
TOP
 70
     0
 40
9.327018
 10
0.0
 20
0.0
 41
11.056841
 11
0.0
 21
0.0
 31
1.0
 12
0.0
 22
0.0
 32
0.0
 42
50.0
 43
25.817447
 44
-25.817447
 50
0.0
 71
     0
281
     0
 72
     0
  0
VIEW
  5
2CE
330
6
100
AcDbSymbolTableRecord
100
AcDbViewTableRecord
  2
FRONT
 70
     0
 40
51.634893
 10
0.0
 20
0.0
 41
11.056841
 11
0.0
 21
-1.0
 31
0.0
 12
0.0
 22
0.0
 32
0.0
 42
50.0
 43
26.402727
 44
-26.402727
 50
0.0
 71
     0
281
     0
 72
     0
  0
VIEW
  5
2CF
330
6
100
AcDbSymbolTableRecord
100
AcDbViewTableRecord
  2
RIGHT
 70
     0
 40
51.634893
 10
0.0
 20
0.0
 41
9.327018
 11
1.0
 21
0.0
 31
0.0
 12
0.0
 22
0.0
 32
0.0
 42
50.0
 43
26.23526
 44
-26.23526
 50
0.0
 71
     0
281
     0
 72
     0
  0
VIEW
  5
2D0
330
6
100
AcDbSymbolTableRecord
100
AcDbViewTableRecord
  2
BACK
 70
     0
 40
51.634893
 10
0.0
 20
0.0
 41
11.056841
 11
0.0
 21
1.0
 31
0.0
 12
0.0
 22
0.0
 32
0.0
 42
50.0
 43
26.402727
 44
-26.402727
 50
0.0
 71
     0
281
     0
 72
     0
  0
VIEW
  5
2D1
330
6
100
AcDbSymbolTableRecord
100
AcDbViewTableRecord
  2
BOTTOM
 70
     0
 40
9.327018
 10
0.0
 20
0.0
 41
11.056841
 11
0.0
 21
0.0
 31
-1.0
 12
0.0
 22
0.0
 32
0.0
 42
50.0
 43
25.817447
 44
-25.817447
 50
180.0
 71
     0
281
     0
 72
     0
  0
VIEW
  5
2D2
330
6
100
AcDbSymbolTableRecord
100
AcDbViewTableRecord
  2
LEFT
 70
     0
 40
51.634893
 10
0.0
 20
0.0
 41
9.327018
 11
-1.0
 21
0.0
 31
0.0
 12
0.0
 22
0.0
 32
0.0
 42
50.0
 43
26.23526
 44
-26.23526
 50
0.0
 71
     0
281
     0
 72
     0
  0
VIEW
  5
2D3
330
6
100
AcDbSymbolTableRecord
100
AcDbViewTableRecord
  2
TFR-ISO
 70
     0
 40
50.481389
 10
0.0
 20
0.0
 41
14.413564
 11
0.5773502691896258
 21
-0.5773502691896258
 31
0.5773502691896258
 12
0.0
 22
0.0
 32
0.0
 42
50.0
 43
26.249388
 44
-26.249388
 50
0.0
 71
     0
281
     0
 72
     0
  0
VIEW
  5
2D4
330
6
100
AcDbSymbolTableRecord
100
AcDbViewTableRecord
  2
TFR-TRI
 70
     0
 40
53.287801
 10
6.925573
 20
12.529918
 41
14.213366
 11
0.7188730927569434
 21
-0.5850486126764431
 31
0.3754192287502549
 12
0.0
 22
0.0
 32
0.0
 42
50.0
 43
200.480101
 44
-200.480101
 50
0.0
 71
     0
281
     0
 72
     0
  0
ENDTAB
  0
TABLE
  2
UCS
  5
7
330
0
100
AcDbSymbolTable
 70
     0
  0
ENDTAB
  0
TABLE
  2
APPID
  5
9
330
0
100
AcDbSymbolTable
 70
     1
  0
APPID
  5
12
330
9
100
AcDbSymbolTableRecord
100
AcDbRegAppTableRecord
  2
ACAD
 70
     0
  0
ENDTAB
  0
TABLE
  2
DIMSTYLE
  5
A
330
0
100
AcDbSymbolTable
 70
     1
100
AcDbDimStyleTable
  0
DIMSTYLE
105
27
330
A
100
AcDbSymbolTableRecord
100
AcDbDimStyleTableRecord
  2
Standard
 70
     0
178
     0
340
11
  0
ENDTAB
  0
TABLE
  2
BLOCK_RECORD
  5
1
330
0
100
AcDbSymbolTable
 70
     1
  0
BLOCK_RECORD
  5
1F
330
1
100
AcDbSymbolTableRecord
100
AcDbBlockTableRecord
  2
*Model_Space
340
22
  0
BLOCK_RECORD
  5
1B
330
1
100
AcDbSymbolTableRecord
100
AcDbBlockTableRecord
  2
*Paper_Space
340
1E
  0
BLOCK_RECORD
  5
23
330
1
100
AcDbSymbolTableRecord
100
AcDbBlockTableRecord
  2
*Paper_Space0
340
26
  0
ENDTAB
  0
ENDSEC
  0
SECTION
  2
BLOCKS
  0
BLOCK
  5
20
330
1F
100
AcDbEntity
  8
0
100
AcDbBlockBegin
  2
*Model_Space
 70
     0
 10
0.0
 20
0.0
 30
0.0
  3
*Model_Space
  1

  0
ENDBLK
  5
21
330
1F
100
AcDbEntity
  8
0
100
AcDbBlockEnd
  0
BLOCK
  5
1C
330
1B
100
AcDbEntity
 67
     1
  8
0
100
AcDbBlockBegin
  2
*Paper_Space
 70
     0
 10
0.0
 20
0.0
 30
0.0
  3
*Paper_Space
  1

  0
ENDBLK
  5
1D
330
1B
100
AcDbEntity
 67
     1
  8
0
100
AcDbBlockEnd
  0
BLOCK
  5
24
330
23
100
AcDbEntity
  8
0
100
AcDbBlockBegin
  2
*Paper_Space0
 70
     0
 10
0.0
 20
0.0
 30
0.0
  3
*Paper_Space0
  1

  0
ENDBLK
  5
25
330
23
100
AcDbEntity
  8
0
100
AcDbBlockEnd
  0
ENDSEC
  0
SECTION
  2
ENTITIES
  0
POINT
  5
45
330
1F
100
AcDbEntity
  8
61
  6
CONTINUOUS
 62
    23
100
AcDbPoint
 10
0.0
 20
0.0
 30
0.0
  0
POINT
  5
47
330
1F
100
AcDbEntity
  8
1
  6
CONTINUOUS
 62
   163
100
AcDbPoint
 10
0.0
 20
13.5
 30
10.3
  0
POINT
  5
49
330
1F
100
AcDbEntity
  8
1
  6
CONTINUOUS
 62
   163
100
AcDbPoint
 10
0.0
 20
13.5
 30
0.0
  0
POINT
  5
4A
330
1F
100
AcDbEntity
  8
1
  6
CONTINUOUS
 62
   163
100
AcDbPoint
 10
0.0
 20
13.5
 30
0.5
  0
POINT
  5
4B
330
1F
100
AcDbEntity
  8
1
  6
CONTINUOUS
 62
   163
100
AcDbPoint
 10
0.0
 20
0.0
 30
42.0
  0
POINT
  5
4C
330
1F
100
AcDbEntity
  8
1
  6
CONTINUOUS
 62
   163
100
AcDbPoint
 10
28.423
 20
6.067
 30
2.789
  0
POINT
  5
4D
330
1F
100
AcDbEntity
  8
1
  6
CONTINUOUS
 62
   163
100
AcDbPoint
 10
28.294
 20
5.803
 30
2.254
  0
POINT
  5
4E
330
1F
100
AcDbEntity
  8
1
  6
CONTINUOUS
 62
   163
100
AcDbPoint
 10
29.853
 20
8.227
 30
8.698
  0
POINT
  5
4F
330
1F
100
AcDbEntity
  8
1
  6
CONTINUOUS
 62
   163
100
AcDbPoint
 10
32.381
 20
9.017
 30
19.152
  0
POINT
  5
50
330
1F
100
AcDbEntity
  8
1
  6
CONTINUOUS
 62
   163
100
AcDbPoint
 10
42.308
 20
8.119
 30
8.666
  0
POINT
  5
51
330
1F
100
AcDbEntity
  8
1
  6
CONTINUOUS
 62
   163
100
AcDbPoint
 10
42.66
 20
5.934
 30
2.781
  0
POINT
  5
52
330
1F
100
AcDbEntity
  8
1
  6
CONTINUOUS
 62
   163
100
AcDbPoint
 10
55.5
 20
6.6875
 30
5.594
  0
POINT
  5
53
330
1F
100
AcDbEntity
  8
1
  6
CONTINUOUS
 62
   163
100
AcDbPoint
 10
55.5
 20
6.6875
 30
5.594
  0
POINT
  5
54
330
1F
100
AcDbEntity
  8
1
  6
CONTINUOUS
 62
   163
100
AcDbPoint
 10
55.5
 20
6.6875
 30
4.875
  0
POINT
  5
55
330
1F
100
AcDbEntity
  8
1
  6
CONTINUOUS
 62
   163
100
AcDbPoint
 10
55.5
 20
6.6875
 30
15.439
  0
POINT
  5
56
330
1F
100
AcDbEntity
  8
1
  6
CONTINUOUS
 62
   163
100
AcDbPoint
 10
55.5
 20
3.398
 30
18.728
  0
POINT
  5
57
330
1F
100
AcDbEntity
  8
1
  6
CONTINUOUS
 62
   163
100
AcDbPoint
 10
55.5
 20
0.0
 30
18.728
  0
POINT
  5
58
330
1F
100
AcDbEntity
  8
1
  6
CONTINUOUS
 62
   163
100
AcDbPoint
 10
8.0957
 20
11.383
 30
1.152
  0
POINT
  5
59
330
1F
100
AcDbEntity
  8
1
  6
CONTINUOUS
 62
   163
100
AcDbPoint
 10
20.057
 20
8.255
 30
2.115
  0
POINT
  5
5A
330
1F
100
AcDbEntity
  8
1
  6
CONTINUOUS
 62
   163
100
AcDbPoint
 10
-17.253
 20
6.825
 30
3.066
  0
POINT
  5
5B
330
1F
100
AcDbEntity
  8
1
  6
CONTINUOUS
 62
   163
100
AcDbPoint
 10
-17.396
 20
9.156
 30
8.957
  0
POINT
  5
5C
330
1F
100
AcDbEntity
  8
1
  6
CONTINUOUS
 62
   163
100
AcDbPoint
 10
-30.799
 20
9.251
 30
9.178
  0
POINT
  5
5D
330
1F
100
AcDbEntity
  8
1
  6
CONTINUOUS
 62
   163
100
AcDbPoint
 10
-30.421
 20
6.688
 30
2.7523
  0
POINT
  5
5E
330
1F
100
AcDbEntity
  8
1
  6
CONTINUOUS
 62
   163
100
AcDbPoint
 10
-5.067
 20
7.25
 30
21.0
  0
POINT
  5
5F
330
1F
100
AcDbEntity
  8
1
  6
CONTINUOUS
 62
   163
100
AcDbPoint
 10
-30.799
 20
-9.251
 30
9.178
  0
POINT
  5
60
330
1F
100
AcDbEntity
  8
1
  6
CONTINUOUS
 62
   163
100
AcDbPoint
 10
-30.421
 20
-6.688
 30
2.7523
  0
POINT
  5
61
330
1F
100
AcDbEntity
  8
1
  6
CONTINUOUS
 62
   163
100
AcDbPoint
 10
-17.253
 20
-6.825
 30
3.066
  0
POINT
  5
62
330
1F
100
AcDbEntity
  8
1
  6
CONTINUOUS
 62
   163
100
AcDbPoint
 10
-17.396
 20
-9.156
 30
8.957
  0
POINT
  5
63
330
1F
100
AcDbEntity
  8
1
  6
CONTINUOUS
 62
   163
100
AcDbPoint
 10
-5.067
 20
-7.25
 30
21.0
  0
POINT
  5
64
330
1F
100
AcDbEntity
  8
1
  6
CONTINUOUS
 62
   163
100
AcDbPoint
 10
0.0
 20
-13.5
 30
10.3
  0
POINT
  5
65
330
1F
100
AcDbEntity
  8
1
  6
CONTINUOUS
 62
   163
100
AcDbPoint
 10
0.0
 20
-13.5
 30
0.5
  0
POINT
  5
66
330
1F
100
AcDbEntity
  8
1
  6
CONTINUOUS
 62
   163
100
AcDbPoint
 10
0.0
 20
-13.5
 30
0.0
  0
POINT
  5
67
330
1F
100
AcDbEntity
  8
1
  6
CONTINUOUS
 62
   163
100
AcDbPoint
 10
28.423
 20
-6.067
 30
2.789
  0
POINT
  5
68
330
1F
100
AcDbEntity
  8
1
  6
CONTINUOUS
 62
   163
100
AcDbPoint
 10
29.853
 20
-8.227
 30
8.698
  0
POINT
  5
69
330
1F
100
AcDbEntity
  8
1
  6
CONTINUOUS
 62
   163
100
AcDbPoint
 10
42.308
 20
-8.119
 30
8.666
  0
POINT
  5
6A
330
1F
100
AcDbEntity
  8
1
  6
CONTINUOUS
 62
   163
100
AcDbPoint
 10
42.66
 20
-5.934
 30
2.781
  0
POINT
  5
6B
330
1F
100
AcDbEntity
  8
1
  6
CONTINUOUS
 62
   163
100
AcDbPoint
 10
55.5
 20
-6.6875
 30
5.594
  0
POINT
  5
6C
330
1F
100
AcDbEntity
  8
1
  6
CONTINUOUS
 62
   163
100
AcDbPoint
 10
55.5
 20
-6.6875
 30
4.875
  0
POINT
  5
6D
330
1F
100
AcDbEntity
  8
1
  6
CONTINUOUS
 62
   163
100
AcDbPoint
 10
55.5
 20
-6.6875
 30
15.439
  0
POINT
  5
6E
330
1F
100
AcDbEntity
  8
1
  6
CONTINUOUS
 62
   163
100
AcDbPoint
 10
55.5
 20
-3.398
 30
18.728
  0
POINT
  5
6F
330
1F
100
AcDbEntity
  8
1
  6
CONTINUOUS
 62
   163
100
AcDbPoint
 10
32.381
 20
-9.017
 30
19.152
  0
POINT
  5
70
330
1F
100
AcDbEntity
  8
1
  6
CONTINUOUS
 62
   163
100
AcDbPoint
 10
0.0
 20
13.5
 30
19.0
  0
POINT
  5
71
330
1F
100
AcDbEntity
  8
1
  6
CONTINUOUS
 62
   163
100
AcDbPoint
 10
0.0
 20
-13.5
 30
19.0
  0
POINT
  5
72
330
1F
100
AcDbEntity
  8
1
  6
CONTINUOUS
 62
     1
100
AcDbPoint
 10
13.0
 20
0.0
 30
13.0
  0
POINT
  5
73
330
1F
100
AcDbEntity
  8
1
  6
CONTINUOUS
 62
     1
100
AcDbPoint
 10
30.75
 20
0.0
 30
12.67
  0
POINT
  5
74
330
1F
100
AcDbEntity
  8
1
  6
CONTINUOUS
 62
     1
100
AcDbPoint
 10
13.0
 20
0.0
 30
6.0
  0
POINT
  5
75
330
1F
100
AcDbEntity
  8
1
  6
CONTINUOUS
 62
   163
100
AcDbPoint
 10
33.125
 20
0.0
 30
22.228
  0
POINT
  5
76
330
1F
100
AcDbEntity
  8
1
  6
CONTINUOUS
 62
   163
100
AcDbPoint
 10
33.4212
 20
0.0
 30
23.442401
  0
POINT
  5
77
330
1F
100
AcDbEntity
  8
1
  6
CONTINUOUS
 62
   163
100
AcDbPoint
 10
55.5
 20
-6.312168
 30
16.949227
  0
POINT
  5
78
330
1F
100
AcDbEntity
  8
1
  6
CONTINUOUS
 62
   163
100
AcDbPoint
 10
55.5
 20
6.312168
 30
16.949227
  0
POINT
  5
79
330
1F
100
AcDbEntity
  8
1
  6
CONTINUOUS
 62
   163
100
AcDbPoint
 10
33.4212
 20
0.0
 30
23.442401
  0
POINT
  5
7A
330
1F
100
AcDbEntity
  8
1
  6
CONTINUOUS
 62
   163
100
AcDbPoint
 10
32.934647
 20
-7.643612
 30
21.431881
  0
POINT
  5
7B
330
1F
100
AcDbEntity
  8
1
  6
CONTINUOUS
 62
   163
100
AcDbPoint
 10
32.934647
 20
7.643612
 30
21.431881
  0
POINT
  5
7C
330
1F
100
AcDbEntity
  8
1
  6
CONTINUOUS
 62
   163
100
AcDbPoint
 10
33.381553
 20
0.0
 30
23.278574
  0
POINT
  5
7D
330
1F
100
AcDbEntity
  8
1
  6
CONTINUOUS
 62
   163
100
AcDbPoint
 10
0.0
 20
-7.099664
 30
36.0
  0
POINT
  5
7E
330
1F
100
AcDbEntity
  8
1
  6
CONTINUOUS
 62
   163
100
AcDbPoint
 10
0.0
 20
7.099664
 30
36.0
  0
POINT
  5
7F
330
1F
100
AcDbEntity
  8
1
  6
CONTINUOUS
 62
   163
100
AcDbPoint
 10
35.5415
 20
-0.0665
 30
2.785
  0
POINT
  5
80
330
1F
100
AcDbEntity
  8
1
  6
CONTINUOUS
 62
   163
100
AcDbPoint
 10
35.5465
 20
-0.0665
 30
2.785
  0
POINT
  5
81
330
1F
100
AcDbEntity
  8
1
  6
CONTINUOUS
 62
   163
100
AcDbPoint
 10
20.057
 20
-8.255
 30
2.115
  0
POINT
  5
82
330
1F
100
AcDbEntity
  8
1
  6
CONTINUOUS
 62
   163
100
AcDbPoint
 10
8.0957
 20
-11.383
 30
1.152
  0
POINT
  5
83
330
1F
100
AcDbEntity
  8
1
  6
CONTINUOUS
 62
   163
100
AcDbPoint
 10
-5.938916
 20
7.801688
 30
26.767642
  0
POINT
  5
84
330
1F
100
AcDbEntity
  8
1
  6
CONTINUOUS
 62
   163
100
AcDbPoint
 10
-5.938916
 20
-7.801688
 30
26.767642
  0
POINT
  5
85
330
1F
100
AcDbEntity
  8
1
  6
CONTINUOUS
 62
   163
100
AcDbPoint
 10
41.7467
 20
-9.5
 30
9.031
  0
POINT
  5
86
330
1F
100
AcDbEntity
  8
1
  6
CONTINUOUS
 62
   163
100
AcDbPoint
 10
30.5542
 20
9.5
 30
9.036
  0
POINT
  5
87
330
1F
100
AcDbEntity
  8
1
  6
CONTINUOUS
 62
   163
100
AcDbPoint
 10
30.5542
 20
-9.5
 30
9.036
  0
POINT
  5
88
330
1F
100
AcDbEntity
  8
1
  6
CONTINUOUS
 62
   163
100
AcDbPoint
 10
42.2539
 20
-7.375
 30
2.869
  0
POINT
  5
89
330
1F
100
AcDbEntity
  8
1
  6
CONTINUOUS
 62
   163
100
AcDbPoint
 10
42.2539
 20
7.375
 30
2.869
  0
POINT
  5
8A
330
1F
100
AcDbEntity
  8
1
  6
CONTINUOUS
 62
   163
100
AcDbPoint
 10
29.1539
 20
7.375
 30
2.869
  0
POINT
  5
8B
330
1F
100
AcDbEntity
  8
1
  6
CONTINUOUS
 62
   163
100
AcDbPoint
 10
29.1539
 20
-7.375
 30
2.869
  0
POINT
  5
8C
330
1F
100
AcDbEntity
  8
1
  6
CONTINUOUS
 62
   163
100
AcDbPoint
 10
37.0
 20
22.211
 30
11.929
  0
POINT
  5
8D
330
1F
100
AcDbEntity
  8
1
  6
CONTINUOUS
 62
   163
100
AcDbPoint
 10
37.0
 20
-22.211
 30
11.929
  0
POINT
  5
8E
330
1F
100
AcDbEntity
  8
1
  6
CONTINUOUS
 62
   163
100
AcDbPoint
 10
37.8629
 20
23.461
 30
3.825
  0
POINT
  5
8F
330
1F
100
AcDbEntity
  8
1
  6
CONTINUOUS
 62
   163
100
AcDbPoint
 10
37.8629
 20
-23.461
 30
3.825
  0
POINT
  5
90
330
1F
100
AcDbEntity
  8
1
  6
CONTINUOUS
 62
   163
100
AcDbPoint
 10
37.5539
 20
24.5
 30
8.5
  0
POINT
  5
91
330
1F
100
AcDbEntity
  8
1
  6
CONTINUOUS
 62
   163
100
AcDbPoint
 10
37.5539
 20
-24.5
 30
8.5
  0
POINT
  5
92
330
1F
100
AcDbEntity
  8
1
  6
CONTINUOUS
 62
   163
100
AcDbPoint
 10
-18.0
 20
-10.477
 30
9.332
  0
POINT
  5
93
330
1F
100
AcDbEntity
  8
1
  6
CONTINUOUS
 62
   163
100
AcDbPoint
 10
-18.0
 20
10.477
 30
9.332
  0
POINT
  5
94
330
1F
100
AcDbEntity
  8
1
  6
CONTINUOUS
 62
   163
100
AcDbPoint
 10
-18.0
 20
8.125
 30
3.116
  0
POINT
  5
95
330
1F
100
AcDbEntity
  8
1
  6
CONTINUOUS
 62
   163
100
AcDbPoint
 10
-18.0
 20
-8.125
 30
3.116
  0
POINT
  5
96
330
1F
100
AcDbEntity
  8
1
  6
CONTINUOUS
 62
   163
100
AcDbPoint
 10
-30.15
 20
-10.477
 30
9.506
  0
POINT
  5
97
330
1F
100
AcDbEntity
  8
1
  6
CONTINUOUS
 62
   163
100
AcDbPoint
 10
-30.15
 20
10.477
 30
9.506
  0
POINT
  5
98
330
1F
100
AcDbEntity
  8
1
  6
CONTINUOUS
 62
   163
100
AcDbPoint
 10
-24.446
 20
-20.898
 30
12.3
  0
POINT
  5
99
330
1F
100
AcDbEntity
  8
1
  6
CONTINUOUS
 62
   163
100
AcDbPoint
 10
-24.446
 20
-22.061
 30
3.65
  0
POINT
  5
9A
330
1F
100
AcDbEntity
  8
1
  6
CONTINUOUS
 62
   163
100
AcDbPoint
 10
-24.446
 20
22.061
 30
3.65
  0
POINT
  5
9B
330
1F
100
AcDbEntity
  8
1
  6
CONTINUOUS
 62
   163
100
AcDbPoint
 10
-24.446
 20
23.5
 30
8.5
  0
POINT
  5
9C
330
1F
100
AcDbEntity
  8
1
  6
CONTINUOUS
 62
   163
100
AcDbPoint
 10
-24.446
 20
-23.5
 30
8.5
  0
POINT
  5
9D
330
1F
100
AcDbEntity
  8
1
  6
CONTINUOUS
 62
   163
100
AcDbPoint
 10
-30.0
 20
8.125
 30
2.837
  0
POINT
  5
9E
330
1F
100
AcDbEntity
  8
1
  6
CONTINUOUS
 62
   163
100
AcDbPoint
 10
-30.0
 20
-8.125
 30
2.837
  0
POINT
  5
9F
330
1F
100
AcDbEntity
  8
1
  6
CONTINUOUS
 62
   163
100
AcDbPoint
 10
37.863182
 20
8.157542
 30
8.67742
  0
POINT
  5
A0
330
1F
100
AcDbEntity
  8
1
  6
CONTINUOUS
 62
   163
100
AcDbPoint
 10
37.863182
 20
-8.157542
 30
8.67742
  0
POINT
  5
A1
330
1F
100
AcDbEntity
  8
1
  6
CONTINUOUS
 62
   163
100
AcDbPoint
 10
37.861959
 20
-7.352881
 30
20.45306
  0
POINT
  5
A2
330
1F
100
AcDbEntity
  8
1
  6
CONTINUOUS
 62
   163
100
AcDbPoint
 10
37.861959
 20
7.352881
 30
20.45306
  0
POINT
  5
A3
330
1F
100
AcDbEntity
  8
1
  6
CONTINUOUS
 62
     1
100
AcDbPoint
 10
-17.396
 20
0.0
 30
9.457
  0
POINT
  5
A4
330
1F
100
AcDbEntity
  8
1
  6
CONTINUOUS
 62
     1
100
AcDbPoint
 10
0.0
 20
0.0
 30
42.5
  0
POINT
  5
A5
330
1F
100
AcDbEntity
  8
1
  6
CONTINUOUS
 62
     1
100
AcDbPoint
 10
33.381553
 20
0.0
 30
23.778574
  0
POINT
  5
A6
330
1F
100
AcDbEntity
  8
1
  6
CONTINUOUS
 62
   163
100
AcDbPoint
 10
50.014323
 20
6.36558
 30
4.392192
  0
POINT
  5
A7
330
1F
100
AcDbEntity
  8
1
  6
CONTINUOUS
 62
   163
100
AcDbPoint
 10
50.014323
 20
-6.36558
 30
4.392192
  0
POINT
  5
A8
330
1F
100
AcDbEntity
  8
1
  6
CONTINUOUS
 62
   163
100
AcDbPoint
 10
-7.438916
 20
2.0
 30
26.767642
  0
POINT
  5
A9
330
1F
100
AcDbEntity
  8
1
  6
CONTINUOUS
 62
   163
100
AcDbPoint
 10
-7.438916
 20
-2.0
 30
26.767642
  0
POINT
  5
AA
330
1F
100
AcDbEntity
  8
1
  6
CONTINUOUS
 62
   163
100
AcDbPoint
 10
55.5
 20
-1.59072
 30
5.594
  0
POINT
  5
AB
330
1F
100
AcDbEntity
  8
1
  6
CONTINUOUS
 62
   163
100
AcDbPoint
 10
50.014323
 20
-1.59072
 30
4.392192
  0
POINT
  5
AC
330
1F
100
AcDbEntity
  8
1
  6
CONTINUOUS
 62
    35
100
AcDbPoint
 10
-23.8318
 20
4.449
 30
7.9106
  0
POINT
  5
AD
330
1F
100
AcDbEntity
  8
1
  6
CONTINUOUS
 62
   163
100
AcDbPoint
 10
41.7467
 20
9.5
 30
9.031
  0
POINT
  5
AE
330
1F
100
AcDbEntity
  8
1
  6
CONTINUOUS
 62
   163
100
AcDbPoint
 10
-15.270138
 20
-8.904707
 30
12.261765
  0
POINT
  5
AF
330
1F
100
AcDbEntity
  8
1
  6
CONTINUOUS
 62
     3
100
AcDbPoint
 10
-24.446
 20
8.0
 30
17.67
  0
POINT
  5
B0
330
1F
100
AcDbEntity
  8
1
  6
CONTINUOUS
 62
     3
100
AcDbPoint
 10
-24.446
 20
6.0
 30
17.0
  0
POINT
  5
B1
330
1F
100
AcDbEntity
  8
1
  6
CONTINUOUS
 62
     3
100
AcDbPoint
 10
-24.446
 20
9.0
 30
16.5
  0
POINT
  5
B2
330
1F
100
AcDbEntity
  8
1
  6
CONTINUOUS
 62
     3
100
AcDbPoint
 10
-24.446
 20
-8.7
 30
10.35
  0
POINT
  5
B3
330
1F
100
AcDbEntity
  8
1
  6
CONTINUOUS
 62
     3
100
AcDbPoint
 10
-24.446
 20
-9.0
 30
16.5
  0
POINT
  5
B4
330
1F
100
AcDbEntity
  8
1
  6
CONTINUOUS
 62
     3
100
AcDbPoint
 10
-24.446
 20
-8.0
 30
17.67
  0
POINT
  5
B5
330
1F
100
AcDbEntity
  8
1
  6
CONTINUOUS
 62
     3
100
AcDbPoint
 10
-24.446
 20
8.7
 30
10.35
  0
POINT
  5
B6
330
1F
100
AcDbEntity
  8
1
  6
CONTINUOUS
 62
   163
100
AcDbPoint
 10
-10.512256
 20
8.342291
 30
19.658143
  0
POINT
  5
B7
330
1F
100
AcDbEntity
  8
1
  6
CONTINUOUS
 62
   163
100
AcDbPoint
 10
-10.512256
 20
-8.342291
 30
19.658143
  0
POINT
  5
B8
330
1F
100
AcDbEntity
  8
1
  6
CONTINUOUS
 62
   163
100
AcDbPoint
 10
-22.516632
 20
9.042692
 30
14.435713
  0
POINT
  5
B9
330
1F
100
AcDbEntity
  8
1
  6
CONTINUOUS
 62
   163
100
AcDbPoint
 10
-22.516632
 20
-9.042692
 30
14.435713
  0
POINT
  5
BA
330
1F
100
AcDbEntity
  8
1
  6
CONTINUOUS
 62
   163
100
AcDbPoint
 10
-24.425027
 20
-9.205821
 30
9.072901
  0
POINT
  5
BB
330
1F
100
AcDbEntity
  8
1
  6
CONTINUOUS
 62
   163
100
AcDbPoint
 10
-24.425027
 20
9.205821
 30
9.072901
  0
POINT
  5
BC
330
1F
100
AcDbEntity
  8
1
  6
CONTINUOUS
 62
   163
100
AcDbPoint
 10
-23.550167
 20
9.199621
 30
9.058475
  0
POINT
  5
BD
330
1F
100
AcDbEntity
  8
1
  6
CONTINUOUS
 62
   163
100
AcDbPoint
 10
-24.924946
 20
9.209365
 30
9.081144
  0
POINT
  5
BE
330
1F
100
AcDbEntity
  8
1
  6
CONTINUOUS
 62
   163
100
AcDbPoint
 10
-24.924946
 20
-9.209365
 30
9.081144
  0
POINT
  5
BF
330
1F
100
AcDbEntity
  8
1
  6
CONTINUOUS
 62
   163
100
AcDbPoint
 10
-23.550167
 20
-9.199621
 30
9.058475
  0
POINT
  5
C0
330
1F
100
AcDbEntity
  8
1
  6
CONTINUOUS
 62
   163
100
AcDbPoint
 10
-24.446
 20
20.898
 30
12.3
  0
POINT
  5
C1
330
1F
100
AcDbEntity
  8
1
  6
CONTINUOUS
 62
     3
100
AcDbPoint
 10
37.8629
 20
-10.0
 30
10.0
  0
POINT
  5
C2
330
1F
100
AcDbEntity
  8
1
  6
CONTINUOUS
 62
     3
100
AcDbPoint
 10
37.8629
 20
-11.5
 30
11.5
  0
POINT
  5
C3
330
1F
100
AcDbEntity
  8
1
  6
CONTINUOUS
 62
     3
100
AcDbPoint
 10
37.8629
 20
-13.2
 30
13.6
  0
POINT
  5
C4
330
1F
100
AcDbEntity
  8
1
  6
CONTINUOUS
 62
     3
100
AcDbPoint
 10
37.8629
 20
-8.55
 30
19.05
  0
POINT
  5
C5
330
1F
100
AcDbEntity
  8
1
  6
CONTINUOUS
 62
     3
100
AcDbPoint
 10
37.8629
 20
8.55
 30
19.05
  0
POINT
  5
C6
330
1F
100
AcDbEntity
  8
1
  6
CONTINUOUS
 62
     3
100
AcDbPoint
 10
37.8629
 20
10.0
 30
10.0
  0
POINT
  5
C7
330
1F
100
AcDbEntity
  8
1
  6
CONTINUOUS
 62
     3
100
AcDbPoint
 10
37.8629
 20
11.5
 30
11.5
  0
POINT
  5
C8
330
1F
100
AcDbEntity
  8
1
  6
CONTINUOUS
 62
     3
100
AcDbPoint
 10
37.8629
 20
13.2
 30
13.6
  0
POINT
  5
C9
330
1F
100
AcDbEntity
  8
1
  6
CONTINUOUS
 62
    35
100
AcDbPoint
 10
-23.8318
 20
-6.5569
 30
7.9106
  0
POINT
  5
CA
330
1F
100
AcDbEntity
  8
1
  6
CONTINUOUS
 62
    35
100
AcDbPoint
 10
-23.8318
 20
6.5569
 30
7.9106
  0
POINT
  5
CB
330
1F
100
AcDbEntity
  8
1
  6
CONTINUOUS
 62
   163
100
AcDbPoint
 10
-17.396
 20
2.5648
 30
8.957
  0
POINT
  5
CC
330
1F
100
AcDbEntity
  8
1
  6
CONTINUOUS
 62
   163
100
AcDbPoint
 10
-17.396
 20
-2.1122
 30
8.957
  0
POINT
  5
CD
330
1F
100
AcDbEntity
  8
1
  6
CONTINUOUS
 62
   163
100
AcDbPoint
 10
-22.516632
 20
0.0
 30
14.435713
  0
POINT
  5
CE
330
1F
100
AcDbEntity
  8
1
  6
CONTINUOUS
 62
   163
100
AcDbPoint
 10
-15.5595
 20
-2.1122
 30
12.1934
  0
POINT
  5
CF
330
1F
100
AcDbEntity
  8
1
  6
CONTINUOUS
 62
   163
100
AcDbPoint
 10
-17.253
 20
-0.4012
 30
3.066
  0
POINT
  5
D0
330
1F
100
AcDbEntity
  8
1
  6
CONTINUOUS
 62
   163
100
AcDbPoint
 10
-14.566
 20
-3.080218
 30
12.307
  0
POINT
  5
D1
330
1F
100
AcDbEntity
  8
1
  6
CONTINUOUS
 62
   163
100
AcDbPoint
 10
-14.566
 20
-1.112218
 30
12.307
  0
POINT
  5
D2
330
1F
100
AcDbEntity
  8
1
  6
CONTINUOUS
 62
     3
100
AcDbPoint
 10
22.91167
 20
0.0
 30
18.2314
  0
POINT
  5
D3
330
1F
100
AcDbEntity
  8
1
  6
CONTINUOUS
 62
     3
100
AcDbPoint
 10
29.53303
 20
0.0
 30
16.29
  0
POINT
  5
D4
330
1F
100
AcDbEntity
  8
1
  6
CONTINUOUS
 62
     3
100
AcDbPoint
 10
35.39409
 20
0.0
 30
11.94947
  0
POINT
  5
D5
330
1F
100
AcDbEntity
  8
1
  6
CONTINUOUS
 62
     3
100
AcDbPoint
 10
39.42591
 20
0.0
 30
3.7645
  0
POINT
  5
D6
330
1F
100
AcDbEntity
  8
1
  6
CONTINUOUS
 62
     1
100
AcDbPoint
 10
41.660044
 20
-5.943341
 30
5.160062
  0
POINT
  5
D7
330
1F
100
AcDbEntity
  8
1
  6
CONTINUOUS
 62
     1
100
AcDbPoint
 10
41.660044
 20
5.943341
 30
5.160062
  0
POINT
  5
D8
330
1F
100
AcDbEntity
  8
1
  6
CONTINUOUS
 62
   163
100
AcDbPoint
 10
-22.516632
 20
2.5648
 30
14.435713
  0
POINT
  5
D9
330
1F
100
AcDbEntity
  8
1
  6
CONTINUOUS
 62
   163
100
AcDbPoint
 10
-22.516632
 20
-2.1122
 30
14.435713
  0
POINT
  5
DA
330
1F
100
AcDbEntity
  8
1
  6
CONTINUOUS
 62
   163
100
AcDbPoint
 10
38.660175
 20
-5.971366
 30
2.783248
  0
POINT
  5
DB
330
1F
100
AcDbEntity
  8
1
  6
CONTINUOUS
 62
   163
100
AcDbPoint
 10
38.660175
 20
5.971366
 30
2.783248
  0
POINT
  5
DC
330
1F
100
AcDbEntity
  8
1
  6
CONTINUOUS
 62
   163
100
AcDbPoint
 10
-24.446
 20
8.0
 30
17.67
  0
POINT
  5
DD
330
1F
100
AcDbEntity
  8
1
  6
CONTINUOUS
 62
   163
100
AcDbPoint
 10
-24.446
 20
8.7
 30
18.67
  0
POINT
  5
DE
330
1F
100
AcDbEntity
  8
1
  6
CONTINUOUS
 62
   163
100
AcDbPoint
 10
-24.446
 20
-8.7
 30
18.67
  0
POINT
  5
DF
330
1F
100
AcDbEntity
  8
1
  6
CONTINUOUS
 62
   163
100
AcDbPoint
 10
-24.446
 20
-8.7
 30
18.67
  0
POINT
  5
E0
330
1F
100
AcDbEntity
  8
1
  6
CONTINUOUS
 62
   163
100
AcDbPoint
 10
-24.446
 20
5.0
 30
16.67
  0
POINT
  5
E1
330
1F
100
AcDbEntity
  8
1
  6
CONTINUOUS
 62
   163
100
AcDbPoint
 10
-24.446
 20
-5.0
 30
16.67
  0
POINT
  5
E2
330
1F
100
AcDbEntity
  8
1
  6
CONTINUOUS
 62
   163
100
AcDbPoint
 10
-24.446
 20
-4.0
 30
16.67
  0
POINT
  5
E3
330
1F
100
AcDbEntity
  8
1
  6
CONTINUOUS
 62
   163
100
AcDbPoint
 10
-24.446
 20
4.0
 30
18.67
  0
POINT
  5
E4
330
1F
100
AcDbEntity
  8
1
  6
CONTINUOUS
 62
   163
100
AcDbPoint
 10
-24.446
 20
-4.0
 30
18.67
  0
POINT
  5
E5
330
1F
100
AcDbEntity
  8
1
  6
CONTINUOUS
 62
   163
100
AcDbPoint
 10
-24.446
 20
-5.0
 30
18.67
  0
POINT
  5
E6
330
1F
100
AcDbEntity
  8
1
  6
CONTINUOUS
 62
   163
100
AcDbPoint
 10
-24.446
 20
4.0
 30
16.67
  0
POINT
  5
E7
330
1F
100
AcDbEntity
  8
1
  6
CONTINUOUS
 62
   163
100
AcDbPoint
 10
-24.446
 20
-4.0
 30
16.67
  0
POINT
  5
E8
330
1F
100
AcDbEntity
  8
1
  6
CONTINUOUS
 62
   163
100
AcDbPoint
 10
-24.446
 20
-4.0
 30
16.67
  0
POINT
  5
E9
330
1F
100
AcDbEntity
  8
1
  6
CONTINUOUS
 62
   163
100
AcDbPoint
 10
-13.232451
 20
-4.531005
 30
8.579183
  0
POINT
  5
EA
330
1F
100
AcDbEntity
  8
1
  6
CONTINUOUS
 62
   163
100
AcDbPoint
 10
-5.0
 20
0.0
 30
10.0
  0
POINT
  5
EB
330
1F
100
AcDbEntity
  8
1
  6
CONTINUOUS
 62
    18
100
AcDbPoint
 10
7.0425
 20
-0.2602
 30
7.4
  0
POINT
  5
EC
330
1F
100
AcDbEntity
  8
1
  6
CONTINUOUS
 62
     6
100
AcDbPoint
 10
37.69
 20
-30.58
 30
0.46
  0
POINT
  5
ED
330
1F
100
AcDbEntity
  8
1
  6
CONTINUOUS
 62
     6
100
AcDbPoint
 10
37.69
 20
30.58
 30
0.46
  0
POINT
  5
EE
330
1F
100
AcDbEntity
  8
1
  6
CONTINUOUS
 62
   163
100
AcDbPoint
 10
48.711136
 20
-3.554054
 30
0.0
  0
POINT
  5
EF
330
1F
100
AcDbEntity
  8
1
  6
CONTINUOUS
 62
   163
100
AcDbPoint
 10
37.614438
 20
0.0
 30
-0.766975
  0
POINT
  5
F0
330
1F
100
AcDbEntity
  8
1
  6
CONTINUOUS
 62
   163
100
AcDbPoint
 10
1.5
 20
-25.0
 30
10.3
  0
POINT
  5
F1
330
1F
100
AcDbEntity
  8
1
  6
CONTINUOUS
 62
   163
100
AcDbPoint
 10
4.0
 20
-24.5
 30
1.0
  0
POINT
  5
F2
330
1F
100
AcDbEntity
  8
1
  6
CONTINUOUS
 62
   163
100
AcDbPoint
 10
17.0
 20
-23.0
 30
2.115
  0
POINT
  5
F3
330
1F
100
AcDbEntity
  8
1
  6
CONTINUOUS
 62
   163
100
AcDbPoint
 10
25.5
 20
-22.5
 30
9.25
  0
POINT
  5
F4
330
1F
100
AcDbEntity
  8
1
  6
CONTINUOUS
 62
   163
100
AcDbPoint
 10
25.5
 20
22.5
 30
9.25
  0
POINT
  5
F5
330
1F
100
AcDbEntity
  8
1
  6
CONTINUOUS
 62
   163
100
AcDbPoint
 10
17.0
 20
23.0
 30
2.115
  0
POINT
  5
F6
330
1F
100
AcDbEntity
  8
1
  6
CONTINUOUS
 62
   163
100
AcDbPoint
 10
1.5
 20
25.0
 30
10.3
  0
POINT
  5
F7
330
1F
100
AcDbEntity
  8
1
  6
CONTINUOUS
 62
   163
100
AcDbPoint
 10
4.0
 20
24.5
 30
1.0
  0
LINE
  5
F8
330
1F
100
AcDbEntity
  8
1
  6
CONTINUOUS
 62
   163
100
AcDbLine
 10
0.0
 20
13.5
 30
0.5
 11
0.0
 21
-13.5
 31
0.5
  0
LINE
  5
F9
330
1F
100
AcDbEntity
  8
1
  6
CONTINUOUS
 62
   163
100
AcDbLine
 10
0.0
 20
-13.5
 30
10.3
 11
0.0
 21
13.5
 31
10.3
  0
LINE
  5
FA
330
1F
100
AcDbEntity
  8
1
  6
CONTINUOUS
 62
   163
100
AcDbLine
 10
28.423
 20
6.067
 30
2.789
 11
28.423
 21
-6.067
 31
2.789
  0
LINE
  5
FB
330
1F
100
AcDbEntity
  8
1
  6
CONTINUOUS
 62
   163
100
AcDbLine
 10
42.66
 20
5.934
 30
2.781
 11
42.66
 21
-5.934
 31
2.781
  0
LINE
  5
FC
330
1F
100
AcDbEntity
  8
1
  6
CONTINUOUS
 62
   163
100
AcDbLine
 10
-17.253
 20
-6.825
 30
3.066
 11
-17.253
 21
6.825
 31
3.066
  0
LINE
  5
FD
330
1F
100
AcDbEntity
  8
1
  6
CONTINUOUS
 62
   163
100
AcDbLine
 10
-30.421
 20
6.688
 30
2.7523
 11
-30.421
 21
-6.688
 31
2.7523
  0
LINE
  5
FE
330
1F
100
AcDbEntity
  8
1
  6
CONTINUOUS
 62
   163
100
AcDbLine
 10
-30.421
 20
-6.688
 30
2.7523
 11
-17.253
 21
-6.825
 31
3.066
  0
LINE
  5
FF
330
1F
100
AcDbEntity
  8
1
  6
CONTINUOUS
 62
   163
100
AcDbLine
 10
-17.253
 20
6.825
 30
3.066
 11
-30.421
 21
6.688
 31
2.7523
  0
LINE
  5
100
330
1F
100
AcDbEntity
  8
1
  6
CONTINUOUS
 62
   163
100
AcDbLine
 10
-30.421
 20
6.688
 30
2.7523
 11
-30.799
 21
9.251
 31
9.178
  0
LINE
  5
101
330
1F
100
AcDbEntity
  8
1
  6
CONTINUOUS
 62
   163
100
AcDbLine
 10
-30.799
 20
9.251
 30
9.178
 11
-17.396
 21
9.156
 31
8.957
  0
LINE
  5
102
330
1F
100
AcDbEntity
  8
1
  6
CONTINUOUS
 62
   163
100
AcDbLine
 10
-17.396
 20
9.156
 30
8.957
 11
-17.396
 21
-9.156
 31
8.957
  0
LINE
  5
103
330
1F
100
AcDbEntity
  8
1
  6
CONTINUOUS
 62
   163
100
AcDbLine
 10
-30.799
 20
9.251
 30
9.178
 11
-30.799
 21
-9.251
 31
9.178
  0
LINE
  5
104
330
1F
100
AcDbEntity
  8
1
  6
CONTINUOUS
 62
   163
100
AcDbLine
 10
-30.799
 20
-9.251
 30
9.178
 11
-30.421
 21
-6.688
 31
2.7523
  0
LINE
  5
105
330
1F
100
AcDbEntity
  8
1
  6
CONTINUOUS
 62
   163
100
AcDbLine
 10
-30.799
 20
-9.251
 30
9.178
 11
-17.396
 21
-9.156
 31
8.957
  0
LINE
  5
106
330
1F
100
AcDbEntity
  8
1
  6
CONTINUOUS
 62
   163
100
AcDbLine
 10
-17.253
 20
-6.825
 30
3.066
 11
-17.396
 21
-9.156
 31
8.957
  0
LINE
  5
107
330
1F
100
AcDbEntity
  8
1
  6
CONTINUOUS
 62
   163
100
AcDbLine
 10
-17.253
 20
6.825
 30
3.066
 11
-17.396
 21
9.156
 31
8.957
  0
LINE
  5
108
330
1F
100
AcDbEntity
  8
1
  6
CONTINUOUS
 62
   163
100
AcDbLine
 10
-17.396
 20
-9.156
 30
8.957
 11
0.0
 21
-13.5
 31
10.3
  0
LINE
  5
109
330
1F
100
AcDbEntity
  8
1
  6
CONTINUOUS
 62
   163
100
AcDbLine
 10
-17.396
 20
-9.156
 30
8.957
 11
0.0
 21
-13.5
 31
0.5
  0
LINE
  5
10A
330
1F
100
AcDbEntity
  8
1
  6
CONTINUOUS
 62
   163
100
AcDbLine
 10
-17.253
 20
-6.825
 30
3.066
 11
0.0
 21
-13.5
 31
0.5
  0
LINE
  5
10B
330
1F
100
AcDbEntity
  8
1
  6
CONTINUOUS
 62
   163
100
AcDbLine
 10
-17.396
 20
9.156
 30
8.957
 11
0.0
 21
13.5
 31
0.5
  0
LINE
  5
10C
330
1F
100
AcDbEntity
  8
1
  6
CONTINUOUS
 62
   163
100
AcDbLine
 10
0.0
 20
13.5
 30
10.3
 11
-17.396
 21
9.156
 31
8.957
  0
LINE
  5
10D
330
1F
100
AcDbEntity
  8
1
  6
CONTINUOUS
 62
   163
100
AcDbLine
 10
-17.253
 20
6.825
 30
3.066
 11
0.0
 21
13.5
 31
0.5
  0
LINE
  5
10E
330
1F
100
AcDbEntity
  8
1
  6
CONTINUOUS
 62
   163
100
AcDbLine
 10
28.423
 20
6.067
 30
2.789
 11
42.66
 21
5.934
 31
2.781
  0
LINE
  5
10F
330
1F
100
AcDbEntity
  8
1
  6
CONTINUOUS
 62
   163
100
AcDbLine
 10
28.423
 20
-6.067
 30
2.789
 11
42.66
 21
-5.934
 31
2.781
  0
LINE
  5
110
330
1F
100
AcDbEntity
  8
1
  6
CONTINUOUS
 62
   163
100
AcDbLine
 10
42.308
 20
-8.119
 30
8.666
 11
42.66
 21
-5.934
 31
2.781
  0
LINE
  5
111
330
1F
100
AcDbEntity
  8
1
  6
CONTINUOUS
 62
   163
100
AcDbLine
 10
42.308
 20
8.119
 30
8.666
 11
42.66
 21
5.934
 31
2.781
  0
LINE
  5
112
330
1F
100
AcDbEntity
  8
1
  6
CONTINUOUS
 62
   163
100
AcDbLine
 10
42.308
 20
8.119
 30
8.666
 11
29.853
 21
8.227
 31
8.698
  0
LINE
  5
113
330
1F
100
AcDbEntity
  8
1
  6
CONTINUOUS
 62
   163
100
AcDbLine
 10
29.853
 20
-8.227
 30
8.698
 11
42.308
 21
-8.119
 31
8.666
  0
LINE
  5
114
330
1F
100
AcDbEntity
  8
1
  6
CONTINUOUS
 62
   163
100
AcDbLine
 10
0.0
 20
13.5
 30
19.0
 11
32.381
 21
9.017
 31
19.152
  0
LINE
  5
115
330
1F
100
AcDbEntity
  8
1
  6
CONTINUOUS
 62
   163
100
AcDbLine
 10
0.0
 20
-13.5
 30
19.0
 11
32.381
 21
-9.017
 31
19.152
  0
LINE
  5
116
330
1F
100
AcDbEntity
  8
1
  6
CONTINUOUS
 62
   163
100
AcDbLine
 10
32.381
 20
9.017
 30
19.152
 11
0.0
 21
13.5
 31
10.3
  0
LINE
  5
117
330
1F
100
AcDbEntity
  8
1
  6
CONTINUOUS
 62
   163
100
AcDbLine
 10
29.853
 20
8.227
 30
8.698
 11
0.0
 21
13.5
 31
10.3
  0
LINE
  5
118
330
1F
100
AcDbEntity
  8
1
  6
CONTINUOUS
 62
   163
100
AcDbLine
 10
28.423
 20
6.067
 30
2.789
 11
0.0
 21
13.5
 31
0.5
  0
LINE
  5
119
330
1F
100
AcDbEntity
  8
1
  6
CONTINUOUS
 62
   163
100
AcDbLine
 10
0.0
 20
-13.5
 30
0.5
 11
28.423
 21
-6.067
 31
2.789
  0
LINE
  5
11A
330
1F
100
AcDbEntity
  8
1
  6
CONTINUOUS
 62
   163
100
AcDbLine
 10
0.0
 20
-13.5
 30
0.5
 11
29.853
 21
-8.227
 31
8.698
  0
LINE
  5
11B
330
1F
100
AcDbEntity
  8
1
  6
CONTINUOUS
 62
   163
100
AcDbLine
 10
0.0
 20
13.5
 30
0.5
 11
29.853
 21
8.227
 31
8.698
  0
LINE
  5
11C
330
1F
100
AcDbEntity
  8
1
  6
CONTINUOUS
 62
   163
100
AcDbLine
 10
0.0
 20
-13.5
 30
10.3
 11
29.853
 21
-8.227
 31
8.698
  0
LINE
  5
11D
330
1F
100
AcDbEntity
  8
1
  6
CONTINUOUS
 62
   163
100
AcDbLine
 10
0.0
 20
-13.5
 30
10.3
 11
32.381
 21
-9.017
 31
19.152
  0
LINE
  5
11E
330
1F
100
AcDbEntity
  8
1
  6
CONTINUOUS
 62
   163
100
AcDbLine
 10
42.308
 20
-8.119
 30
8.666
 11
55.5
 21
-6.6875
 31
5.594
  0
LINE
  5
11F
330
1F
100
AcDbEntity
  8
1
  6
CONTINUOUS
 62
   163
100
AcDbLine
 10
42.66
 20
-5.934
 30
2.781
 11
55.5
 21
-6.6875
 31
5.594
  0
LINE
  5
120
330
1F
100
AcDbEntity
  8
1
  6
CONTINUOUS
 62
   163
100
AcDbLine
 10
42.308
 20
8.119
 30
8.666
 11
55.5
 21
6.6875
 31
5.594
  0
LINE
  5
121
330
1F
100
AcDbEntity
  8
1
  6
CONTINUOUS
 62
   163
100
AcDbLine
 10
42.66
 20
5.934
 30
2.781
 11
55.5
 21
6.6875
 31
5.594
  0
LINE
  5
122
330
1F
100
AcDbEntity
  8
1
  6
CONTINUOUS
 62
   163
 60
     1
100
AcDbLine
 10
0.0
 20
2.5
 30
42.0
 11
0.0
 21
-2.5
 31
42.0
  0
LINE
  5
123
330
1F
100
AcDbEntity
  8
1
  6
CONTINUOUS
 62
   163
 60
     1
100
AcDbLine
 10
0.0
 20
-13.5
 30
0.0
 11
0.0
 21
-13.5
 31
19.0
  0
LINE
  5
124
330
1F
100
AcDbEntity
  8
1
  6
CONTINUOUS
 62
   163
 60
     1
100
AcDbLine
 10
0.0
 20
13.5
 30
19.0
 11
0.0
 21
13.5
 31
0.0
  0
LINE
  5
125
330
1F
100
AcDbEntity
  8
1
  6
CONTINUOUS
 62
   163
 60
     1
100
AcDbLine
 10
0.0
 20
-13.073064
 30
21.198688
 11
0.0
 21
-5.493421
 31
39.980062
  0
LINE
  5
126
330
1F
100
AcDbEntity
  8
1
  6
CONTINUOUS
 62
   163
 60
     1
100
AcDbLine
 10
0.0
 20
5.493421
 30
39.980062
 11
0.0
 21
13.073064
 31
21.198688
  0
LINE
  5
127
330
1F
100
AcDbEntity
  8
1
  6
CONTINUOUS
 62
   163
 60
     1
100
AcDbLine
 10
55.5
 20
-6.6875
 30
4.875
 11
55.5
 21
-6.6875
 31
15.439
  0
LINE
  5
128
330
1F
100
AcDbEntity
  8
1
  6
CONTINUOUS
 62
   163
 60
     1
100
AcDbLine
 10
55.5
 20
6.6875
 30
15.439
 11
55.5
 21
6.6875
 31
4.875
  0
LINE
  5
129
330
1F
100
AcDbEntity
  8
1
  6
CONTINUOUS
 62
   163
 60
     1
100
AcDbLine
 10
28.423
 20
6.067
 30
2.789
 11
30.511562
 21
9.221751
 31
11.41929
  0
LINE
  5
12A
330
1F
100
AcDbEntity
  8
1
  6
CONTINUOUS
 62
   163
 60
     1
100
AcDbLine
 10
28.423
 20
-6.067
 30
2.789
 11
30.511562
 21
-9.221751
 31
11.41929
  0
LINE
  5
12B
330
1F
100
AcDbEntity
  8
1
  6
CONTINUOUS
 62
   163
 60
     1
100
AcDbLine
 10
32.382801
 20
9.017
 30
19.151564
 11
31.105216
 21
9.534308
 31
13.872365
  0
LINE
  5
12C
330
1F
100
AcDbEntity
  8
1
  6
CONTINUOUS
 62
   163
 60
     1
100
AcDbLine
 10
32.382801
 20
-9.017
 30
19.151564
 11
31.105216
 21
-9.534308
 31
13.872365
  0
LINE
  5
12D
330
1F
100
AcDbEntity
  8
1
  6
CONTINUOUS
 62
   163
 60
     1
100
AcDbLine
 10
33.048908
 20
6.560594
 30
21.904029
 11
33.343012
 21
1.377845
 31
23.119315
  0
LINE
  5
12E
330
1F
100
AcDbEntity
  8
1
  6
CONTINUOUS
 62
   163
 60
     1
100
AcDbLine
 10
33.048908
 20
-6.560594
 30
21.904029
 11
33.343012
 21
-1.377845
 31
23.119315
  0
LINE
  5
12F
330
1F
100
AcDbEntity
  8
1
  6
CONTINUOUS
 62
   163
100
AcDbLine
 10
42.308
 20
-8.119
 30
8.666
 11
55.5
 21
-6.312168
 31
16.949227
  0
LINE
  5
130
330
1F
100
AcDbEntity
  8
1
  6
CONTINUOUS
 62
   163
100
AcDbLine
 10
32.934647
 20
-7.643612
 30
21.431881
 11
42.308
 21
-8.119
 31
8.666
  0
LINE
  5
131
330
1F
100
AcDbEntity
  8
1
  6
CONTINUOUS
 62
   163
100
AcDbLine
 10
32.934647
 20
-7.643612
 30
21.431881
 11
55.5
 21
-6.312168
 31
16.949227
  0
LINE
  5
132
330
1F
100
AcDbEntity
  8
1
  6
CONTINUOUS
 62
   163
100
AcDbLine
 10
32.934647
 20
7.643612
 30
21.431881
 11
55.5
 21
6.312168
 31
16.949227
  0
LINE
  5
133
330
1F
100
AcDbEntity
  8
1
  6
CONTINUOUS
 62
   163
100
AcDbLine
 10
32.934647
 20
7.643612
 30
21.431881
 11
42.308
 21
8.119
 31
8.666
  0
LINE
  5
134
330
1F
100
AcDbEntity
  8
1
  6
CONTINUOUS
 62
   163
100
AcDbLine
 10
55.5
 20
6.312168
 30
16.949227
 11
42.308
 21
8.119
 31
8.666
  0
LINE
  5
135
330
1F
100
AcDbEntity
  8
1
  6
CONTINUOUS
 62
   163
100
AcDbLine
 10
55.5
 20
6.6875
 30
5.594
 11
55.5
 21
-6.6875
 31
5.594
  0
LINE
  5
136
330
1F
100
AcDbEntity
  8
1
  6
CONTINUOUS
 62
   163
100
AcDbLine
 10
-5.067
 20
-7.25
 30
21.0
 11
-5.067
 21
7.25
 31
21.0
  0
LINE
  5
137
330
1F
100
AcDbEntity
  8
1
  6
CONTINUOUS
 62
   163
100
AcDbLine
 10
-5.067
 20
-7.25
 30
21.0
 11
0.0
 21
-13.5
 31
19.0
  0
LINE
  5
138
330
1F
100
AcDbEntity
  8
1
  6
CONTINUOUS
 62
   163
100
AcDbLine
 10
-5.067
 20
7.25
 30
21.0
 11
0.0
 21
13.5
 31
19.0
  0
LINE
  5
139
330
1F
100
AcDbEntity
  8
1
  6
CONTINUOUS
 62
   163
100
AcDbLine
 10
-5.067
 20
7.25
 30
21.0
 11
0.0
 21
13.5
 31
10.3
  0
LINE
  5
13A
330
1F
100
AcDbEntity
  8
1
  6
CONTINUOUS
 62
   163
100
AcDbLine
 10
-5.067
 20
-7.25
 30
21.0
 11
0.0
 21
-13.5
 31
10.3
  0
LINE
  5
13B
330
1F
100
AcDbEntity
  8
1
  6
CONTINUOUS
 62
   163
100
AcDbLine
 10
28.423
 20
-6.067
 30
2.789
 11
42.66
 21
5.934
 31
2.781
  0
LINE
  5
13C
330
1F
100
AcDbEntity
  8
1
  6
CONTINUOUS
 62
   163
100
AcDbLine
 10
42.66
 20
-5.934
 30
2.781
 11
35.5415
 21
-0.0665
 31
2.785
  0
LINE
  5
13D
330
1F
100
AcDbEntity
  8
1
  6
CONTINUOUS
 62
   163
100
AcDbLine
 10
35.5465
 20
-0.0665
 30
2.785
 11
28.423
 21
6.067
 31
2.789
  0
LINE
  5
13E
330
1F
100
AcDbEntity
  8
1
  6
CONTINUOUS
 62
   163
 60
     1
100
AcDbLine
 10
28.423
 20
6.067
 30
2.789
 11
28.256769
 21
5.81591
 31
2.102107
  0
LINE
  5
13F
330
1F
100
AcDbEntity
  8
1
  6
CONTINUOUS
 62
   163
 60
     1
100
AcDbLine
 10
28.423
 20
-6.067
 30
2.789
 11
28.256769
 21
-5.81591
 31
2.102107
  0
LINE
  5
140
330
1F
100
AcDbEntity
  8
1
  6
CONTINUOUS
 62
   163
100
AcDbLine
 10
20.057
 20
-8.255
 30
2.115
 11
20.057
 21
8.255
 31
2.115
  0
LINE
  5
141
330
1F
100
AcDbEntity
  8
1
  6
CONTINUOUS
 62
   163
100
AcDbLine
 10
8.0957
 20
-11.383
 30
1.152
 11
8.0957
 21
11.383
 31
1.152
  0
LINE
  5
142
330
1F
100
AcDbEntity
  8
1
  6
CONTINUOUS
 62
   163
100
AcDbLine
 10
0.0
 20
-7.099664
 30
36.0
 11
-17.396
 21
-9.156
 31
8.957
  0
LINE
  5
143
330
1F
100
AcDbEntity
  8
1
  6
CONTINUOUS
 62
   163
100
AcDbLine
 10
0.0
 20
7.099664
 30
36.0
 11
-17.396
 21
9.156
 31
8.957
  0
LINE
  5
144
330
1F
100
AcDbEntity
  8
1
  6
CONTINUOUS
 62
   163
 60
     1
100
AcDbLine
 10
-5.938916
 20
7.801688
 30
26.767642
 11
-5.938916
 21
-7.801688
 31
26.767642
  0
LINE
  5
145
330
1F
100
AcDbEntity
  8
1
  6
CONTINUOUS
 62
   163
100
AcDbLine
 10
37.863182
 20
-8.157542
 30
8.67742
 11
28.423
 21
-6.067
 31
2.789
  0
LINE
  5
146
330
1F
100
AcDbEntity
  8
1
  6
CONTINUOUS
 62
   163
100
AcDbLine
 10
37.863182
 20
8.157542
 30
8.67742
 11
28.423
 21
6.067
 31
2.789
  0
LINE
  5
147
330
1F
100
AcDbEntity
  8
1
  6
CONTINUOUS
 62
   163
100
AcDbLine
 10
37.861959
 20
7.352881
 30
20.45306
 11
37.861959
 21
-7.352881
 31
20.45306
  0
LINE
  5
148
330
1F
100
AcDbEntity
  8
1
  6
CONTINUOUS
 62
     1
 60
     1
100
AcDbLine
 10
0.0
 20
0.0
 30
42.5
 11
-17.396
 21
0.0
 31
9.457
  0
LINE
  5
149
330
1F
100
AcDbEntity
  8
1
  6
CONTINUOUS
 62
     1
 60
     1
100
AcDbLine
 10
0.0
 20
0.0
 30
42.5
 11
33.381553
 21
0.0
 31
23.778574
  0
LINE
  5
14A
330
1F
100
AcDbEntity
  8
1
  6
CONTINUOUS
 62
   163
100
AcDbLine
 10
-5.938916
 20
7.801688
 30
26.767642
 11
-7.438916
 21
2.0
 31
26.767642
  0
LINE
  5
14B
330
1F
100
AcDbEntity
  8
1
  6
CONTINUOUS
 62
   163
100
AcDbLine
 10
-7.438916
 20
2.0
 30
26.767642
 11
-7.438916
 21
-2.0
 31
26.767642
  0
LINE
  5
14C
330
1F
100
AcDbEntity
  8
1
  6
CONTINUOUS
 62
   163
100
AcDbLine
 10
-7.438916
 20
-2.0
 30
26.767642
 11
-5.938916
 21
-7.801688
 31
26.767642
  0
LINE
  5
14D
330
1F
100
AcDbEntity
  8
1
  6
CONTINUOUS
 62
   163
100
AcDbLine
 10
50.014323
 20
-1.59072
 30
4.392192
 11
55.5
 21
-1.59072
 31
5.594
  0
LINE
  5
14E
330
1F
100
AcDbEntity
  8
1
  6
CONTINUOUS
 62
   163
 60
     1
100
AcDbLine
 10
55.5
 20
-3.4595
 30
18.666509
 11
55.5
 21
3.4595
 31
18.666509
  0
LINE
  5
14F
330
1F
100
AcDbEntity
  8
1
  6
CONTINUOUS
 62
   163
100
AcDbLine
 10
-24.446
 20
9.0
 30
16.5
 11
-30.799
 21
9.251
 31
9.178
  0
LINE
  5
150
330
1F
100
AcDbEntity
  8
1
  6
CONTINUOUS
 62
   163
100
AcDbLine
 10
-24.446
 20
9.0
 30
16.5
 11
-17.396
 21
9.156
 31
8.957
  0
LINE
  5
151
330
1F
100
AcDbEntity
  8
1
  6
CONTINUOUS
 62
   163
100
AcDbLine
 10
-24.446
 20
-9.0
 30
16.5
 11
-30.799
 21
-9.251
 31
9.178
  0
LINE
  5
152
330
1F
100
AcDbEntity
  8
1
  6
CONTINUOUS
 62
   163
100
AcDbLine
 10
-24.446
 20
-9.0
 30
16.5
 11
-17.396
 21
-9.156
 31
8.957
  0
LINE
  5
153
330
1F
100
AcDbEntity
  8
1
  6
CONTINUOUS
 62
   163
100
AcDbLine
 10
-5.067
 20
7.25
 30
21.0
 11
-10.512256
 21
8.342291
 31
19.658143
  0
LINE
  5
154
330
1F
100
AcDbEntity
  8
1
  6
CONTINUOUS
 62
   163
100
AcDbLine
 10
-10.512256
 20
8.342291
 30
19.658143
 11
-22.516632
 21
9.042692
 31
14.435713
  0
LINE
  5
155
330
1F
100
AcDbEntity
  8
1
  6
CONTINUOUS
 62
   163
100
AcDbLine
 10
-22.516632
 20
-9.042692
 30
14.435713
 11
-10.512256
 21
-8.342291
 31
19.658143
  0
LINE
  5
156
330
1F
100
AcDbEntity
  8
1
  6
CONTINUOUS
 62
   163
100
AcDbLine
 10
-10.512256
 20
-8.342291
 30
19.658143
 11
-5.067
 21
-7.25
 31
21.0
  0
LINE
  5
157
330
1F
100
AcDbEntity
  8
1
  6
CONTINUOUS
 62
   163
100
AcDbLine
 10
-22.516632
 20
-9.042692
 30
14.435713
 11
-22.516632
 21
9.042692
 31
14.435713
  0
LINE
  5
158
330
1F
100
AcDbEntity
  8
1
  6
CONTINUOUS
 62
   163
100
AcDbLine
 10
-23.550167
 20
-9.199621
 30
9.058475
 11
-17.253
 21
-6.825
 31
3.066
  0
LINE
  5
159
330
1F
100
AcDbEntity
  8
1
  6
CONTINUOUS
 62
   163
100
AcDbLine
 10
-24.924946
 20
-9.209365
 30
9.081144
 11
-30.421
 21
-6.688
 31
2.7523
  0
LINE
  5
15A
330
1F
100
AcDbEntity
  8
1
  6
CONTINUOUS
 62
   163
100
AcDbLine
 10
-23.550167
 20
9.199621
 30
9.058475
 11
-17.253
 21
6.825
 31
3.066
  0
LINE
  5
15B
330
1F
100
AcDbEntity
  8
1
  6
CONTINUOUS
 62
   163
100
AcDbLine
 10
-24.924946
 20
9.209365
 30
9.081144
 11
-30.421
 21
6.688
 31
2.7523
  0
LINE
  5
15C
330
1F
100
AcDbEntity
  8
1
  6
CONTINUOUS
 62
   163
100
AcDbLine
 10
-30.799
 20
9.251
 30
9.178
 11
-30.421
 21
-6.688
 31
2.7523
  0
LINE
  5
15D
330
1F
100
AcDbEntity
  8
1
  6
CONTINUOUS
 62
    35
 60
     1
100
AcDbLine
 10
-23.8318
 20
6.5569
 30
7.9106
 11
-24.446
 21
23.5
 31
8.5
  0
LINE
  5
15E
330
1F
100
AcDbEntity
  8
1
  6
CONTINUOUS
 62
    35
 60
     1
100
AcDbLine
 10
-23.8318
 20
-6.5569
 30
7.9106
 11
-24.446
 21
-23.5
 31
8.5
  0
LINE
  5
15F
330
1F
100
AcDbEntity
  8
1
  6
CONTINUOUS
 62
   163
100
AcDbLine
 10
-17.396
 20
-2.1122
 30
8.957
 11
-17.253
 21
-0.4012
 31
3.066
  0
LINE
  5
160
330
1F
100
AcDbEntity
  8
1
  6
CONTINUOUS
 62
   163
100
AcDbLine
 10
-17.253
 20
-0.4012
 30
3.066
 11
-17.396
 21
2.5648
 31
8.957
  0
LINE
  5
161
330
1F
100
AcDbEntity
  8
1
  6
CONTINUOUS
 62
   163
 60
     1
100
AcDbLine
 10
-14.566
 20
-3.080218
 30
12.307
 11
-14.509197
 21
-3.080218
 31
11.810237
  0
LINE
  5
162
330
1F
100
AcDbEntity
  8
1
  6
CONTINUOUS
 62
   163
 60
     1
100
AcDbLine
 10
-14.509197
 20
-3.080218
 30
11.810237
 11
-15.502723
 21
-3.080218
 31
11.696632
  0
LINE
  5
163
330
1F
100
AcDbEntity
  8
1
  6
CONTINUOUS
 62
   163
 60
     1
100
AcDbLine
 10
-15.502723
 20
-3.080218
 30
11.696632
 11
-15.616329
 21
-3.080218
 31
12.690157
  0
LINE
  5
164
330
1F
100
AcDbEntity
  8
1
  6
CONTINUOUS
 62
   163
 60
     1
100
AcDbLine
 10
-15.616329
 20
-3.080218
 30
12.690157
 11
-14.622803
 21
-3.080218
 31
12.803763
  0
LINE
  5
165
330
1F
100
AcDbEntity
  8
1
  6
CONTINUOUS
 62
   163
 60
     1
100
AcDbLine
 10
-14.622803
 20
-3.080218
 30
12.803763
 11
-14.566
 21
-3.080218
 31
12.307
  0
LINE
  5
166
330
1F
100
AcDbEntity
  8
1
  6
CONTINUOUS
 62
   163
100
AcDbLine
 10
33.381553
 20
0.0
 30
23.278574
 11
37.861959
 21
7.352881
 31
20.45306
  0
LINE
  5
167
330
1F
100
AcDbEntity
  8
1
  6
CONTINUOUS
 62
   163
100
AcDbLine
 10
33.381553
 20
0.0
 30
23.278574
 11
37.861959
 21
-7.352881
 31
20.45306
  0
LINE
  5
168
330
1F
100
AcDbEntity
  8
1
  6
CONTINUOUS
 62
   163
100
AcDbLine
 10
39.42591
 20
0.0
 30
3.7645
 11
35.39409
 21
0.0
 31
11.94947
  0
LINE
  5
169
330
1F
100
AcDbEntity
  8
1
  6
CONTINUOUS
 62
   163
100
AcDbLine
 10
35.39409
 20
0.0
 30
11.94947
 11
29.53303
 21
0.0
 31
16.29
  0
LINE
  5
16A
330
1F
100
AcDbEntity
  8
1
  6
CONTINUOUS
 62
   163
100
AcDbLine
 10
29.53303
 20
0.0
 30
16.29
 11
22.91167
 21
0.0
 31
18.2314
  0
LINE
  5
16B
330
1F
100
AcDbEntity
  8
1
  6
CONTINUOUS
 62
   163
100
AcDbLine
 10
26.22235
 20
0.0
 30
17.2607
 11
33.19596
 21
-3.969219
 31
22.511672
  0
LINE
  5
16C
330
1F
100
AcDbEntity
  8
1
  6
CONTINUOUS
 62
   163
100
AcDbLine
 10
26.22235
 20
0.0
 30
17.2607
 11
33.19596
 21
3.969219
 31
22.511672
  0
LINE
  5
16D
330
1F
100
AcDbEntity
  8
1
  6
CONTINUOUS
 62
   163
100
AcDbLine
 10
32.46356
 20
0.0
 30
14.119735
 11
33.381553
 21
0.0
 31
23.278574
  0
LINE
  5
16E
330
1F
100
AcDbEntity
  8
1
  6
CONTINUOUS
 62
     1
 60
     1
100
AcDbLine
 10
41.660044
 20
5.943341
 30
5.160062
 11
41.660044
 21
-5.943341
 31
5.160062
  0
LINE
  5
16F
330
1F
100
AcDbEntity
  8
1
  6
CONTINUOUS
 62
   163
100
AcDbLine
 10
-17.396
 20
2.5648
 30
8.957
 11
-22.516632
 21
2.5648
 31
14.435713
  0
LINE
  5
170
330
1F
100
AcDbEntity
  8
1
  6
CONTINUOUS
 62
   163
100
AcDbLine
 10
-17.396
 20
-2.1122
 30
8.957
 11
-15.5595
 21
-2.1122
 31
12.1934
  0
LINE
  5
171
330
1F
100
AcDbEntity
  8
1
  6
CONTINUOUS
 62
   163
100
AcDbLine
 10
-22.516632
 20
-2.1122
 30
14.435713
 11
-15.5595
 21
-2.1122
 31
12.1934
  0
LINE
  5
172
330
1F
100
AcDbEntity
  8
1
  6
CONTINUOUS
 62
   163
100
AcDbLine
 10
-17.396
 20
-2.1122
 30
8.957
 11
-22.516632
 21
-2.1122
 31
14.435713
  0
LINE
  5
173
330
1F
100
AcDbEntity
  8
1
  6
CONTINUOUS
 62
   163
100
AcDbLine
 10
-15.5595
 20
-2.1122
 30
12.1934
 11
-22.516632
 21
2.5648
 31
14.435713
  0
LINE
  5
174
330
1F
100
AcDbEntity
  8
1
  6
CONTINUOUS
 62
   163
100
AcDbLine
 10
-17.396
 20
2.5648
 30
8.957
 11
-22.516632
 21
-2.1122
 31
14.435713
  0
LINE
  5
175
330
1F
100
AcDbEntity
  8
1
  6
CONTINUOUS
 62
   163
100
AcDbLine
 10
37.863182
 20
-8.157542
 30
8.67742
 11
38.660175
 21
-5.971366
 31
2.783248
  0
LINE
  5
176
330
1F
100
AcDbEntity
  8
1
  6
CONTINUOUS
 62
   163
100
AcDbLine
 10
38.660175
 20
5.971366
 30
2.783248
 11
37.863182
 21
8.157542
 31
8.67742
  0
LINE
  5
177
330
1F
100
AcDbEntity
  8
1
  6
CONTINUOUS
 62
     7
 60
     1
100
AcDbLine
 10
37.69
 20
30.58
 30
0.46
 11
37.5539
 21
-24.5
 31
-1.75
  0
LINE
  5
178
330
1F
100
AcDbEntity
  8
1
  6
CONTINUOUS
 62
     7
 60
     1
100
AcDbLine
 10
37.69
 20
-30.58
 30
0.46
 11
37.5539
 21
24.5
 31
-1.75
  0
LINE
  5
179
330
1F
100
AcDbEntity
  8
1
  6
CONTINUOUS
 62
   163
100
AcDbLine
 10
0.0
 20
-13.5
 30
10.3
 11
1.5
 21
-25.0
 31
10.3
  0
LINE
  5
17A
330
1F
100
AcDbEntity
  8
1
  6
CONTINUOUS
 62
   163
100
AcDbLine
 10
1.5
 20
-25.0
 30
10.3
 11
4.0
 21
-24.5
 31
1.0
  0
LINE
  5
17B
330
1F
100
AcDbEntity
  8
1
  6
CONTINUOUS
 62
   163
100
AcDbLine
 10
4.0
 20
-24.5
 30
1.0
 11
17.0
 21
-23.0
 31
2.115
  0
LINE
  5
17C
330
1F
100
AcDbEntity
  8
1
  6
CONTINUOUS
 62
   163
100
AcDbLine
 10
25.5
 20
-22.5
 30
9.25
 11
1.5
 21
-25.0
 31
10.3
  0
LINE
  5
17D
330
1F
100
AcDbEntity
  8
1
  6
CONTINUOUS
 62
   163
100
AcDbLine
 10
17.0
 20
-23.0
 30
2.115
 11
1.5
 21
-25.0
 31
10.3
  0
LINE
  5
17E
330
1F
100
AcDbEntity
  8
1
  6
CONTINUOUS
 62
   163
100
AcDbLine
 10
8.0957
 20
-11.383
 30
1.152
 11
4.0
 21
-24.5
 31
1.0
  0
LINE
  5
17F
330
1F
100
AcDbEntity
  8
1
  6
CONTINUOUS
 62
   163
100
AcDbLine
 10
25.5
 20
-22.5
 30
9.25
 11
17.0
 21
-23.0
 31
2.115
  0
LINE
  5
180
330
1F
100
AcDbEntity
  8
1
  6
CONTINUOUS
 62
   163
100
AcDbLine
 10
17.0
 20
-23.0
 30
2.115
 11
20.057
 21
-8.255
 31
2.115
  0
LINE
  5
181
330
1F
100
AcDbEntity
  8
1
  6
CONTINUOUS
 62
   163
100
AcDbLine
 10
1.5
 20
-25.0
 30
10.3
 11
0.0
 21
-13.5
 31
19.0
  0
LINE
  5
182
330
1F
100
AcDbEntity
  8
1
  6
CONTINUOUS
 62
   163
100
AcDbLine
 10
0.0
 20
13.5
 30
19.0
 11
1.5
 21
25.0
 31
10.3
  0
LINE
  5
183
330
1F
100
AcDbEntity
  8
1
  6
CONTINUOUS
 62
   163
100
AcDbLine
 10
1.5
 20
25.0
 30
10.3
 11
4.0
 21
24.5
 31
1.0
  0
LINE
  5
184
330
1F
100
AcDbEntity
  8
1
  6
CONTINUOUS
 62
   163
100
AcDbLine
 10
4.0
 20
24.5
 30
1.0
 11
17.0
 21
23.0
 31
2.115
  0
LINE
  5
185
330
1F
100
AcDbEntity
  8
1
  6
CONTINUOUS
 62
   163
100
AcDbLine
 10
17.0
 20
23.0
 30
2.115
 11
25.5
 21
22.5
 31
9.25
  0
LINE
  5
186
330
1F
100
AcDbEntity
  8
1
  6
CONTINUOUS
 62
   163
100
AcDbLine
 10
25.5
 20
22.5
 30
9.25
 11
1.5
 21
25.0
 31
10.3
  0
LINE
  5
187
330
1F
100
AcDbEntity
  8
1
  6
CONTINUOUS
 62
   163
100
AcDbLine
 10
1.5
 20
25.0
 30
10.3
 11
17.0
 21
23.0
 31
2.115
  0
LINE
  5
188
330
1F
100
AcDbEntity
  8
1
  6
CONTINUOUS
 62
   163
100
AcDbLine
 10
1.5
 20
25.0
 30
10.3
 11
0.0
 21
13.5
 31
10.3
  0
LINE
  5
189
330
1F
100
AcDbEntity
  8
1
  6
CONTINUOUS
 62
   163
100
AcDbLine
 10
17.0
 20
23.0
 30
2.115
 11
20.057
 21
8.255
 31
2.115
  0
LINE
  5
18A
330
1F
100
AcDbEntity
  8
1
  6
CONTINUOUS
 62
   163
100
AcDbLine
 10
4.0
 20
24.5
 30
1.0
 11
8.0957
 21
11.383
 31
1.152
  0
LINE
  5
18B
330
1F
100
AcDbEntity
  8
1
  6
CONTINUOUS
 62
   163
100
AcDbLine
 10
25.5
 20
-22.5
 30
9.25
 11
29.853
 21
-8.227
 31
8.698
  0
LINE
  5
18C
330
1F
100
AcDbEntity
  8
1
  6
CONTINUOUS
 62
   163
100
AcDbLine
 10
25.5
 20
22.5
 30
9.25
 11
29.853
 21
8.227
 31
8.698
  0
ARC
  5
18D
330
1F
100
AcDbEntity
  8
1
  6
CONTINUOUS
 62
   163
 60
     1
100
AcDbCircle
 10
-7.625
 20
19.0
 30
0.0
 40
5.875000000000003
210
1.0
220
0.0
230
0.0
100
AcDbArc
 50
158.022362
 51
180.0
  0
ARC
  5
18E
330
1F
100
AcDbEntity
  8
1
  6
CONTINUOUS
 62
   163
 60
     1
100
AcDbCircle
 10
7.625
 20
19.0
 30
0.0
 40
5.875000000000003
210
1.0
220
0.0
230
0.0
100
AcDbArc
 50
0.0
 51
21.977638
  0
ARC
  5
18F
330
1F
100
AcDbEntity
  8
1
  6
CONTINUOUS
 62
   163
 60
     1
100
AcDbCircle
 10
2.5
 20
38.772
 30
0.0
 40
3.227999999999999
210
1.0
220
0.0
230
0.0
100
AcDbArc
 50
21.977638
 51
90.0
  0
ARC
  5
190
330
1F
100
AcDbEntity
  8
1
  6
CONTINUOUS
 62
   163
 60
     1
100
AcDbCircle
 10
-2.5
 20
38.772
 30
0.0
 40
3.228000000000002
210
1.0
220
0.0
230
0.0
100
AcDbArc
 50
90.0
 51
158.022362
  0
ARC
  5
191
330
1F
100
AcDbEntity
  8
1
  6
CONTINUOUS
 62
   163
 60
     1
100
AcDbCircle
 10
-3.4595
 20
15.438509
 30
55.5
 40
3.228
210
1.0
220
0.0
230
0.0
100
AcDbArc
 50
90.0
 51
179.99129
  0
ARC
  5
192
330
1F
100
AcDbEntity
  8
1
  6
CONTINUOUS
 62
   163
 60
     1
100
AcDbCircle
 10
3.4595
 20
15.438509
 30
55.5
 40
3.227999999999998
210
1.0
220
0.0
230
0.0
100
AcDbArc
 50
0.00871
 51
90.0
  0
ARC
  5
193
330
1F
100
AcDbEntity
  8
1
  6
CONTINUOUS
 62
   163
 60
     1
100
AcDbCircle
 10
-3.685773
 20
20.24252
 30
-26.969542
 40
5.875000000000003
210
-0.9719436130211265
220
0.0
230
0.2352139730276212
100
AcDbArc
 50
174.559528
 51
199.559528
  0
ARC
  5
194
330
1F
100
AcDbEntity
  8
1
  6
CONTINUOUS
 62
   163
 60
     1
100
AcDbCircle
 10
3.685773
 20
20.24252
 30
-26.969542
 40
5.875000000000004
210
-0.9719436130211265
220
0.0
230
0.2352139730276212
100
AcDbArc
 50
340.440472
 51
5.440472
  0
ARC
  5
195
330
1F
100
AcDbEntity
  8
1
  6
CONTINUOUS
 62
   163
 60
     1
100
AcDbCircle
 10
-5.803541
 20
25.925076
 30
-26.969542
 40
3.228000000000008
210
-0.9719436130211265
220
0.0
230
0.2352139730276212
100
AcDbArc
 50
103.563731
 51
174.559528
  0
ARC
  5
196
330
1F
100
AcDbEntity
  8
1
  6
CONTINUOUS
 62
   163
 60
     1
100
AcDbCircle
 10
5.803541
 20
25.925076
 30
-26.969542
 40
3.22800000000001
210
-0.9719436130211265
220
0.0
230
0.2352139730276212
100
AcDbArc
 50
5.440472
 51
76.436269
  0
ARC
  5
197
330
1F
100
AcDbEntity
  8
1
  6
CONTINUOUS
 62
   163
 60
     1
100
AcDbCircle
 10
0.0
 20
24.602269
 30
-26.969542
 40
5.874999999999999
210
-0.9719436130211265
220
0.0
230
0.2352139730276212
100
AcDbArc
 50
76.436269
 51
103.563731
  0
CIRCLE
  5
198
330
1F
100
AcDbEntity
  8
1
  6
CONTINUOUS
 62
   163
 60
     1
100
AcDbCircle
 10
-24.446
 20
8.5
 30
23.5
 40
10.25
210
0.0
220
-1.0
230
0.0
  0
CIRCLE
  5
199
330
1F
100
AcDbEntity
  8
1
  6
CONTINUOUS
 62
   163
 60
     1
100
AcDbCircle
 10
24.446
 20
8.5
 30
23.5
 40
10.25
210
0.0
220
1.0
230
0.0
  0
CIRCLE
  5
19A
330
1F
100
AcDbEntity
  8
1
  6
CONTINUOUS
 62
   163
 60
     1
100
AcDbCircle
 10
-37.5539
 20
8.5
 30
24.5
 40
10.25
210
0.0
220
1.0
230
0.0
  0
CIRCLE
  5
19B
330
1F
100
AcDbEntity
  8
1
  6
CONTINUOUS
 62
   163
 60
     1
100
AcDbCircle
 10
37.5539
 20
8.5
 30
24.5
 40
10.25
210
0.0
220
-1.0
230
0.0
  0
CIRCLE
  5
19C
330
1F
100
AcDbEntity
  8
1
  6
CONTINUOUS
 62
    35
 60
     1
100
AcDbCircle
 10
23.8318
 20
7.9106
 30
4.449
 40
5.0
210
0.0
220
1.0
230
0.0
  0
CIRCLE
  5
19D
330
1F
100
AcDbEntity
  8
1
  6
CONTINUOUS
 62
   252
370
     5
100
AcDbCircle
 10
0.0
 20
-13.5
 30
0.0
 40
0.5
210
0.0
220
0.0
230
-1.0
  0
CIRCLE
  5
19E
330
1F
100
AcDbEntity
  8
1
  6
CONTINUOUS
 62
   252
370
     5
100
AcDbCircle
 10
0.0
 20
-13.5
 30
-19.0
 40
0.5
210
0.0
220
0.0
230
-1.0
  0
CIRCLE
  5
19F
330
1F
100
AcDbEntity
  8
1
  6
CONTINUOUS
 62
   252
370
     5
100
AcDbCircle
 10
0.0
 20
20.05654
 30
-14.765654
 40
0.5
210
0.0
220
-0.3742446988168798
230
-0.9273299873332378
  0
CIRCLE
  5
1A0
330
1F
100
AcDbEntity
  8
1
  6
CONTINUOUS
 62
   252
370
     5
100
AcDbCircle
 10
0.0
 20
20.05654
 30
-35.018827
 40
0.5
210
0.0
220
-0.3742446988168798
230
-0.9273299873332378
  0
CIRCLE
  5
1A1
330
1F
100
AcDbEntity
  8
1
  6
CONTINUOUS
 62
   252
370
     5
100
AcDbCircle
 10
0.0
 20
42.0
 30
2.5
 40
0.5
210
0.0
220
-1.0
230
-1.862027592481571E-12
  0
CIRCLE
  5
1A2
330
1F
100
AcDbEntity
  8
1
  6
CONTINUOUS
 62
   252
370
     5
100
AcDbCircle
 10
0.0
 20
42.0
 30
-2.5
 40
0.5
210
0.0
220
-1.0
230
-1.862027592481571E-12
  0
CIRCLE
  5
1A3
330
1F
100
AcDbEntity
  8
1
  6
CONTINUOUS
 62
   252
370
     5
100
AcDbCircle
 10
0.0
 20
20.05654
 30
35.018827
 40
0.5
210
0.0
220
-0.3742446988203414
230
0.9273299873318409
  0
CIRCLE
  5
1A4
330
1F
100
AcDbEntity
  8
1
  6
CONTINUOUS
 62
   252
370
     5
100
AcDbCircle
 10
0.0
 20
20.05654
 30
14.765654
 40
0.5
210
0.0
220
-0.3742446988203414
230
0.9273299873318409
  0
CIRCLE
  5
1A5
330
1F
100
AcDbEntity
  8
1
  6
CONTINUOUS
 62
   252
370
     5
100
AcDbCircle
 10
0.0
 20
13.5
 30
19.0
 40
0.5
  0
CIRCLE
  5
1A6
330
1F
100
AcDbEntity
  8
1
  6
CONTINUOUS
 62
   252
370
     5
100
AcDbCircle
 10
0.0
 20
13.5
 30
0.0
 40
0.5
  0
CIRCLE
  5
1A7
330
1F
100
AcDbEntity
  8
1
  6
CONTINUOUS
 62
    35
 60
     1
370
     5
100
AcDbCircle
 10
-23.57862
 20
7.64817
 30
-7.686312
 40
0.3749999999999999
210
0.03620507854415909
220
-0.9987402577036217
230
-0.03474319976217545
  0
CIRCLE
  5
1A8
330
1F
100
AcDbEntity
  8
1
  6
CONTINUOUS
 62
    35
 60
     1
370
     5
100
AcDbCircle
 10
-23.57862
 20
7.64817
 30
-24.650783
 40
0.3749999999999999
210
0.03620507854415909
220
-0.9987402577036217
230
-0.03474319976217545
  0
CIRCLE
  5
1A9
330
1F
100
AcDbEntity
  8
1
  6
CONTINUOUS
 62
    35
 60
     1
370
     5
100
AcDbCircle
 10
23.57862
 20
7.64817
 30
-7.686312
 40
0.3749999999999999
210
0.03620507854415909
220
0.9987402577036217
230
-0.03474319976217545
  0
CIRCLE
  5
1AA
330
1F
100
AcDbEntity
  8
1
  6
CONTINUOUS
 62
    35
 60
     1
370
     5
100
AcDbCircle
 10
23.57862
 20
7.64817
 30
-24.650783
 40
0.3749999999999999
210
0.03620507854415909
220
0.9987402577036217
230
-0.03474319976217545
  0
LINE
  5
1AB
330
1F
100
AcDbEntity
  8
1
  6
CONTINUOUS
 62
   252
370
     5
100
AcDbLine
 10
-14.622803
 20
-0.612218
 30
12.803763
 11
-15.616329
 21
-0.612218
 31
12.690157
  0
LINE
  5
1AC
330
1F
100
AcDbEntity
  8
1
  6
CONTINUOUS
 62
   252
370
     5
100
AcDbLine
 10
-14.509197
 20
-3.580218
 30
11.810237
 11
-14.622803
 21
-3.580218
 31
12.803763
  0
LINE
  5
1AD
330
1F
100
AcDbEntity
  8
1
  6
CONTINUOUS
 62
   252
370
     5
100
AcDbLine
 10
-15.616329
 20
-3.580218
 30
12.690157
 11
-15.502723
 21
-3.580218
 31
11.696632
  0
LINE
  5
1AE
330
1F
100
AcDbEntity
  8
1
  6
CONTINUOUS
 62
   252
370
     5
100
AcDbLine
 10
-15.502723
 20
-0.612218
 30
11.696632
 11
-15.502723
 21
-3.580218
 31
11.696632
  0
LINE
  5
1AF
330
1F
100
AcDbEntity
  8
1
  6
CONTINUOUS
 62
   252
370
     5
100
AcDbLine
 10
-14.622803
 20
-3.580218
 30
12.803763
 11
-15.616329
 21
-3.580218
 31
12.690157
  0
LINE
  5
1B0
330
1F
100
AcDbEntity
  8
1
  6
CONTINUOUS
 62
   252
370
     5
100
AcDbLine
 10
-14.509197
 20
-0.612218
 30
11.810237
 11
-14.622803
 21
-0.612218
 31
12.803763
  0
LINE
  5
1B1
330
1F
100
AcDbEntity
  8
1
  6
CONTINUOUS
 62
   252
370
     5
100
AcDbLine
 10
-15.616329
 20
-0.612218
 30
12.690157
 11
-15.616329
 21
-3.580218
 31
12.690157
  0
LINE
  5
1B2
330
1F
100
AcDbEntity
  8
1
  6
CONTINUOUS
 62
   252
370
     5
100
AcDbLine
 10
-15.616329
 20
-0.612218
 30
12.690157
 11
-15.502723
 21
-0.612218
 31
11.696632
  0
LINE
  5
1B3
330
1F
100
AcDbEntity
  8
1
  6
CONTINUOUS
 62
   252
370
     5
100
AcDbLine
 10
-15.502723
 20
-3.580218
 30
11.696632
 11
-14.509197
 21
-3.580218
 31
11.810237
  0
LINE
  5
1B4
330
1F
100
AcDbEntity
  8
1
  6
CONTINUOUS
 62
   252
370
     5
100
AcDbLine
 10
-14.622803
 20
-0.612218
 30
12.803763
 11
-14.622803
 21
-3.580218
 31
12.803763
  0
LINE
  5
1B5
330
1F
100
AcDbEntity
  8
1
  6
CONTINUOUS
 62
   252
370
     5
100
AcDbLine
 10
-15.502723
 20
-0.612218
 30
11.696632
 11
-14.509197
 21
-0.612218
 31
11.810237
  0
LINE
  5
1B6
330
1F
100
AcDbEntity
  8
1
  6
CONTINUOUS
 62
   252
370
     5
100
AcDbLine
 10
-14.509197
 20
-0.612218
 30
11.810237
 11
-14.509197
 21
-3.580218
 31
11.810237
  0
CIRCLE
  5
1B7
330
1F
100
AcDbEntity
  8
1
  6
CONTINUOUS
 62
   252
370
     5
100
AcDbCircle
 10
13.29421
 20
10.161731
 30
2.888458
 40
0.5
210
-0.9833841806385004
220
-0.1736972761366296
230
0.0527712945895849
  0
CIRCLE
  5
1B8
330
1F
100
AcDbEntity
  8
1
  6
CONTINUOUS
 62
   252
370
     5
100
AcDbCircle
 10
13.29421
 20
10.161731
 30
-27.468956
 40
0.5
210
-0.9833841806385004
220
-0.1736972761366296
230
0.0527712945895849
  0
CIRCLE
  5
1B9
330
1F
100
AcDbEntity
  8
1
  6
CONTINUOUS
 62
   252
370
     5
100
AcDbCircle
 10
13.29421
 20
1.095655
 30
2.136238
 40
0.5
210
-0.9506103624578218
220
-0.1679083656999328
230
-0.2610492664532617
  0
CIRCLE
  5
1BA
330
1F
100
AcDbEntity
  8
1
  6
CONTINUOUS
 62
   252
370
     5
100
AcDbCircle
 10
13.29421
 20
1.095655
 30
-29.267796
 40
0.5
210
-0.9506103624578218
220
-0.1679083656999328
230
-0.2610492664532617
  0
CIRCLE
  5
1BB
330
1F
100
AcDbEntity
  8
1
  6
CONTINUOUS
 62
   252
370
     5
100
AcDbCircle
 10
13.060776
 20
0.763803
 30
3.366411
 40
0.5
210
-0.9645417385898258
220
-0.252240746681848
230
-0.07767779754537212
  0
CIRCLE
  5
1BC
330
1F
100
AcDbEntity
  8
1
  6
CONTINUOUS
 62
   252
370
     5
100
AcDbCircle
 10
13.060776
 20
0.763803
 30
-26.101469
 40
0.5
210
-0.9645417385898258
220
-0.252240746681848
230
-0.07767779754537212
  0
CIRCLE
  5
1BD
330
1F
100
AcDbEntity
  8
1
  6
CONTINUOUS
 62
   252
370
     5
100
AcDbCircle
 10
8.485543
 20
8.774482
 30
-29.758098
 40
0.5
210
-0.9999591069907723
220
-0.008670861786835923
230
0.002569144233135669
  0
CIRCLE
  5
1BE
330
1F
100
AcDbEntity
  8
1
  6
CONTINUOUS
 62
   252
370
     5
100
AcDbCircle
 10
8.485543
 20
8.774482
 30
-42.213607
 40
0.5
210
-0.9999591069907723
220
-0.008670861786835923
230
0.002569144233135669
  0
CIRCLE
  5
1BF
330
1F
100
AcDbEntity
  8
1
  6
CONTINUOUS
 62
   252
370
     5
100
AcDbCircle
 10
-20.35075
 20
-17.883346
 30
-10.135167
 40
0.5
210
-0.2216407562744998
220
0.3347860374480212
230
-0.9158568033748071
  0
CIRCLE
  5
1C0
330
1F
100
AcDbEntity
  8
1
  6
CONTINUOUS
 62
   252
370
     5
100
AcDbCircle
 10
-20.35075
 20
-17.883346
 30
-20.308354
 40
0.5
210
-0.2216407562744998
220
0.3347860374480212
230
-0.9158568033748071
  0
CIRCLE
  5
1C1
330
1F
100
AcDbEntity
  8
1
  6
CONTINUOUS
 62
   252
370
     5
100
AcDbCircle
 10
20.511468
 20
-20.92953
 30
-19.801878
 40
0.5
210
-0.234154390574699
220
-0.09481153285939348
230
-0.967565240493603
  0
CIRCLE
  5
1C2
330
1F
100
AcDbEntity
  8
1
  6
CONTINUOUS
 62
   252
370
     5
100
AcDbCircle
 10
20.511468
 20
-20.92953
 30
-25.258047
 40
0.5
210
-0.234154390574699
220
-0.09481153285939348
230
-0.967565240493603
  0
CIRCLE
  5
1C3
330
1F
100
AcDbEntity
  8
1
  6
CONTINUOUS
 62
   252
370
     5
100
AcDbCircle
 10
33.367518
 20
22.393631
 30
-0.438447
 40
0.5
210
-0.05516398247110016
220
-0.9721096522360675
230
-0.2279468338613205
  0
CIRCLE
  5
1C4
330
1F
100
AcDbEntity
  8
1
  6
CONTINUOUS
 62
   252
370
     5
100
AcDbCircle
 10
33.367518
 20
22.393631
 30
-5.769892
 40
0.5
210
-0.05516398247110016
220
-0.9721096522360675
230
-0.2279468338613205
  0
CIRCLE
  5
1C5
330
1F
100
AcDbEntity
  8
1
  6
CONTINUOUS
 62
   252
370
     5
100
AcDbCircle
 10
33.367518
 20
22.393631
 30
5.769892
 40
0.5
210
0.05516398247174689
220
-0.9721096522353901
230
0.227946833864052
  0
CIRCLE
  5
1C6
330
1F
100
AcDbEntity
  8
1
  6
CONTINUOUS
 62
   252
370
     5
100
AcDbCircle
 10
33.367518
 20
22.393631
 30
0.438447
 40
0.5
210
0.05516398247174689
220
-0.9721096522353901
230
0.227946833864052
  0
CIRCLE
  5
1C7
330
1F
100
AcDbEntity
  8
1
  6
CONTINUOUS
 62
   252
370
     5
100
AcDbCircle
 10
20.511468
 20
-20.92953
 30
25.258047
 40
0.5
210
0.234154390574718
220
-0.09481153285794368
230
0.9675652404937402
  0
CIRCLE
  5
1C8
330
1F
100
AcDbEntity
  8
1
  6
CONTINUOUS
 62
   252
370
     5
100
AcDbCircle
 10
20.511468
 20
-20.92953
 30
19.801878
 40
0.5
210
0.234154390574718
220
-0.09481153285794368
230
0.9675652404937402
  0
CIRCLE
  5
1C9
330
1F
100
AcDbEntity
  8
1
  6
CONTINUOUS
 62
   252
370
     5
100
AcDbCircle
 10
-20.35075
 20
-17.883346
 30
20.308354
 40
0.5
210
0.2216407562743717
220
0.3347860374493917
230
0.9158568033743371
  0
CIRCLE
  5
1CA
330
1F
100
AcDbEntity
  8
1
  6
CONTINUOUS
 62
   252
370
     5
100
AcDbCircle
 10
-20.35075
 20
-17.883346
 30
10.135167
 40
0.5
210
0.2216407562743717
220
0.3347860374493917
230
0.9158568033743371
  0
CIRCLE
  5
1CB
330
1F
100
AcDbEntity
  8
1
  6
CONTINUOUS
 62
   252
370
     5
100
AcDbCircle
 10
6.332247
 20
2.804938
 30
-28.363514
 40
0.5
210
-0.9999562098674389
220
-0.009341446646929203
230
0.0005618915276350018
  0
CIRCLE
  5
1CC
330
1F
100
AcDbEntity
  8
1
  6
CONTINUOUS
 62
   252
370
     5
100
AcDbCircle
 10
6.332247
 20
2.804938
 30
-42.601137
 40
0.5
210
-0.9999562098674389
220
-0.009341446646929203
230
0.0005618915276350018
  0
CIRCLE
  5
1CD
330
1F
100
AcDbEntity
  8
1
  6
CONTINUOUS
 62
   252
370
     5
100
AcDbCircle
 10
3.424657
 20
-6.456343
 30
-42.537152
 40
0.5
210
-0.9752314458685799
220
0.05723028773068344
230
-0.2136546773542353
  0
CIRCLE
  5
1CE
330
1F
100
AcDbEntity
  8
1
  6
CONTINUOUS
 62
   252
370
     5
100
AcDbCircle
 10
3.424657
 20
-6.456343
 30
-55.703257
 40
0.5
210
-0.9752314458685799
220
0.05723028773068344
230
-0.2136546773542353
  0
CIRCLE
  5
1CF
330
1F
100
AcDbEntity
  8
1
  6
CONTINUOUS
 62
   252
370
     5
100
AcDbCircle
 10
-55.5
 20
-6.688982
 30
-4.872967
 40
0.5
210
0.0
220
-0.0003040206681360727
230
-0.9999999537857155
  0
CIRCLE
  5
1D0
330
1F
100
AcDbEntity
  8
1
  6
CONTINUOUS
 62
   252
370
     5
100
AcDbCircle
 10
-55.5
 20
-6.692193
 30
-15.436966
 40
0.5
210
0.0
220
-0.0003040206681360727
230
-0.9999999537857155
  0
CIRCLE
  5
1D1
330
1F
100
AcDbEntity
  8
1
  6
CONTINUOUS
 62
   252
370
     5
100
AcDbCircle
 10
55.5
 20
18.665983
 30
3.462337
 40
0.5
210
0.0
220
-0.999999988446429
230
0.0001520103358240766
  0
CIRCLE
  5
1D2
330
1F
100
AcDbEntity
  8
1
  6
CONTINUOUS
 62
   252
370
     5
100
AcDbCircle
 10
55.5
 20
18.667035
 30
-3.456662
 40
0.5
210
0.0
220
-0.999999988446429
230
0.0001520103358240766
  0
CIRCLE
  5
1D3
330
1F
100
AcDbEntity
  8
1
  6
CONTINUOUS
 62
   252
370
     5
100
AcDbCircle
 10
55.5
 20
6.6875
 30
15.439
 40
0.5
  0
CIRCLE
  5
1D4
330
1F
100
AcDbEntity
  8
1
  6
CONTINUOUS
 62
   252
370
     5
100
AcDbCircle
 10
55.5
 20
6.6875
 30
4.875
 40
0.5
  0
CIRCLE
  5
1D5
330
1F
100
AcDbEntity
  8
1
  6
CONTINUOUS
 62
   252
370
     5
100
AcDbCircle
 10
-55.5
 20
5.594
 30
6.6875
 40
0.5
210
0.0
220
1.0
230
0.0
  0
CIRCLE
  5
1D6
330
1F
100
AcDbEntity
  8
1
  6
CONTINUOUS
 62
   252
370
     5
100
AcDbCircle
 10
-55.5
 20
5.594
 30
-6.6875
 40
0.5
210
0.0
220
1.0
230
0.0
  0
CIRCLE
  5
1D7
330
1F
100
AcDbEntity
  8
1
  6
CONTINUOUS
 62
   252
370
     5
100
AcDbCircle
 10
1.590724
 20
-6.412901
 30
-49.795568
 40
0.5
210
-0.9768324704495044
220
-6.561687911316112E-8
230
-0.2140054314159199
  0
CIRCLE
  5
1D8
330
1F
100
AcDbEntity
  8
1
  6
CONTINUOUS
 62
   252
370
     5
100
AcDbCircle
 10
1.590724
 20
-6.412901
 30
-55.411348
 40
0.5
210
-0.9768324704495044
220
-6.561687911316112E-8
230
-0.2140054314159199
  0
CIRCLE
  5
1D9
330
1F
100
AcDbEntity
  8
1
  6
CONTINUOUS
 62
   252
370
     5
100
AcDbCircle
 10
13.060776
 20
0.763803
 30
26.101469
 40
0.5
210
0.9645417385898264
220
-0.2522407466818455
230
0.0776777975453721
  0
CIRCLE
  5
1DA
330
1F
100
AcDbEntity
  8
1
  6
CONTINUOUS
 62
   252
370
     5
100
AcDbCircle
 10
13.060776
 20
0.763803
 30
-3.366411
 40
0.5
210
0.9645417385898264
220
-0.2522407466818455
230
0.0776777975453721
  0
CIRCLE
  5
1DB
330
1F
100
AcDbEntity
  8
1
  6
CONTINUOUS
 62
   252
370
     5
100
AcDbCircle
 10
13.29421
 20
1.095655
 30
29.267796
 40
0.5
210
0.9506103624578227
220
-0.1679083656999328
230
0.2610492664532591
  0
CIRCLE
  5
1DC
330
1F
100
AcDbEntity
  8
1
  6
CONTINUOUS
 62
   252
370
     5
100
AcDbCircle
 10
13.29421
 20
1.095655
 30
-2.136238
 40
0.5
210
0.9506103624578227
220
-0.1679083656999328
230
0.2610492664532591
  0
CIRCLE
  5
1DD
330
1F
100
AcDbEntity
  8
1
  6
CONTINUOUS
 62
   252
370
     5
100
AcDbCircle
 10
13.29421
 20
10.161731
 30
27.468956
 40
0.5
210
0.9833841806385004
220
-0.1736972761366287
230
-0.05277129458958488
  0
CIRCLE
  5
1DE
330
1F
100
AcDbEntity
  8
1
  6
CONTINUOUS
 62
   252
370
     5
100
AcDbCircle
 10
13.29421
 20
10.161731
 30
-2.888458
 40
0.5
210
0.9833841806385004
220
-0.1736972761366287
230
-0.05277129458958488
  0
CIRCLE
  5
1DF
330
1F
100
AcDbEntity
  8
1
  6
CONTINUOUS
 62
   252
370
     5
100
AcDbCircle
 10
-20.057
 20
2.115
 30
8.255
 40
0.5
210
0.0
220
1.0
230
0.0
  0
CIRCLE
  5
1E0
330
1F
100
AcDbEntity
  8
1
  6
CONTINUOUS
 62
   252
370
     5
100
AcDbCircle
 10
-20.057
 20
2.115
 30
-8.255
 40
0.5
210
0.0
220
1.0
230
0.0
  0
CIRCLE
  5
1E1
330
1F
100
AcDbEntity
  8
1
  6
CONTINUOUS
 62
   252
370
     5
100
AcDbCircle
 10
28.423
 20
2.789
 30
6.067
 40
0.5
210
0.0
220
-1.0
230
-1.862027592481571E-12
  0
CIRCLE
  5
1E2
330
1F
100
AcDbEntity
  8
1
  6
CONTINUOUS
 62
   252
370
     5
100
AcDbCircle
 10
28.423
 20
2.789
 30
-6.067
 40
0.5
210
0.0
220
-1.0
230
-1.862027592481571E-12
  0
CIRCLE
  5
1E3
330
1F
100
AcDbEntity
  8
1
  6
CONTINUOUS
 62
   252
370
     5
100
AcDbCircle
 10
-8.485543
 20
8.774482
 30
-29.758098
 40
0.5
210
-0.9999591069907723
220
0.008670861786835923
230
0.002569144233135669
  0
CIRCLE
  5
1E4
330
1F
100
AcDbEntity
  8
1
  6
CONTINUOUS
 62
   252
370
     5
100
AcDbCircle
 10
-8.485543
 20
8.774482
 30
-42.213607
 40
0.5
210
-0.9999591069907723
220
0.008670861786835923
230
0.002569144233135669
  0
CIRCLE
  5
1E5
330
1F
100
AcDbEntity
  8
1
  6
CONTINUOUS
 62
   252
370
     5
100
AcDbCircle
 10
6.332247
 20
2.804938
 30
42.601137
 40
0.5
210
0.9999562098674389
220
-0.009341446646929203
230
-0.0005618915276350018
  0
CIRCLE
  5
1E6
330
1F
100
AcDbEntity
  8
1
  6
CONTINUOUS
 62
   252
370
     5
100
AcDbCircle
 10
6.332247
 20
2.804938
 30
28.363514
 40
0.5
210
0.9999562098674389
220
-0.009341446646929203
230
-0.0005618915276350018
  0
CIRCLE
  5
1E7
330
1F
100
AcDbEntity
  8
1
  6
CONTINUOUS
 62
   252
370
     5
100
AcDbCircle
 10
-42.66
 20
2.781
 30
5.934
 40
0.5
210
0.0
220
1.0
230
0.0
  0
CIRCLE
  5
1E8
330
1F
100
AcDbEntity
  8
1
  6
CONTINUOUS
 62
   252
370
     5
100
AcDbCircle
 10
-42.66
 20
2.781
 30
-5.934
 40
0.5
210
0.0
220
1.0
230
0.0
  0
CIRCLE
  5
1E9
330
1F
100
AcDbEntity
  8
1
  6
CONTINUOUS
 62
   252
370
     5
100
AcDbCircle
 10
-3.424657
 20
-6.456343
 30
-42.537152
 40
0.5
210
-0.9752314458685799
220
-0.05723028773068344
230
-0.2136546773542353
  0
CIRCLE
  5
1EA
330
1F
100
AcDbEntity
  8
1
  6
CONTINUOUS
 62
   252
370
     5
100
AcDbCircle
 10
-3.424657
 20
-6.456343
 30
-55.703257
 40
0.5
210
-0.9752314458685799
220
-0.05723028773068344
230
-0.2136546773542353
  0
CIRCLE
  5
1EB
330
1F
100
AcDbEntity
  8
1
  6
CONTINUOUS
 62
   252
370
     5
100
AcDbCircle
 10
43.060766
 20
1.84613
 30
8.564278
 40
0.5
210
-0.05598501753963808
220
-0.3475206344434959
230
0.9359995119908325
  0
CIRCLE
  5
1EC
330
1F
100
AcDbEntity
  8
1
  6
CONTINUOUS
 62
   252
370
     5
100
AcDbCircle
 10
43.060766
 20
1.84613
 30
2.276881
 40
0.5
210
-0.05598501753963808
220
-0.3475206344434959
230
0.9359995119908325
  0
CIRCLE
  5
1ED
330
1F
100
AcDbEntity
  8
1
  6
CONTINUOUS
 62
   252
370
     5
100
AcDbCircle
 10
43.060766
 20
1.84613
 30
-2.276881
 40
0.5
210
0.05598501753963808
220
-0.3475206344434959
230
-0.9359995119908325
  0
CIRCLE
  5
1EE
330
1F
100
AcDbEntity
  8
1
  6
CONTINUOUS
 62
   252
370
     5
100
AcDbCircle
 10
43.060766
 20
1.84613
 30
-8.564278
 40
0.5
210
0.05598501753963808
220
-0.3475206344434959
230
-0.9359995119908325
  0
CIRCLE
  5
1EF
330
1F
100
AcDbEntity
  8
1
  6
CONTINUOUS
 62
   252
370
     5
100
AcDbCircle
 10
-12.635781
 20
17.731784
 30
-38.169431
 40
0.5
210
-0.9685473251799931
220
0.1050997192234052
230
0.2255440708727274
  0
CIRCLE
  5
1F0
330
1F
100
AcDbEntity
  8
1
  6
CONTINUOUS
 62
   252
370
     5
100
AcDbCircle
 10
-12.635781
 20
17.731784
 30
-51.789829
 40
0.5
210
-0.9685473251799931
220
0.1050997192234052
230
0.2255440708727274
  0
CIRCLE
  5
1F1
330
1F
100
AcDbEntity
  8
1
  6
CONTINUOUS
 62
   252
370
     5
100
AcDbCircle
 10
-13.784985
 20
-14.200942
 30
-39.233812
 40
0.5
210
-0.8412530443255845
220
0.1152215525726775
230
-0.5282208905710547
  0
CIRCLE
  5
1F2
330
1F
100
AcDbEntity
  8
1
  6
CONTINUOUS
 62
   252
370
     5
100
AcDbCircle
 10
-13.784985
 20
-14.200942
 30
-54.915182
 40
0.5
210
-0.8412530443255845
220
0.1152215525726775
230
-0.5282208905710547
  0
CIRCLE
  5
1F3
330
1F
100
AcDbEntity
  8
1
  6
CONTINUOUS
 62
   252
370
     5
100
AcDbCircle
 10
13.784985
 20
-14.200942
 30
-39.233812
 40
0.5
210
-0.8412530443255845
220
-0.1152215525726775
230
-0.5282208905710547
  0
CIRCLE
  5
1F4
330
1F
100
AcDbEntity
  8
1
  6
CONTINUOUS
 62
   252
370
     5
100
AcDbCircle
 10
13.784985
 20
-14.200942
 30
-54.915182
 40
0.5
210
-0.8412530443255845
220
-0.1152215525726775
230
-0.5282208905710547
  0
CIRCLE
  5
1F5
330
1F
100
AcDbEntity
  8
1
  6
CONTINUOUS
 62
   252
370
     5
100
AcDbCircle
 10
12.635781
 20
17.731784
 30
-38.169431
 40
0.5
210
-0.9685473251799931
220
-0.1050997192234052
230
0.2255440708727274
  0
CIRCLE
  5
1F6
330
1F
100
AcDbEntity
  8
1
  6
CONTINUOUS
 62
   252
370
     5
100
AcDbCircle
 10
12.635781
 20
17.731784
 30
-51.789829
 40
0.5
210
-0.9685473251799931
220
-0.1050997192234052
230
0.2255440708727274
  0
CIRCLE
  5
1F7
330
1F
100
AcDbEntity
  8
1
  6
CONTINUOUS
 62
   252
370
     5
100
AcDbCircle
 10
-5.965598
 20
39.50789
 30
18.289965
 40
0.5
210
0.5915778307535074
220
-0.0300030443931927
230
-0.8056894485396435
  0
CIRCLE
  5
1F8
330
1F
100
AcDbEntity
  8
1
  6
CONTINUOUS
 62
   252
370
     5
100
AcDbCircle
 10
-5.965598
 20
39.50789
 30
2.445298
 40
0.5
210
0.5915778307535074
220
-0.0300030443931927
230
-0.8056894485396435
  0
CIRCLE
  5
1F9
330
1F
100
AcDbEntity
  8
1
  6
CONTINUOUS
 62
   252
370
     5
100
AcDbCircle
 10
9.570239
 20
27.330227
 30
-27.638931
 40
0.5
210
-0.9791956728720097
220
-0.05777634922888102
230
0.1945192219255327
  0
CIRCLE
  5
1FA
330
1F
100
AcDbEntity
  8
1
  6
CONTINUOUS
 62
   252
370
     5
100
AcDbCircle
 10
9.570239
 20
27.330227
 30
-50.683715
 40
0.5
210
-0.9791956728720097
220
-0.05777634922888102
230
0.1945192219255327
  0
CIRCLE
  5
1FB
330
1F
100
AcDbEntity
  8
1
  6
CONTINUOUS
 62
   252
370
     5
100
AcDbCircle
 10
-9.570239
 20
27.330227
 30
-27.638931
 40
0.5
210
-0.9791956728720097
220
0.05777634922888113
230
0.1945192219255327
  0
CIRCLE
  5
1FC
330
1F
100
AcDbEntity
  8
1
  6
CONTINUOUS
 62
   252
370
     5
100
AcDbCircle
 10
-9.570239
 20
27.330227
 30
-50.683715
 40
0.5
210
-0.9791956728720097
220
0.05777634922888113
230
0.1945192219255327
  0
CIRCLE
  5
1FD
330
1F
100
AcDbEntity
  8
1
  6
CONTINUOUS
 62
   252
370
     5
100
AcDbCircle
 10
5.965598
 20
39.50789
 30
18.289965
 40
0.5
210
0.5915778307535074
220
0.03000304439319253
230
-0.8056894485396435
  0
CIRCLE
  5
1FE
330
1F
100
AcDbEntity
  8
1
  6
CONTINUOUS
 62
   252
370
     5
100
AcDbCircle
 10
5.965598
 20
39.50789
 30
2.445298
 40
0.5
210
0.5915778307535074
220
0.03000304439319253
230
-0.8056894485396435
  0
CIRCLE
  5
1FF
330
1F
100
AcDbEntity
  8
1
  6
CONTINUOUS
 62
   252
370
     5
100
AcDbCircle
 10
-37.861959
 20
20.45306
 30
7.352881
 40
0.5
210
0.0
220
1.0
230
0.0
  0
CIRCLE
  5
200
330
1F
100
AcDbEntity
  8
1
  6
CONTINUOUS
 62
   252
370
     5
100
AcDbCircle
 10
-37.861959
 20
20.45306
 30
-7.352881
 40
0.5
210
0.0
220
1.0
230
0.0
  0
CIRCLE
  5
201
330
1F
100
AcDbEntity
  8
1
  6
CONTINUOUS
 62
   252
370
     5
100
AcDbCircle
 10
-12.590549
 20
1.16452
 30
13.920092
 40
0.5
210
-0.9237887203407057
220
-0.3574039128426483
230
0.13739302477217
  0
CIRCLE
  5
202
330
1F
100
AcDbEntity
  8
1
  6
CONTINUOUS
 62
   252
370
     5
100
AcDbCircle
 10
-12.590549
 20
1.16452
 30
-4.756256
 40
0.5
210
-0.9237887203407057
220
-0.3574039128426483
230
0.13739302477217
  0
CIRCLE
  5
203
330
1F
100
AcDbEntity
  8
1
  6
CONTINUOUS
 62
   252
370
     5
100
AcDbCircle
 10
-13.097809
 20
1.847473
 30
17.079673
 40
0.5
210
-0.8774987225611413
220
-0.2191224678550011
230
0.4265927050298672
  0
CIRCLE
  5
204
330
1F
100
AcDbEntity
  8
1
  6
CONTINUOUS
 62
   252
370
     5
100
AcDbCircle
 10
-13.097809
 20
1.847473
 30
-2.744857
 40
0.5
210
-0.8774987225611413
220
-0.2191224678550011
230
0.4265927050298672
  0
CIRCLE
  5
205
330
1F
100
AcDbEntity
  8
1
  6
CONTINUOUS
 62
   252
370
     5
100
AcDbCircle
 10
13.097809
 20
10.026933
 30
4.030884
 40
0.5
210
0.9674979170058866
220
0.2415963986820856
230
0.0746924409369341
  0
CIRCLE
  5
206
330
1F
100
AcDbEntity
  8
1
  6
CONTINUOUS
 62
   252
370
     5
100
AcDbCircle
 10
13.097809
 20
10.026933
 30
-13.949517
 40
0.5
210
0.9674979170058866
220
0.2415963986820856
230
0.0746924409369341
  0
CIRCLE
  5
207
330
1F
100
AcDbEntity
  8
1
  6
CONTINUOUS
 62
   252
370
     5
100
AcDbCircle
 10
8.501752
 20
20.968601
 30
5.593565
 40
0.5
210
0.6111610273166403
220
0.7538496981900559
230
-0.2412319034208176
  0
CIRCLE
  5
208
330
1F
100
AcDbEntity
  8
1
  6
CONTINUOUS
 62
   252
370
     5
100
AcDbCircle
 10
8.501752
 20
20.968601
 30
-2.697213
 40
0.5
210
0.6111610273166403
220
0.7538496981900559
230
-0.2412319034208176
  0
CIRCLE
  5
209
330
1F
100
AcDbEntity
  8
1
  6
CONTINUOUS
 62
   252
370
     5
100
AcDbCircle
 10
-8.501752
 20
20.968601
 30
5.593565
 40
0.5
210
0.6111610273166403
220
-0.7538496981900559
230
-0.2412319034208176
  0
CIRCLE
  5
20A
330
1F
100
AcDbEntity
  8
1
  6
CONTINUOUS
 62
   252
370
     5
100
AcDbCircle
 10
-8.501752
 20
20.968601
 30
-2.697213
 40
0.5
210
0.6111610273166403
220
-0.7538496981900559
230
-0.2412319034208176
  0
CIRCLE
  5
20B
330
1F
100
AcDbEntity
  8
1
  6
CONTINUOUS
 62
   252
370
     5
100
AcDbCircle
 10
-7.715825
 20
22.405136
 30
-2.240503
 40
0.5
210
0.9156728353648375
220
0.05342543583220671
230
0.398357855929889
  0
CIRCLE
  5
20C
330
1F
100
AcDbEntity
  8
1
  6
CONTINUOUS
 62
   252
370
     5
100
AcDbCircle
 10
-7.715825
 20
22.405136
 30
-15.350398
 40
0.5
210
0.9156728353648375
220
0.05342543583220671
230
0.398357855929889
  0
CIRCLE
  5
20D
330
1F
100
AcDbEntity
  8
1
  6
CONTINUOUS
 62
   252
370
     5
100
AcDbCircle
 10
7.715825
 20
22.405136
 30
-2.240503
 40
0.5
210
0.9156728353648375
220
-0.05342543583220671
230
0.398357855929889
  0
CIRCLE
  5
20E
330
1F
100
AcDbEntity
  8
1
  6
CONTINUOUS
 62
   252
370
     5
100
AcDbCircle
 10
7.715825
 20
22.405136
 30
-15.350398
 40
0.5
210
0.9156728353648375
220
-0.05342543583220671
230
0.398357855929889
  0
CIRCLE
  5
20F
330
1F
100
AcDbEntity
  8
1
  6
CONTINUOUS
 62
   252
370
     5
100
AcDbCircle
 10
9.538598
 20
-6.439722
 30
-18.281852
 40
0.5
210
0.6827508869309796
220
0.01510767920017492
230
-0.7304950269674293
  0
CIRCLE
  5
210
330
1F
100
AcDbEntity
  8
1
  6
CONTINUOUS
 62
   252
370
     5
100
AcDbCircle
 10
9.538598
 20
-6.439722
 30
-28.607727
 40
0.5
210
0.6827508869309796
220
0.01510767920017492
230
-0.7304950269674293
  0
CIRCLE
  5
211
330
1F
100
AcDbEntity
  8
1
  6
CONTINUOUS
 62
   252
370
     5
100
AcDbCircle
 10
8.027902
 20
29.53043
 30
-3.78991
 40
0.5
210
0.6551389374097745
220
-0.02588381446400952
230
0.7550648984281977
  0
CIRCLE
  5
212
330
1F
100
AcDbEntity
  8
1
  6
CONTINUOUS
 62
   252
370
     5
100
AcDbCircle
 10
8.027902
 20
29.53043
 30
-13.48709
 40
0.5
210
0.6551389374097745
220
-0.02588381446400952
230
0.7550648984281977
  0
CIRCLE
  5
213
330
1F
100
AcDbEntity
  8
1
  6
CONTINUOUS
 62
   252
370
     5
100
AcDbCircle
 10
22.516632
 20
14.435713
 30
9.042692
 40
0.5
210
0.0
220
1.0
230
0.0
  0
CIRCLE
  5
214
330
1F
100
AcDbEntity
  8
1
  6
CONTINUOUS
 62
   252
370
     5
100
AcDbCircle
 10
22.516632
 20
14.435713
 30
-9.042692
 40
0.5
210
0.0
220
1.0
230
0.0
  0
CIRCLE
  5
215
330
1F
100
AcDbEntity
  8
1
  6
CONTINUOUS
 62
   252
370
     5
100
AcDbCircle
 10
-8.027902
 20
29.53043
 30
-3.78991
 40
0.5
210
0.6551389374097745
220
0.02588381446400952
230
0.7550648984281977
  0
CIRCLE
  5
216
330
1F
100
AcDbEntity
  8
1
  6
CONTINUOUS
 62
   252
370
     5
100
AcDbCircle
 10
-8.027902
 20
29.53043
 30
-13.48709
 40
0.5
210
0.6551389374097745
220
0.02588381446400952
230
0.7550648984281977
  0
CIRCLE
  5
217
330
1F
100
AcDbEntity
  8
1
  6
CONTINUOUS
 62
   252
370
     5
100
AcDbCircle
 10
9.538598
 20
-6.439722
 30
28.607727
 40
0.5
210
-0.6827508869309796
220
0.01510767920017492
230
0.7304950269674293
  0
CIRCLE
  5
218
330
1F
100
AcDbEntity
  8
1
  6
CONTINUOUS
 62
   252
370
     5
100
AcDbCircle
 10
9.538598
 20
-6.439722
 30
18.281852
 40
0.5
210
-0.6827508869309796
220
0.01510767920017492
230
0.7304950269674293
  0
CIRCLE
  5
219
330
1F
100
AcDbEntity
  8
1
  6
CONTINUOUS
 62
   252
370
     5
100
AcDbCircle
 10
30.799
 20
9.178
 30
9.251
 40
0.5
210
0.0
220
1.0
230
0.0
  0
CIRCLE
  5
21A
330
1F
100
AcDbEntity
  8
1
  6
CONTINUOUS
 62
   252
370
     5
100
AcDbCircle
 10
30.799
 20
9.178
 30
-9.251
 40
0.5
210
0.0
220
1.0
230
0.0
  0
CIRCLE
  5
21B
330
1F
100
AcDbEntity
  8
1
  6
CONTINUOUS
 62
   252
370
     5
100
AcDbCircle
 10
29.119639
 20
-9.223855
 30
13.61478
 40
0.5
210
-0.05455876303034896
220
0.3699315070020743
230
0.9274556709103527
  0
CIRCLE
  5
21C
330
1F
100
AcDbEntity
  8
1
  6
CONTINUOUS
 62
   252
370
     5
100
AcDbCircle
 10
29.119639
 20
-9.223855
 30
6.68647
 40
0.5
210
-0.05455876303034896
220
0.3699315070020743
230
0.9274556709103527
  0
CIRCLE
  5
21D
330
1F
100
AcDbEntity
  8
1
  6
CONTINUOUS
 62
   252
370
     5
100
AcDbCircle
 10
30.421
 20
2.7523
 30
6.688
 40
0.5
210
0.0
220
1.0
230
0.0
  0
CIRCLE
  5
21E
330
1F
100
AcDbEntity
  8
1
  6
CONTINUOUS
 62
   252
370
     5
100
AcDbCircle
 10
30.421
 20
2.7523
 30
-6.688
 40
0.5
210
0.0
220
1.0
230
0.0
  0
CIRCLE
  5
21F
330
1F
100
AcDbEntity
  8
1
  6
CONTINUOUS
 62
   252
370
     5
100
AcDbCircle
 10
7.004121
 20
3.474295
 30
30.275622
 40
0.5
210
-0.9996622840682821
220
0.01040049612069829
230
-0.02381485863549973
  0
CIRCLE
  5
220
330
1F
100
AcDbEntity
  8
1
  6
CONTINUOUS
 62
   252
370
     5
100
AcDbCircle
 10
7.004121
 20
3.474295
 30
17.103174
 40
0.5
210
-0.9996622840682821
220
0.01040049612069829
230
-0.02381485863549973
  0
CIRCLE
  5
221
330
1F
100
AcDbEntity
  8
1
  6
CONTINUOUS
 62
   252
370
     5
100
AcDbCircle
 10
-7.004121
 20
3.474295
 30
30.275622
 40
0.5
210
-0.9996622840682821
220
-0.01040049612069829
230
-0.02381485863549973
  0
CIRCLE
  5
222
330
1F
100
AcDbEntity
  8
1
  6
CONTINUOUS
 62
   252
370
     5
100
AcDbCircle
 10
-7.004121
 20
3.474295
 30
17.103174
 40
0.5
210
-0.9996622840682821
220
-0.01040049612069829
230
-0.02381485863549973
  0
CIRCLE
  5
223
330
1F
100
AcDbEntity
  8
1
  6
CONTINUOUS
 62
   252
370
     5
100
AcDbCircle
 10
17.253
 20
3.066
 30
6.825
 40
0.5
210
0.0
220
1.0
230
0.0
  0
CIRCLE
  5
224
330
1F
100
AcDbEntity
  8
1
  6
CONTINUOUS
 62
   252
370
     5
100
AcDbCircle
 10
17.253
 20
3.066
 30
-6.825
 40
0.5
210
0.0
220
1.0
230
0.0
  0
CIRCLE
  5
225
330
1F
100
AcDbEntity
  8
1
  6
CONTINUOUS
 62
   252
370
     5
100
AcDbCircle
 10
17.396
 20
8.957
 30
9.156
 40
0.5
210
0.0
220
1.0
230
0.0
  0
CIRCLE
  5
226
330
1F
100
AcDbEntity
  8
1
  6
CONTINUOUS
 62
   252
370
     5
100
AcDbCircle
 10
17.396
 20
8.957
 30
-9.156
 40
0.5
210
0.0
220
1.0
230
0.0
  0
CIRCLE
  5
227
330
1F
100
AcDbEntity
  8
1
  6
CONTINUOUS
 62
   252
370
     5
100
AcDbCircle
 10
16.802718
 20
-6.18489
 30
12.087051
 40
0.5
210
-0.02256579243914651
220
0.3678381970325194
230
0.9296159668462342
  0
CIRCLE
  5
228
330
1F
100
AcDbEntity
  8
1
  6
CONTINUOUS
 62
   252
370
     5
100
AcDbCircle
 10
16.802718
 20
-6.18489
 30
5.750026
 40
0.5
210
-0.02256579243914651
220
0.3678381970325194
230
0.9296159668462342
  0
CIRCLE
  5
229
330
1F
100
AcDbEntity
  8
1
  6
CONTINUOUS
 62
   252
370
     5
100
AcDbCircle
 10
16.802718
 20
-6.18489
 30
-5.750026
 40
0.5
210
0.02256579243914651
220
0.3678381970325194
230
-0.9296159668462342
  0
CIRCLE
  5
22A
330
1F
100
AcDbEntity
  8
1
  6
CONTINUOUS
 62
   252
370
     5
100
AcDbCircle
 10
16.802718
 20
-6.18489
 30
-12.087051
 40
0.5
210
0.02256579243914651
220
0.3678381970325194
230
-0.9296159668462342
  0
CIRCLE
  5
22B
330
1F
100
AcDbEntity
  8
1
  6
CONTINUOUS
 62
   252
370
     5
100
AcDbCircle
 10
12.590549
 20
1.16452
 30
13.920092
 40
0.5
210
-0.9237887203407057
220
0.3574039128426483
230
0.13739302477217
  0
CIRCLE
  5
22C
330
1F
100
AcDbEntity
  8
1
  6
CONTINUOUS
 62
   252
370
     5
100
AcDbCircle
 10
12.590549
 20
1.16452
 30
-4.756256
 40
0.5
210
-0.9237887203407057
220
0.3574039128426483
230
0.13739302477217
  0
CIRCLE
  5
22D
330
1F
100
AcDbEntity
  8
1
  6
CONTINUOUS
 62
   252
370
     5
100
AcDbCircle
 10
13.097809
 20
1.847473
 30
17.079673
 40
0.5
210
-0.8774987225611413
220
0.2191224678550011
230
0.4265927050298672
  0
CIRCLE
  5
22E
330
1F
100
AcDbEntity
  8
1
  6
CONTINUOUS
 62
   252
370
     5
100
AcDbCircle
 10
13.097809
 20
1.847473
 30
-2.744857
 40
0.5
210
-0.8774987225611413
220
0.2191224678550011
230
0.4265927050298672
  0
CIRCLE
  5
22F
330
1F
100
AcDbEntity
  8
1
  6
CONTINUOUS
 62
   252
370
     5
100
AcDbCircle
 10
0.0
 20
0.5
 30
13.5
 40
0.5
210
0.0
220
1.0
230
0.0
  0
CIRCLE
  5
230
330
1F
100
AcDbEntity
  8
1
  6
CONTINUOUS
 62
   252
370
     5
100
AcDbCircle
 10
0.0
 20
0.5
 30
-13.5
 40
0.5
210
0.0
220
1.0
230
0.0
  0
CIRCLE
  5
231
330
1F
100
AcDbEntity
  8
1
  6
CONTINUOUS
 62
   252
370
     5
100
AcDbCircle
 10
0.0
 20
10.3
 30
13.5
 40
0.5
210
0.0
220
1.0
230
0.0
  0
CIRCLE
  5
232
330
1F
100
AcDbEntity
  8
1
  6
CONTINUOUS
 62
   252
370
     5
100
AcDbCircle
 10
0.0
 20
10.3
 30
-13.5
 40
0.5
210
0.0
220
1.0
230
0.0
  0
CIRCLE
  5
233
330
1F
100
AcDbEntity
  8
1
  6
CONTINUOUS
 62
   252
370
     5
100
AcDbCircle
 10
-5.067
 20
21.0
 30
7.25
 40
0.5
210
0.0
220
-1.0
230
-1.862027592481571E-12
  0
CIRCLE
  5
234
330
1F
100
AcDbEntity
  8
1
  6
CONTINUOUS
 62
   252
370
     5
100
AcDbCircle
 10
-5.067
 20
21.0
 30
-7.25
 40
0.5
210
0.0
220
-1.0
230
-1.862027592481571E-12
  0
CIRCLE
  5
235
330
1F
100
AcDbEntity
  8
1
  6
CONTINUOUS
 62
   252
370
     5
100
AcDbCircle
 10
-13.097809
 20
10.026933
 30
4.030884
 40
0.5
210
0.9674979170058866
220
-0.2415963986820856
230
0.0746924409369341
  0
CIRCLE
  5
236
330
1F
100
AcDbEntity
  8
1
  6
CONTINUOUS
 62
   252
370
     5
100
AcDbCircle
 10
-13.097809
 20
10.026933
 30
-13.949517
 40
0.5
210
0.9674979170058866
220
-0.2415963986820856
230
0.0746924409369341
  0
CIRCLE
  5
237
330
1F
100
AcDbEntity
  8
1
  6
CONTINUOUS
 62
   252
370
     5
100
AcDbCircle
 10
7.050576
 20
20.271276
 30
2.458807
 40
0.5
210
-0.5399014523940888
220
-0.06382035090176219
230
-0.8393052987522058
  0
CIRCLE
  5
238
330
1F
100
AcDbEntity
  8
1
  6
CONTINUOUS
 62
   252
370
     5
100
AcDbCircle
 10
7.050576
 20
20.271276
 30
-29.761888
 40
0.5
210
-0.5399014523940888
220
-0.06382035090176219
230
-0.8393052987522058
  0
CIRCLE
  5
239
330
1F
100
AcDbEntity
  8
1
  6
CONTINUOUS
 62
   252
370
     5
100
AcDbCircle
 10
-7.050576
 20
20.271276
 30
2.458807
 40
0.5
210
-0.5399014523940888
220
0.06382035090176216
230
-0.8393052987522058
  0
CIRCLE
  5
23A
330
1F
100
AcDbEntity
  8
1
  6
CONTINUOUS
 62
   252
370
     5
100
AcDbCircle
 10
-7.050576
 20
20.271276
 30
-29.761888
 40
0.5
210
-0.5399014523940888
220
0.06382035090176216
230
-0.8393052987522058
  0
CIRCLE
  5
23B
330
1F
100
AcDbEntity
  8
1
  6
CONTINUOUS
 62
   252
370
     5
100
AcDbCircle
 10
0.0
 20
-30.893543
 30
-17.286951
 40
0.5
210
-0.09973059356856206
220
2.320651543553623E-16
230
-0.9950144766316026
  0
CIRCLE
  5
23C
330
1F
100
AcDbEntity
  8
1
  6
CONTINUOUS
 62
   252
370
     5
100
AcDbCircle
 10
0.0
 20
-30.893543
 30
-26.49168
 40
0.5
210
-0.09973059356856206
220
2.320651543553623E-16
230
-0.9950144766316026
  0
CIRCLE
  5
23D
330
1F
100
AcDbEntity
  8
1
  6
CONTINUOUS
 62
   252
370
     5
100
AcDbCircle
 10
-13.372453
 20
19.008403
 30
1.76299
 40
0.3749999999999999
210
-0.9905413326851187
220
0.1371358758045578
230
-0.004649710712088541
  0
CIRCLE
  5
23E
330
1F
100
AcDbEntity
  8
1
  6
CONTINUOUS
 62
   252
370
     5
100
AcDbCircle
 10
-13.372453
 20
19.008403
 30
-30.927216
 40
0.3749999999999999
210
-0.9905413326851187
220
0.1371358758045578
230
-0.004649710712088541
  0
CIRCLE
  5
23F
330
1F
100
AcDbEntity
  8
1
  6
CONTINUOUS
 62
   252
370
     5
100
AcDbCircle
 10
-13.372453
 20
10.425843
 30
-0.905157
 40
0.3749999999999999
210
-0.9561180339442258
220
0.1323701289698269
230
-0.2613741649879344
  0
CIRCLE
  5
240
330
1F
100
AcDbEntity
  8
1
  6
CONTINUOUS
 62
   252
370
     5
100
AcDbCircle
 10
-13.372453
 20
10.425843
 30
-34.772315
 40
0.3749999999999999
210
-0.9561180339442258
220
0.1323701289698269
230
-0.2613741649879344
  0
CIRCLE
  5
241
330
1F
100
AcDbEntity
  8
1
  6
CONTINUOUS
 62
   252
370
     5
100
AcDbCircle
 10
13.372453
 20
19.008403
 30
1.76299
 40
0.3749999999999999
210
-0.9905413326851187
220
-0.1371358758045578
230
-0.004649710712088541
  0
CIRCLE
  5
242
330
1F
100
AcDbEntity
  8
1
  6
CONTINUOUS
 62
   252
370
     5
100
AcDbCircle
 10
13.372453
 20
19.008403
 30
-30.927216
 40
0.3749999999999999
210
-0.9905413326851187
220
-0.1371358758045578
230
-0.004649710712088541
  0
CIRCLE
  5
243
330
1F
100
AcDbEntity
  8
1
  6
CONTINUOUS
 62
   252
370
     5
100
AcDbCircle
 10
-13.372453
 20
10.425843
 30
34.772315
 40
0.3749999999999999
210
0.9561180339442265
220
0.1323701289698268
230
0.2613741649879314
  0
CIRCLE
  5
244
330
1F
100
AcDbEntity
  8
1
  6
CONTINUOUS
 62
   252
370
     5
100
AcDbCircle
 10
-13.372453
 20
10.425843
 30
0.905157
 40
0.3749999999999999
210
0.9561180339442265
220
0.1323701289698268
230
0.2613741649879314
  0
CIRCLE
  5
245
330
1F
100
AcDbEntity
  8
1
  6
CONTINUOUS
 62
   252
370
     5
100
AcDbCircle
 10
0.0
 20
23.941286
 30
-16.856553
 40
0.3749999999999999
210
-0.9596028571941572
220
0.0
230
0.2813580574016145
  0
CIRCLE
  5
246
330
1F
100
AcDbEntity
  8
1
  6
CONTINUOUS
 62
   252
370
     5
100
AcDbCircle
 10
0.0
 20
23.941286
 30
-23.756657
 40
0.3749999999999999
210
-0.9596028571941572
220
0.0
230
0.2813580574016145
  0
CIRCLE
  5
247
330
1F
100
AcDbEntity
  8
1
  6
CONTINUOUS
 62
   252
370
     5
100
AcDbCircle
 10
0.0
 20
30.66728
 30
-14.038587
 40
0.3749999999999999
210
-0.8036225019801526
220
0.0
230
0.5951393738538558
  0
CIRCLE
  5
248
330
1F
100
AcDbEntity
  8
1
  6
CONTINUOUS
 62
   252
370
     5
100
AcDbCircle
 10
0.0
 20
30.66728
 30
-21.331887
 40
0.3749999999999999
210
-0.8036225019801526
220
0.0
230
0.5951393738538558
  0
CIRCLE
  5
249
330
1F
100
AcDbEntity
  8
1
  6
CONTINUOUS
 62
   252
370
     5
100
AcDbCircle
 10
0.0
 20
37.03132
 30
-4.920652
 40
0.3749999999999999
210
-0.4418865907628927
220
0.0
230
0.8970709230066192
  0
CIRCLE
  5
24A
330
1F
100
AcDbEntity
  8
1
  6
CONTINUOUS
 62
   252
370
     5
100
AcDbCircle
 10
0.0
 20
37.03132
 30
-14.044757
 40
0.3749999999999999
210
-0.4418865907628927
220
0.0
230
0.8970709230066192
  0
CIRCLE
  5
24B
330
1F
100
AcDbEntity
  8
1
  6
CONTINUOUS
 62
   252
370
     5
100
AcDbCircle
 10
8.501752
 20
14.57176
 30
15.317344
 40
0.3749999999999999
210
-0.3784854597735828
220
0.4668510210351056
230
0.7992489480121064
  0
CIRCLE
  5
24C
330
1F
100
AcDbEntity
  8
1
  6
CONTINUOUS
 62
   252
370
     5
100
AcDbCircle
 10
8.501752
 20
14.57176
 30
1.929775
 40
0.3749999999999999
210
-0.3784854597735828
220
0.4668510210351056
230
0.7992489480121064
  0
CIRCLE
  5
24D
330
1F
100
AcDbEntity
  8
1
  6
CONTINUOUS
 62
   252
370
     5
100
AcDbCircle
 10
-8.501752
 20
14.57176
 30
15.317344
 40
0.3749999999999999
210
-0.3784854597735828
220
-0.4668510210351056
230
0.7992489480121064
  0
CIRCLE
  5
24E
330
1F
100
AcDbEntity
  8
1
  6
CONTINUOUS
 62
   252
370
     5
100
AcDbCircle
 10
-8.501752
 20
14.57176
 30
1.929775
 40
0.3749999999999999
210
-0.3784854597735828
220
-0.4668510210351056
230
0.7992489480121064
  0
CIRCLE
  5
24F
330
1F
100
AcDbEntity
  8
1
  6
CONTINUOUS
 62
   252
370
     5
100
AcDbCircle
 10
-7.702724
 20
26.767642
 30
-0.07426
 40
0.5
210
-0.2503145462808632
220
-0.9681645665485827
230
7.102510021787388E-13
  0
CIRCLE
  5
250
330
1F
100
AcDbEntity
  8
1
  6
CONTINUOUS
 62
   252
370
     5
100
AcDbCircle
 10
-7.702724
 20
26.767642
 30
-6.066721
 40
0.5
210
-0.2503145462808632
220
-0.9681645665485827
230
7.102510021787388E-13
  0
CIRCLE
  5
251
330
1F
100
AcDbEntity
  8
1
  6
CONTINUOUS
 62
   252
370
     5
100
AcDbCircle
 10
7.438916
 20
26.767642
 30
2.0
 40
0.5
210
0.0
220
1.0
230
0.0
  0
CIRCLE
  5
252
330
1F
100
AcDbEntity
  8
1
  6
CONTINUOUS
 62
   252
370
     5
100
AcDbCircle
 10
7.438916
 20
26.767642
 30
-2.0
 40
0.5
210
0.0
220
1.0
230
0.0
  0
CIRCLE
  5
253
330
1F
100
AcDbEntity
  8
1
  6
CONTINUOUS
 62
   252
370
     5
100
AcDbCircle
 10
7.702724
 20
26.767642
 30
-0.07426
 40
0.5
210
-0.2503145462808632
220
0.9681645665485827
230
7.102510021787388E-13
  0
CIRCLE
  5
254
330
1F
100
AcDbEntity
  8
1
  6
CONTINUOUS
 62
   252
370
     5
100
AcDbCircle
 10
7.702724
 20
26.767642
 30
-6.066721
 40
0.5
210
-0.2503145462808632
220
0.9681645665485827
230
7.102510021787388E-13
  0
CIRCLE
  5
255
330
1F
100
AcDbEntity
  8
1
  6
CONTINUOUS
 62
   252
370
     5
100
AcDbCircle
 10
9.032471
 20
8.667926
 30
31.010911
 40
0.5
210
-0.9998389782561429
220
-0.007086824064338766
230
0.0164861907180939
  0
CIRCLE
  5
256
330
1F
100
AcDbEntity
  8
1
  6
CONTINUOUS
 62
   252
370
     5
100
AcDbCircle
 10
9.032471
 20
8.667926
 30
17.605753
 40
0.5
210
-0.9998389782561429
220
-0.007086824064338766
230
0.0164861907180939
  0
CIRCLE
  5
257
330
1F
100
AcDbEntity
  8
1
  6
CONTINUOUS
 62
   252
370
     5
100
AcDbCircle
 10
-9.032471
 20
8.667926
 30
31.010911
 40
0.5
210
-0.9998389782561429
220
0.007086824064338766
230
0.0164861907180939
  0
CIRCLE
  5
258
330
1F
100
AcDbEntity
  8
1
  6
CONTINUOUS
 62
   252
370
     5
100
AcDbCircle
 10
-9.032471
 20
8.667926
 30
17.605753
 40
0.5
210
-0.9998389782561429
220
0.007086824064338766
230
0.0164861907180939
  0
CIRCLE
  5
259
330
1F
100
AcDbEntity
  8
1
  6
CONTINUOUS
 62
   252
370
     5
100
AcDbCircle
 10
-18.763626
 20
19.877007
 30
15.184619
 40
0.25
210
-0.6278922951385589
220
-0.2880513182998642
230
-0.7230336809107465
  0
CIRCLE
  5
25A
330
1F
100
AcDbEntity
  8
1
  6
CONTINUOUS
 62
   252
370
     5
100
AcDbCircle
 10
-18.763626
 20
19.877007
 30
6.431439
 40
0.25
210
-0.6278922951385589
220
-0.2880513182998642
230
-0.7230336809107465
  0
CIRCLE
  5
25B
330
1F
100
AcDbEntity
  8
1
  6
CONTINUOUS
 62
   252
370
     5
100
AcDbCircle
 10
-0.298489
 20
-10.046877
 30
24.905231
 40
0.25
210
-0.6988105847266249
220
0.2635168879166047
230
0.6649982078598261
  0
CIRCLE
  5
25C
330
1F
100
AcDbEntity
  8
1
  6
CONTINUOUS
 62
   252
370
     5
100
AcDbCircle
 10
-0.298489
 20
-10.046877
 30
15.893966
 40
0.25
210
-0.6988105847266249
220
0.2635168879166047
230
0.6649982078598261
  0
CIRCLE
  5
25D
330
1F
100
AcDbEntity
  8
1
  6
CONTINUOUS
 62
   252
370
     5
100
AcDbCircle
 10
-18.763626
 20
19.877007
 30
-6.431439
 40
0.25
210
0.6278922951385578
220
-0.2880513182998642
230
0.7230336809107475
  0
CIRCLE
  5
25E
330
1F
100
AcDbEntity
  8
1
  6
CONTINUOUS
 62
   252
370
     5
100
AcDbCircle
 10
-18.763626
 20
19.877007
 30
-15.184619
 40
0.25
210
0.6278922951385578
220
-0.2880513182998642
230
0.7230336809107475
  0
CIRCLE
  5
25F
330
1F
100
AcDbEntity
  8
1
  6
CONTINUOUS
 62
   252
370
     5
100
AcDbCircle
 10
0.298489
 20
-10.046877
 30
24.905231
 40
0.25
210
-0.6988105847266249
220
-0.2635168879166047
230
0.6649982078598261
  0
CIRCLE
  5
260
330
1F
100
AcDbEntity
  8
1
  6
CONTINUOUS
 62
   252
370
     5
100
AcDbCircle
 10
0.298489
 20
-10.046877
 30
15.893966
 40
0.25
210
-0.6988105847266249
220
-0.2635168879166047
230
0.6649982078598261
  0
CIRCLE
  5
261
330
1F
100
AcDbEntity
  8
1
  6
CONTINUOUS
 62
   252
370
     5
100
AcDbCircle
 10
-30.571013
 20
4.782513
 30
4.503606
 40
0.25
210
0.02198997063370638
220
-0.9272437617212854
230
-0.373812048415362
  0
CIRCLE
  5
262
330
1F
100
AcDbEntity
  8
1
  6
CONTINUOUS
 62
   252
370
     5
100
AcDbCircle
 10
-30.571013
 20
4.782513
 30
-12.686048
 40
0.25
210
0.02198997063370638
220
-0.9272437617212854
230
-0.373812048415362
  0
CIRCLE
  5
263
330
1F
100
AcDbEntity
  8
1
  6
CONTINUOUS
 62
   252
370
     5
100
AcDbCircle
 10
-0.221938
 20
-12.73454
 30
37.593162
 40
0.25
210
0.8338781731491002
220
0.1846635340598576
230
0.520140915074024
  0
CIRCLE
  5
264
330
1F
100
AcDbEntity
  8
1
  6
CONTINUOUS
 62
   252
370
     5
100
AcDbCircle
 10
-0.221938
 20
-12.73454
 30
26.272346
 40
0.25
210
0.8338781731491002
220
0.1846635340598576
230
0.520140915074024
  0
CIRCLE
  5
265
330
1F
100
AcDbEntity
  8
1
  6
CONTINUOUS
 62
   252
370
     5
100
AcDbCircle
 10
23.143163
 20
2.796481
 30
26.9794
 40
0.25
210
0.7578016084676042
220
-0.6524848972465828
230
-0.00042552206553947
  0
CIRCLE
  5
266
330
1F
100
AcDbEntity
  8
1
  6
CONTINUOUS
 62
   252
370
     5
100
AcDbCircle
 10
23.143163
 20
2.796481
 30
17.579182
 40
0.25
210
0.7578016084676042
220
-0.6524848972465828
230
-0.00042552206553947
  0
CIRCLE
  5
267
330
1F
100
AcDbEntity
  8
1
  6
CONTINUOUS
 62
   252
370
     5
100
AcDbCircle
 10
-22.554624
 20
2.79691
 30
-27.4668
 40
0.25
210
-0.7716531641357451
220
0.6360433996721838
230
0.0004336043627931406
  0
CIRCLE
  5
268
330
1F
100
AcDbEntity
  8
1
  6
CONTINUOUS
 62
   252
370
     5
100
AcDbCircle
 10
-22.554624
 20
2.79691
 30
-36.6918
 40
0.25
210
-0.7716531641357451
220
0.6360433996721838
230
0.0004336043627931406
  0
CIRCLE
  5
269
330
1F
100
AcDbEntity
  8
1
  6
CONTINUOUS
 62
   252
370
     5
100
AcDbCircle
 10
-22.957736
 20
2.796657
 30
36.440952
 40
0.25
210
0.7645948996625965
220
0.6445110199375589
230
-0.0004296382101075251
  0
CIRCLE
  5
26A
330
1F
100
AcDbEntity
  8
1
  6
CONTINUOUS
 62
   252
370
     5
100
AcDbCircle
 10
-22.957736
 20
2.796657
 30
17.820634
 40
0.25
210
0.7645948996625965
220
0.6445110199375589
230
-0.0004296382101075251
  0
CIRCLE
  5
26B
330
1F
100
AcDbEntity
  8
1
  6
CONTINUOUS
 62
   252
370
     5
100
AcDbCircle
 10
-6.111834
 20
21.914289
 30
-1.283131
 40
0.25
210
0.9530448579164441
220
0.1911759111078492
230
0.2348558490034019
  0
CIRCLE
  5
26C
330
1F
100
AcDbEntity
  8
1
  6
CONTINUOUS
 62
   252
370
     5
100
AcDbCircle
 10
-6.111834
 20
21.914289
 30
-6.996667
 40
0.25
210
0.9530448579164441
220
0.1911759111078492
230
0.2348558490034019
  0
CIRCLE
  5
26D
330
1F
100
AcDbEntity
  8
1
  6
CONTINUOUS
 62
   252
370
     5
100
AcDbCircle
 10
-6.111834
 20
21.914289
 30
6.996667
 40
0.25
210
-0.9530448579164431
220
0.1911759111078492
230
-0.2348558490034059
  0
CIRCLE
  5
26E
330
1F
100
AcDbEntity
  8
1
  6
CONTINUOUS
 62
   252
370
     5
100
AcDbCircle
 10
-6.111834
 20
21.914289
 30
1.283131
 40
0.25
210
-0.9530448579164431
220
0.1911759111078492
230
-0.2348558490034059
  0
CIRCLE
  5
26F
330
1F
100
AcDbEntity
  8
1
  6
CONTINUOUS
 62
   252
370
     5
100
AcDbCircle
 10
12.971231
 20
1.964083
 30
38.110253
 40
0.25
210
0.7272125630778309
220
-0.4139127701773997
230
0.5475747499527741
  0
CIRCLE
  5
270
330
1F
100
AcDbEntity
  8
1
  6
CONTINUOUS
 62
   252
370
     5
100
AcDbCircle
 10
12.971231
 20
1.964083
 30
28.520746
 40
0.25
210
0.7272125630778309
220
-0.4139127701773997
230
0.5475747499527741
  0
CIRCLE
  5
271
330
1F
100
AcDbEntity
  8
1
  6
CONTINUOUS
 62
   252
370
     5
100
AcDbCircle
 10
12.971231
 20
1.964083
 30
-28.520746
 40
0.25
210
-0.7272125630778309
220
-0.4139127701773997
230
-0.5475747499527741
  0
CIRCLE
  5
272
330
1F
100
AcDbEntity
  8
1
  6
CONTINUOUS
 62
   252
370
     5
100
AcDbCircle
 10
12.971231
 20
1.964083
 30
-38.110253
 40
0.25
210
-0.7272125630778309
220
-0.4139127701773997
230
-0.5475747499527741
  0
CIRCLE
  5
273
330
1F
100
AcDbEntity
  8
1
  6
CONTINUOUS
 62
   252
370
     5
100
AcDbCircle
 10
-28.506311
 20
27.533996
 30
-9.246046
 40
0.25
210
-0.494409137978836
220
0.8113844106077169
230
0.3117931084963103
  0
CIRCLE
  5
274
330
1F
100
AcDbEntity
  8
1
  6
CONTINUOUS
 62
   252
370
     5
100
AcDbCircle
 10
-28.506311
 20
27.533996
 30
-18.308189
 40
0.25
210
-0.494409137978836
220
0.8113844106077169
230
0.3117931084963103
  0
CIRCLE
  5
275
330
1F
100
AcDbEntity
  8
1
  6
CONTINUOUS
 62
   252
370
     5
100
AcDbCircle
 10
28.506311
 20
27.533996
 30
-9.246046
 40
0.25
210
-0.4944091379788358
220
-0.8113844106077174
230
0.3117931084963102
  0
CIRCLE
  5
276
330
1F
100
AcDbEntity
  8
1
  6
CONTINUOUS
 62
   252
370
     5
100
AcDbCircle
 10
28.506311
 20
27.533996
 30
-18.308189
 40
0.25
210
-0.4944091379788358
220
-0.8113844106077174
230
0.3117931084963102
  0
CIRCLE
  5
277
330
1F
100
AcDbEntity
  8
1
  6
CONTINUOUS
 62
   252
370
     5
100
AcDbCircle
 10
-29.119639
 20
-9.223855
 30
13.61478
 40
0.5
210
-0.05455876303034896
220
-0.3699315070020743
230
0.9274556709103527
  0
CIRCLE
  5
278
330
1F
100
AcDbEntity
  8
1
  6
CONTINUOUS
 62
   252
370
     5
100
AcDbCircle
 10
-29.119639
 20
-9.223855
 30
6.68647
 40
0.5
210
-0.05455876303034896
220
-0.3699315070020743
230
0.9274556709103527
  0
CIRCLE
  5
279
330
1F
100
AcDbEntity
  8
1
  6
CONTINUOUS
 62
   252
370
     5
100
AcDbCircle
 10
0.221938
 20
-12.73454
 30
37.593162
 40
0.25
210
0.8338781731491002
220
-0.1846635340598576
230
0.520140915074024
  0
CIRCLE
  5
27A
330
1F
100
AcDbEntity
  8
1
  6
CONTINUOUS
 62
   252
370
     5
100
AcDbCircle
 10
0.221938
 20
-12.73454
 30
26.272346
 40
0.25
210
0.8338781731491002
220
-0.1846635340598576
230
0.520140915074024
  0
CIRCLE
  5
27B
330
1F
100
AcDbEntity
  8
1
  6
CONTINUOUS
 62
   252
370
     5
100
AcDbCircle
 10
2.5648
 20
-6.593044
 30
-18.422281
 40
0.25
210
0.6828288164748829
220
0.0
230
-0.7305784060533891
  0
CIRCLE
  5
27C
330
1F
100
AcDbEntity
  8
1
  6
CONTINUOUS
 62
   252
370
     5
100
AcDbCircle
 10
2.5648
 20
-6.593044
 30
-25.921425
 40
0.25
210
0.6828288164748829
220
0.0
230
-0.7305784060533891
  0
CIRCLE
  5
27D
330
1F
100
AcDbEntity
  8
1
  6
CONTINUOUS
 62
   252
370
     5
100
AcDbCircle
 10
-10.433713
 20
8.747156
 30
-14.486661
 40
0.25
210
0.8017173233869492
220
-0.5389623352051444
230
-0.2583968548792402
  0
CIRCLE
  5
27E
330
1F
100
AcDbEntity
  8
1
  6
CONTINUOUS
 62
   252
370
     5
100
AcDbCircle
 10
-10.433713
 20
8.747156
 30
-23.164447
 40
0.25
210
0.8017173233869492
220
-0.5389623352051444
230
-0.2583968548792402
  0
CIRCLE
  5
27F
330
1F
100
AcDbEntity
  8
1
  6
CONTINUOUS
 62
   252
370
     5
100
AcDbCircle
 10
-2.1122
 20
6.8324
 30
-18.549808
 40
0.25
210
0.9517854665202202
220
0.0
230
-0.3067644466376226
  0
CIRCLE
  5
280
330
1F
100
AcDbEntity
  8
1
  6
CONTINUOUS
 62
   252
370
     5
100
AcDbCircle
 10
-2.1122
 20
6.8324
 30
-25.859366
 40
0.25
210
0.9517854665202202
220
0.0
230
-0.3067644466376226
  0
CIRCLE
  5
281
330
1F
100
AcDbEntity
  8
1
  6
CONTINUOUS
 62
   252
370
     5
100
AcDbCircle
 10
-2.1122
 20
-6.593044
 30
-18.422281
 40
0.25
210
0.6828288164748829
220
0.0
230
-0.7305784060533891
  0
CIRCLE
  5
282
330
1F
100
AcDbEntity
  8
1
  6
CONTINUOUS
 62
   252
370
     5
100
AcDbCircle
 10
-2.1122
 20
-6.593044
 30
-25.921425
 40
0.25
210
0.6828288164748829
220
0.0
230
-0.7305784060533891
  0
CIRCLE
  5
283
330
1F
100
AcDbEntity
  8
1
  6
CONTINUOUS
 62
   252
370
     5
100
AcDbCircle
 10
2.1122
 20
19.550351
 30
0.795268
 40
0.25
210
-0.4935291586259048
220
0.0
230
-0.8697292507361164
  0
CIRCLE
  5
284
330
1F
100
AcDbEntity
  8
1
  6
CONTINUOUS
 62
   252
370
     5
100
AcDbCircle
 10
2.1122
 20
19.550351
 30
-2.92589
 40
0.25
210
-0.4935291586259048
220
0.0
230
-0.8697292507361164
  0
CIRCLE
  5
285
330
1F
100
AcDbEntity
  8
1
  6
CONTINUOUS
 62
   252
370
     5
100
AcDbCircle
 10
17.252303
 20
0.995967
 30
9.528533
 40
0.25
210
-0.0216762514205882
220
0.4495927392549961
230
0.8929706092215691
  0
CIRCLE
  5
286
330
1F
100
AcDbEntity
  8
1
  6
CONTINUOUS
 62
   252
370
     5
100
AcDbCircle
 10
17.252303
 20
0.995967
 30
2.931452
 40
0.25
210
-0.0216762514205882
220
0.4495927392549961
230
0.8929706092215691
  0
CIRCLE
  5
287
330
1F
100
AcDbEntity
  8
1
  6
CONTINUOUS
 62
   252
370
     5
100
AcDbCircle
 10
17.159642
 20
-0.90547
 30
-3.457473
 40
0.25
210
0.02330466539487961
220
0.2788411362981741
230
-0.9600544324561895
  0
CIRCLE
  5
288
330
1F
100
AcDbEntity
  8
1
  6
CONTINUOUS
 62
   252
370
     5
100
AcDbCircle
 10
17.159642
 20
-0.90547
 30
-9.593584
 40
0.25
210
0.02330466539487961
220
0.2788411362981741
230
-0.9600544324561895
  0
CIRCLE
  5
289
330
1F
100
AcDbEntity
  8
1
  6
CONTINUOUS
 62
   252
370
     5
100
AcDbCircle
 10
-13.6256
 20
0.138245
 30
23.112201
 40
0.25
210
-0.5793834349438417
220
-0.5291879028604946
230
0.6198991843669316
  0
CIRCLE
  5
28A
330
1F
100
AcDbEntity
  8
1
  6
CONTINUOUS
 62
   252
370
     5
100
AcDbCircle
 10
-13.6256
 20
0.138245
 30
14.27413
 40
0.25
210
-0.5793834349438417
220
-0.5291879028604946
230
0.6198991843669316
  0
CIRCLE
  5
28B
330
1F
100
AcDbEntity
  8
1
  6
CONTINUOUS
 62
   252
370
     5
100
AcDbCircle
 10
-38.367037
 20
8.120204
 30
6.123428
 40
0.25
210
-0.1257709691692614
220
0.3449934488416292
230
0.9301404106749599
  0
CIRCLE
  5
28C
330
1F
100
AcDbEntity
  8
1
  6
CONTINUOUS
 62
   252
370
     5
100
AcDbCircle
 10
-38.367037
 20
8.120204
 30
-0.213435
 40
0.25
210
-0.1257709691692614
220
0.3449934488416292
230
0.9301404106749599
  0
CIRCLE
  5
28D
330
1F
100
AcDbEntity
  8
1
  6
CONTINUOUS
 62
   252
370
     5
100
AcDbCircle
 10
38.367037
 20
8.120204
 30
6.123428
 40
0.25
210
-0.1257709691692614
220
-0.3449934488416292
230
0.9301404106749599
  0
CIRCLE
  5
28E
330
1F
100
AcDbEntity
  8
1
  6
CONTINUOUS
 62
   252
370
     5
100
AcDbCircle
 10
38.367037
 20
8.120204
 30
-0.213435
 40
0.25
210
-0.1257709691692614
220
-0.3449934488416292
230
0.9301404106749599
  0
CIRCLE
  5
28F
330
1F
100
AcDbEntity
  8
1
  6
CONTINUOUS
 62
   252
370
     5
100
AcDbCircle
 10
-1.111714
 20
13.882102
 30
-13.073556
 40
0.25
210
0.993525936389917
220
0.0
230
0.113605518002158
  0
CIRCLE
  5
290
330
1F
100
AcDbEntity
  8
1
  6
CONTINUOUS
 62
   252
370
     5
100
AcDbCircle
 10
1.111714
 20
13.882102
 30
14.073556
 40
0.25
210
-0.9935259363899165
220
0.0
230
-0.1136055180021628
  0
CIRCLE
  5
291
330
1F
100
AcDbEntity
  8
1
  6
CONTINUOUS
 62
   252
370
     5
100
AcDbCircle
 10
3.080218
 20
13.882102
 30
14.073556
 40
0.25
210
-0.9935259363899165
220
0.0
230
-0.1136055180021628
  0
CIRCLE
  5
292
330
1F
100
AcDbEntity
  8
1
  6
CONTINUOUS
 62
   252
370
     5
100
AcDbCircle
 10
-3.080218
 20
13.882102
 30
-13.073556
 40
0.25
210
0.993525936389917
220
0.0
230
0.113605518002158
  0
LINE
  5
293
330
1F
100
AcDbEntity
  8
1
  6
CONTINUOUS
 62
   252
370
     5
100
AcDbLine
 10
-15.445528
 20
-0.612218
 30
11.768595
 11
-15.445528
 21
-3.580218
 31
11.768595
  0
CIRCLE
  5
294
330
1F
100
AcDbEntity
  8
1
  6
CONTINUOUS
 62
   252
370
     5
100
AcDbCircle
 10
-3.080218
 20
13.882102
 30
-13.138556
 40
0.315
210
0.9935259363899172
220
0.0
230
0.1136055180021569
  0
LINE
  5
295
330
1F
100
AcDbEntity
  8
1
  6
CONTINUOUS
 62
   252
370
     5
100
AcDbLine
 10
-14.581161
 20
-3.580218
 30
11.867432
 11
-14.679998
 21
-3.580218
 31
12.731799
  0
LINE
  5
296
330
1F
100
AcDbEntity
  8
1
  6
CONTINUOUS
 62
   252
370
     5
100
AcDbLine
 10
-15.445528
 20
-0.612218
 30
11.768595
 11
-14.581161
 21
-0.612218
 31
11.867432
  0
CIRCLE
  5
297
330
1F
100
AcDbEntity
  8
1
  6
CONTINUOUS
 62
   252
370
     5
100
AcDbCircle
 10
-1.111714
 20
13.882102
 30
-13.138556
 40
0.315
210
0.9935259363899172
220
0.0
230
0.1136055180021569
  0
CIRCLE
  5
298
330
1F
100
AcDbEntity
  8
1
  6
CONTINUOUS
 62
   252
370
     5
100
AcDbCircle
 10
1.111714
 20
13.882102
 30
14.008556
 40
0.315
210
-0.9935259363899165
220
0.0
230
-0.1136055180021628
  0
LINE
  5
299
330
1F
100
AcDbEntity
  8
1
  6
CONTINUOUS
 62
   252
370
     5
100
AcDbLine
 10
-14.679998
 20
-0.612218
 30
12.731799
 11
-15.544365
 21
-0.612218
 31
12.632963
  0
LINE
  5
29A
330
1F
100
AcDbEntity
  8
1
  6
CONTINUOUS
 62
   252
370
     5
100
AcDbLine
 10
-15.544365
 20
-3.580218
 30
12.632963
 11
-15.445528
 21
-3.580218
 31
11.768595
  0
LINE
  5
29B
330
1F
100
AcDbEntity
  8
1
  6
CONTINUOUS
 62
   252
370
     5
100
AcDbLine
 10
-14.679998
 20
-3.580218
 30
12.731799
 11
-15.544365
 21
-3.580218
 31
12.632963
  0
LINE
  5
29C
330
1F
100
AcDbEntity
  8
1
  6
CONTINUOUS
 62
   252
370
     5
100
AcDbLine
 10
-14.581161
 20
-0.612218
 30
11.867432
 11
-14.679998
 21
-0.612218
 31
12.731799
  0
LINE
  5
29D
330
1F
100
AcDbEntity
  8
1
  6
CONTINUOUS
 62
   252
370
     5
100
AcDbLine
 10
-15.544365
 20
-0.612218
 30
12.632963
 11
-15.544365
 21
-3.580218
 31
12.632963
  0
LINE
  5
29E
330
1F
100
AcDbEntity
  8
1
  6
CONTINUOUS
 62
   252
370
     5
100
AcDbLine
 10
-14.581161
 20
-0.612218
 30
11.867432
 11
-14.581161
 21
-3.580218
 31
11.867432
  0
CIRCLE
  5
29F
330
1F
100
AcDbEntity
  8
1
  6
CONTINUOUS
 62
   252
370
     5
100
AcDbCircle
 10
3.080218
 20
13.882102
 30
14.008556
 40
0.315
210
-0.9935259363899165
220
0.0
230
-0.1136055180021628
  0
LINE
  5
2A0
330
1F
100
AcDbEntity
  8
1
  6
CONTINUOUS
 62
   252
370
     5
100
AcDbLine
 10
-15.544365
 20
-0.612218
 30
12.632963
 11
-15.445528
 21
-0.612218
 31
11.768595
  0
LINE
  5
2A1
330
1F
100
AcDbEntity
  8
1
  6
CONTINUOUS
 62
   252
370
     5
100
AcDbLine
 10
-14.679998
 20
-0.612218
 30
12.731799
 11
-14.679998
 21
-3.580218
 31
12.731799
  0
LINE
  5
2A2
330
1F
100
AcDbEntity
  8
1
  6
CONTINUOUS
 62
   252
370
     5
100
AcDbLine
 10
-15.445528
 20
-3.580218
 30
11.768595
 11
-14.581161
 21
-3.580218
 31
11.867432
  0
CIRCLE
  5
2A3
330
1F
100
AcDbEntity
  8
1
  6
CONTINUOUS
 62
   252
370
     5
100
AcDbCircle
 10
-1.746079
 20
10.3
 30
24.984019
 40
0.5
210
0.1293391840677689
220
-0.9916004111862218
230
0.0
  0
CIRCLE
  5
2A4
330
1F
100
AcDbEntity
  8
1
  6
CONTINUOUS
 62
   252
370
     5
100
AcDbCircle
 10
-1.746079
 20
10.3
 30
13.386606
 40
0.5
210
0.1293391840677689
220
-0.9916004111862218
230
0.0
  0
CIRCLE
  5
2A5
330
1F
100
AcDbEntity
  8
1
  6
CONTINUOUS
 62
   252
370
     5
100
AcDbCircle
 10
-25.020869
 20
10.242519
 30
22.607729
 40
0.5
210
0.9936780808757548
220
0.1035081334245602
230
-0.04347341603831432
  0
CIRCLE
  5
2A6
330
1F
100
AcDbEntity
  8
1
  6
CONTINUOUS
 62
   252
370
     5
100
AcDbCircle
 10
-25.020869
 20
10.242519
 30
-1.544962
 40
0.5
210
0.9936780808757548
220
0.1035081334245602
230
-0.04347341603831432
  0
CIRCLE
  5
2A7
330
1F
100
AcDbEntity
  8
1
  6
CONTINUOUS
 62
   252
370
     5
100
AcDbCircle
 10
24.986404
 20
8.330292
 30
6.294908
 40
0.5
210
-0.8785794626757112
220
-0.1133650919581563
230
0.4639466388387545
  0
CIRCLE
  5
2A8
330
1F
100
AcDbEntity
  8
1
  6
CONTINUOUS
 62
   252
370
     5
100
AcDbCircle
 10
24.986404
 20
8.330292
 30
-11.347207
 40
0.5
210
-0.8785794626757112
220
-0.1133650919581563
230
0.4639466388387545
  0
CIRCLE
  5
2A9
330
1F
100
AcDbEntity
  8
1
  6
CONTINUOUS
 62
   252
370
     5
100
AcDbCircle
 10
-24.808691
 20
-0.586734
 30
-1.197744
 40
0.5
210
0.2592518623294796
220
0.05185037246589588
230
-0.9644169278656636
  0
CIRCLE
  5
2AA
330
1F
100
AcDbEntity
  8
1
  6
CONTINUOUS
 62
   252
370
     5
100
AcDbCircle
 10
-24.808691
 20
-0.586734
 30
-10.840876
 40
0.5
210
0.2592518623294796
220
0.05185037246589588
230
-0.9644169278656636
  0
CIRCLE
  5
2AB
330
1F
100
AcDbEntity
  8
1
  6
CONTINUOUS
 62
   252
370
     5
100
AcDbCircle
 10
-24.797015
 20
0.897456
 30
14.379702
 40
0.5
210
0.9898225219248958
220
0.1142102909913338
230
0.08489631630355837
  0
CIRCLE
  5
2AC
330
1F
100
AcDbEntity
  8
1
  6
CONTINUOUS
 62
   252
370
     5
100
AcDbCircle
 10
-24.797015
 20
0.897456
 30
1.246034
 40
0.5
210
0.9898225219248958
220
0.1142102909913338
230
0.08489631630355837
  0
CIRCLE
  5
2AD
330
1F
100
AcDbEntity
  8
1
  6
CONTINUOUS
 62
   252
370
     5
100
AcDbCircle
 10
23.958585
 20
-8.411303
 30
-13.33077
 40
0.5
210
-0.7651505113010265
220
-0.04500885360594269
230
-0.6422763409568006
  0
CIRCLE
  5
2AE
330
1F
100
AcDbEntity
  8
1
  6
CONTINUOUS
 62
   252
370
     5
100
AcDbCircle
 10
23.958585
 20
-8.411303
 30
-24.439695
 40
0.5
210
-0.7651505113010265
220
-0.04500885360594269
230
-0.6422763409568006
  0
CIRCLE
  5
2AF
330
1F
100
AcDbEntity
  8
1
  6
CONTINUOUS
 62
   252
370
     5
100
AcDbCircle
 10
1.746079
 20
23.231889
 30
0.693202
 40
0.5
210
-0.1034630397748763
220
0.7932166382740522
230
0.6000856306942819
  0
CIRCLE
  5
2B0
330
1F
100
AcDbEntity
  8
1
  6
CONTINUOUS
 62
   252
370
     5
100
AcDbCircle
 10
1.746079
 20
23.231889
 30
-13.804729
 40
0.5
210
-0.1034630397748763
220
0.7932166382740522
230
0.6000856306942819
  0
CIRCLE
  5
2B1
330
1F
100
AcDbEntity
  8
1
  6
CONTINUOUS
 62
   252
370
     5
100
AcDbCircle
 10
25.020869
 20
10.242519
 30
22.607729
 40
0.5
210
0.9936780808757548
220
-0.1035081334245602
230
-0.04347341603831432
  0
CIRCLE
  5
2B2
330
1F
100
AcDbEntity
  8
1
  6
CONTINUOUS
 62
   252
370
     5
100
AcDbCircle
 10
25.020869
 20
10.242519
 30
-1.544962
 40
0.5
210
0.9936780808757548
220
-0.1035081334245602
230
-0.04347341603831432
  0
CIRCLE
  5
2B3
330
1F
100
AcDbEntity
  8
1
  6
CONTINUOUS
 62
   252
370
     5
100
AcDbCircle
 10
-23.958585
 20
-8.411303
 30
-13.33077
 40
0.5
210
-0.7651505113010265
220
0.04500885360594269
230
-0.6422763409568006
  0
CIRCLE
  5
2B4
330
1F
100
AcDbEntity
  8
1
  6
CONTINUOUS
 62
   252
370
     5
100
AcDbCircle
 10
-23.958585
 20
-8.411303
 30
-24.439695
 40
0.5
210
-0.7651505113010265
220
0.04500885360594269
230
-0.6422763409568006
  0
CIRCLE
  5
2B5
330
1F
100
AcDbEntity
  8
1
  6
CONTINUOUS
 62
   252
370
     5
100
AcDbCircle
 10
24.986404
 20
8.330292
 30
11.347207
 40
0.5
210
0.8785794626757103
220
-0.1133650919581562
230
-0.4639466388387561
  0
CIRCLE
  5
2B6
330
1F
100
AcDbEntity
  8
1
  6
CONTINUOUS
 62
   252
370
     5
100
AcDbCircle
 10
24.986404
 20
8.330292
 30
-6.294908
 40
0.5
210
0.8785794626757103
220
-0.1133650919581562
230
-0.4639466388387561
  0
CIRCLE
  5
2B7
330
1F
100
AcDbEntity
  8
1
  6
CONTINUOUS
 62
   252
370
     5
100
AcDbCircle
 10
24.797015
 20
0.897456
 30
14.379702
 40
0.5
210
0.9898225219248958
220
-0.1142102909913338
230
0.08489631630355837
  0
CIRCLE
  5
2B8
330
1F
100
AcDbEntity
  8
1
  6
CONTINUOUS
 62
   252
370
     5
100
AcDbCircle
 10
24.797015
 20
0.897456
 30
1.246034
 40
0.5
210
0.9898225219248958
220
-0.1142102909913338
230
0.08489631630355837
  0
CIRCLE
  5
2B9
330
1F
100
AcDbEntity
  8
1
  6
CONTINUOUS
 62
   252
370
     5
100
AcDbCircle
 10
-24.808691
 20
-0.586734
 30
10.840876
 40
0.5
210
-0.2592518623294808
220
0.05185037246589589
230
0.9644169278656632
  0
CIRCLE
  5
2BA
330
1F
100
AcDbEntity
  8
1
  6
CONTINUOUS
 62
   252
370
     5
100
AcDbCircle
 10
-24.808691
 20
-0.586734
 30
1.197744
 40
0.5
210
-0.2592518623294808
220
0.05185037246589589
230
0.9644169278656632
  0
CIRCLE
  5
2BB
330
1F
100
AcDbEntity
  8
1
  6
CONTINUOUS
 62
   252
370
     5
100
AcDbCircle
 10
1.746079
 20
23.231889
 30
13.804729
 40
0.5
210
0.1034630397748763
220
0.7932166382740522
230
-0.6000856306942819
  0
CIRCLE
  5
2BC
330
1F
100
AcDbEntity
  8
1
  6
CONTINUOUS
 62
   252
370
     5
100
AcDbCircle
 10
1.746079
 20
23.231889
 30
-0.693202
 40
0.5
210
0.1034630397748763
220
0.7932166382740522
230
-0.6000856306942819
  0
CIRCLE
  5
2BD
330
1F
100
AcDbEntity
  8
1
  6
CONTINUOUS
 62
   252
370
     5
100
AcDbCircle
 10
1.746079
 20
10.3
 30
24.984019
 40
0.5
210
0.1293391840677689
220
0.9916004111862218
230
0.0
  0
CIRCLE
  5
2BE
330
1F
100
AcDbEntity
  8
1
  6
CONTINUOUS
 62
   252
370
     5
100
AcDbCircle
 10
1.746079
 20
10.3
 30
13.386606
 40
0.5
210
0.1293391840677689
220
0.9916004111862218
230
0.0
  0
CIRCLE
  5
2BF
330
1F
100
AcDbEntity
  8
1
  6
CONTINUOUS
 62
   252
370
     5
100
AcDbCircle
 10
-8.0957
 20
1.152
 30
11.383
 40
0.5
210
0.0
220
1.0
230
0.0
  0
CIRCLE
  5
2C0
330
1F
100
AcDbEntity
  8
1
  6
CONTINUOUS
 62
   252
370
     5
100
AcDbCircle
 10
-8.0957
 20
1.152
 30
-11.383
 40
0.5
210
0.0
220
1.0
230
0.0
  0
CIRCLE
  5
2C1
330
1F
100
AcDbEntity
  8
1
  6
CONTINUOUS
 62
   252
370
     5
100
AcDbCircle
 10
21.315183
 20
2.115
 30
-4.011388
 40
0.5
210
0.2030074388598437
220
-0.9791771952856986
230
0.0
  0
CIRCLE
  5
2C2
330
1F
100
AcDbEntity
  8
1
  6
CONTINUOUS
 62
   252
370
     5
100
AcDbCircle
 10
21.315183
 20
2.115
 30
-19.069949
 40
0.5
210
0.2030074388598437
220
-0.9791771952856986
230
0.0
  0
CIRCLE
  5
2C3
330
1F
100
AcDbEntity
  8
1
  6
CONTINUOUS
 62
   252
370
     5
100
AcDbCircle
 10
11.120474
 20
1.245422
 30
-8.439439
 40
0.5
210
0.2980338272782996
220
-0.9544912255315193
230
0.01106065916602812
  0
CIRCLE
  5
2C4
330
1F
100
AcDbEntity
  8
1
  6
CONTINUOUS
 62
   252
370
     5
100
AcDbCircle
 10
11.120474
 20
1.245422
 30
-22.181839
 40
0.5
210
0.2980338272782996
220
-0.9544912255315193
230
0.01106065916602812
  0
CIRCLE
  5
2C5
330
1F
100
AcDbEntity
  8
1
  6
CONTINUOUS
 62
   252
370
     5
100
AcDbCircle
 10
-21.315183
 20
2.115
 30
-4.011388
 40
0.5
210
0.2030074388598428
220
0.9791771952856987
230
0.0
  0
CIRCLE
  5
2C6
330
1F
100
AcDbEntity
  8
1
  6
CONTINUOUS
 62
   252
370
     5
100
AcDbCircle
 10
-21.315183
 20
2.115
 30
-19.069949
 40
0.5
210
0.2030074388598428
220
0.9791771952856987
230
0.0
  0
CIRCLE
  5
2C7
330
1F
100
AcDbEntity
  8
1
  6
CONTINUOUS
 62
   252
370
     5
100
AcDbCircle
 10
-11.120474
 20
1.245422
 30
-8.439439
 40
0.5
210
0.2980338272782996
220
0.9544912255315193
230
0.01106065916602812
  0
CIRCLE
  5
2C8
330
1F
100
AcDbEntity
  8
1
  6
CONTINUOUS
 62
   252
370
     5
100
AcDbCircle
 10
-11.120474
 20
1.245422
 30
-22.181839
 40
0.5
210
0.2980338272782996
220
0.9544912255315193
230
0.01106065916602812
  0
CIRCLE
  5
2C9
330
1F
100
AcDbEntity
  8
1
  6
CONTINUOUS
 62
   252
370
     5
100
AcDbCircle
 10
30.95449
 20
8.723086
 30
14.414915
 40
0.5
210
-0.2915168458482406
220
-0.9558511235451113
230
0.03696698803313263
  0
CIRCLE
  5
2CA
330
1F
100
AcDbEntity
  8
1
  6
CONTINUOUS
 62
   252
370
     5
100
AcDbCircle
 10
30.95449
 20
8.723086
 30
-0.517326
 40
0.5
210
-0.2915168458482406
220
-0.9558511235451113
230
0.03696698803313263
  0
CIRCLE
  5
2CB
330
1F
100
AcDbEntity
  8
1
  6
CONTINUOUS
 62
   252
370
     5
100
AcDbCircle
 10
30.95449
 20
8.723086
 30
0.517326
 40
0.5
210
0.2915168458482365
220
-0.9558511235451123
230
-0.03696698803313261
  0
CIRCLE
  5
2CC
330
1F
100
AcDbEntity
  8
1
  6
CONTINUOUS
 62
   252
370
     5
100
AcDbCircle
 10
30.95449
 20
8.723086
 30
-14.414915
 40
0.5
210
0.2915168458482365
220
-0.9558511235451123
230
-0.03696698803313261
  0
ENDSEC
  0
SECTION
  2
OBJECTS
  0
DICTIONARY
  5
C
330
0
100
AcDbDictionary
281
     1
  3
ACAD_GROUP
350
D
  3
ACAD_LAYOUT
350
1A
  3
ACAD_MATERIAL
350
3B
  3
ACAD_MLEADERSTYLE
350
30C
  3
ACAD_MLINESTYLE
350
17
  3
ACAD_PLOTSETTINGS
350
19
  3
ACAD_PLOTSTYLENAME
350
E
  3
ACAD_TABLESTYLE
350
30B
  3
ACAD_VISUALSTYLE
350
2A
  0
DICTIONARY
  5
D
102
{ACAD_REACTORS
330
C
102
}
330
C
100
AcDbDictionary
281
     1
  0
DICTIONARY
  5
1A
102
{ACAD_REACTORS
330
C
102
}
330
C
100
AcDbDictionary
281
     1
  3
Layout1
350
1E
  3
Layout2
350
26
  3
Model
350
22
  0
DICTIONARY
  5
3B
102
{ACAD_REACTORS
330
C
102
}
330
C
100
AcDbDictionary
281
     1
  3
BYBLOCK
350
3D
  3
BYLAYER
350
3C
  3
Global
350
3E
  0
DICTIONARY
  5
30C
102
{ACAD_REACTORS
330
C
102
}
330
C
100
AcDbDictionary
281
     1
  0
DICTIONARY
  5
17
102
{ACAD_REACTORS
330
C
102
}
330
C
100
AcDbDictionary
281
     1
  3
Standard
350
18
  0
DICTIONARY
  5
19
102
{ACAD_REACTORS
330
C
102
}
330
C
100
AcDbDictionary
281
     1
  0
ACDBDICTIONARYWDFLT
  5
E
102
{ACAD_REACTORS
330
C
102
}
330
C
100
AcDbDictionary
281
     1
  3
Normal
350
F
100
AcDbDictionaryWithDefault
340
F
  0
DICTIONARY
  5
30B
102
{ACAD_REACTORS
330
C
102
}
330
C
100
AcDbDictionary
281
     1
  0
DICTIONARY
  5
2A
102
{ACAD_REACTORS
330
C
102
}
330
C
100
AcDbDictionary
281
     1
  3
2dWireframe
350
2F
  3
3D Hidden
350
31
  3
3dWireframe
350
30
  3
Basic
350
32
  3
Brighten
350
36
  3
ColorChange
350
3A
  3
Conceptual
350
34
  3
Dim
350
35
  3
Facepattern
350
39
  3
Flat
350
2B
  3
FlatWithEdges
350
2C
  3
Gouraud
350
2D
  3
GouraudWithEdges
350
2E
  3
Linepattern
350
38
  3
Realistic
350
33
  3
Thicken
350
37
  0
LAYOUT
  5
1E
102
{ACAD_REACTORS
330
1A
102
}
330
1A
100
AcDbPlotSettings
  1

  2
none_device
  4

  6

 40
0.0
 41
0.0
 42
0.0
 43
0.0
 44
0.0
 45
0.0
 46
0.0
 47
0.0
 48
0.0
 49
0.0
140
0.0
141
0.0
142
1.0
143
1.0
 70
   688
 72
     0
 73
     0
 74
     5
  7

 75
    16
 76
     0
 77
     2
 78
   300
147
1.0
148
0.0
149
0.0
100
AcDbLayout
  1
Layout1
 70
     1
 71
     1
 10
-0.5
 20
-0.5
 11
5.0
 21
5.0
 12
0.0
 22
0.0
 32
0.0
 14
-0.5
 24
-0.5
 34
-0.5
 15
5.0
 25
5.0
 35
5.0
146
0.0
 13
0.0
 23
0.0
 33
0.0
 16
1.0
 26
0.0
 36
0.0
 17
0.0
 27
1.0
 37
0.0
 76
     0
330
1B
  0
LAYOUT
  5
26
102
{ACAD_REACTORS
330
1A
102
}
330
1A
100
AcDbPlotSettings
  1

  2
none_device
  4

  6

 40
0.0
 41
0.0
 42
0.0
 43
0.0
 44
0.0
 45
0.0
 46
0.0
 47
0.0
 48
0.0
 49
0.0
140
0.0
141
0.0
142
1.0
143
1.0
 70
   688
 72
     0
 73
     0
 74
     5
  7

 75
    16
 76
     0
 77
     2
 78
   300
147
1.0
148
0.0
149
0.0
100
AcDbLayout
  1
Layout2
 70
     1
 71
     2
 10
0.0
 20
0.0
 11
0.0
 21
0.0
 12
0.0
 22
0.0
 32
0.0
 14
0.0
 24
0.0
 34
0.0
 15
0.0
 25
0.0
 35
0.0
146
0.0
 13
0.0
 23
0.0
 33
0.0
 16
1.0
 26
0.0
 36
0.0
 17
0.0
 27
1.0
 37
0.0
 76
     0
330
23
  0
LAYOUT
  5
22
102
{ACAD_REACTORS
330
1A
102
}
330
1A
100
AcDbPlotSettings
  1

  2
none_device
  4

  6

 40
0.0
 41
0.0
 42
0.0
 43
0.0
 44
0.0
 45
0.0
 46
0.0
 47
0.0
 48
0.0
 49
0.0
140
0.0
141
0.0
142
1.0
143
1.0
 70
  1712
 72
     0
 73
     0
 74
     0
  7

 75
     0
 76
     0
 77
     2
 78
   300
147
1.0
148
0.0
149
0.0
100
AcDbLayout
  1
Model
 70
     1
 71
     0
 10
-0.5
 20
-0.5
 11
5.0
 21
5.0
 12
0.0
 22
0.0
 32
0.0
 14
-0.5
 24
-0.5
 34
-0.5
 15
5.0
 25
5.0
 35
5.0
146
0.0
 13
0.0
 23
0.0
 33
0.0
 16
1.0
 26
0.0
 36
0.0
 17
0.0
 27
1.0
 37
0.0
 76
     0
330
1F
331
29
  0
MATERIAL
  5
3D
102
{ACAD_REACTORS
330
3B
102
}
102
{ACAD_XDICTIONARY
360
307
102
}
330
3B
100
AcDbMaterial
  1
BYBLOCK
  0
MATERIAL
  5
3C
102
{ACAD_REACTORS
330
3B
102
}
102
{ACAD_XDICTIONARY
360
305
102
}
330
3B
100
AcDbMaterial
  1
BYLAYER
  0
MATERIAL
  5
3E
102
{ACAD_REACTORS
330
3B
102
}
102
{ACAD_XDICTIONARY
360
309
102
}
330
3B
100
AcDbMaterial
  1
Global
  0
MLINESTYLE
  5
18
102
{ACAD_REACTORS
330
17
102
}
330
17
100
AcDbMlineStyle
  2
Standard
 70
     0
  3

 62
   256
 51
90.0
 52
90.0
 71
     2
 49
0.5
 62
   256
  6
BYLAYER
 49
-0.5
 62
   256
  6
BYLAYER
  0
ACDBPLACEHOLDER
  5
F
102
{ACAD_REACTORS
330
E
102
}
330
E
  0
VISUALSTYLE
  5
2F
102
{ACAD_REACTORS
330
2A
102
}
102
{ACAD_XDICTIONARY
360
2ED
102
}
330
2A
100
AcDbVisualStyle
  2
2dWireframe
 70
     4
 71
     0
 72
     2
 73
     0
 90
        0
 40
-0.6
 41
-30.0
 62
     5
 63
     7
421
 16777215
 74
     1
 91
        4
 64
     7
 65
   257
 75
     1
175
     1
 42
1.0
 92
        0
 66
   257
 43
1.0
 76
     1
 77
     6
 78
     2
 67
     7
 79
     5
170
     0
171
     0
290
     0
174
     0
 93
        1
 44
0.0
173
     0
291
     0
 45
0.0
1001
ACAD
1000
AcDbSavedByObjectVersion
1070
     0
  0
VISUALSTYLE
  5
31
102
{ACAD_REACTORS
330
2A
102
}
102
{ACAD_XDICTIONARY
360
2F1
102
}
330
2A
100
AcDbVisualStyle
  2
3D Hidden
 70
     6
 71
     1
 72
     2
 73
     2
 90
        0
 40
-0.6
 41
-30.0
 62
     5
 63
     7
421
 16777215
 74
     2
 91
        2
 64
     7
 65
   257
 75
     2
175
     1
 42
40.0
 92
        0
 66
   257
 43
1.0
 76
     1
 77
     6
 78
     2
 67
     7
 79
     3
170
     0
171
     0
290
     0
174
     0
 93
        1
 44
0.0
173
     0
291
     0
 45
0.0
1001
ACAD
1000
AcDbSavedByObjectVersion
1070
     0
  0
VISUALSTYLE
  5
30
102
{ACAD_REACTORS
330
2A
102
}
102
{ACAD_XDICTIONARY
360
2EF
102
}
330
2A
100
AcDbVisualStyle
  2
3dWireframe
 70
     5
 71
     0
 72
     2
 73
     0
 90
        0
 40
-0.6
 41
-30.0
 62
     5
 63
     7
421
 16777215
 74
     1
 91
        4
 64
     7
 65
   257
 75
     1
175
     1
 42
1.0
 92
        0
 66
   257
 43
1.0
 76
     1
 77
     6
 78
     2
 67
     7
 79
     5
170
     0
171
     0
290
     0
174
     0
 93
        1
 44
0.0
173
     0
291
     0
 45
0.0
1001
ACAD
1000
AcDbSavedByObjectVersion
1070
     0
  0
VISUALSTYLE
  5
32
102
{ACAD_REACTORS
330
2A
102
}
102
{ACAD_XDICTIONARY
360
2F3
102
}
330
2A
100
AcDbVisualStyle
  2
Basic
 70
     7
 71
     1
 72
     0
 73
     1
 90
        0
 40
-0.6
 41
-30.0
 62
     5
 63
     7
421
 16777215
 74
     0
 91
        4
 64
     7
 65
   257
 75
     1
175
     1
 42
1.0
 92
        8
 66
     7
 43
1.0
 76
     1
 77
     6
 78
     2
 67
     7
 79
     5
170
     0
171
     0
290
     0
174
     0
 93
        1
 44
0.0
173
     0
291
     1
 45
0.0
1001
ACAD
1000
AcDbSavedByObjectVersion
1070
     0
  0
VISUALSTYLE
  5
36
102
{ACAD_REACTORS
330
2A
102
}
102
{ACAD_XDICTIONARY
360
2FB
102
}
330
2A
100
AcDbVisualStyle
  2
Brighten
 70
    12
 71
     2
 72
     2
 73
     0
 90
        0
 40
-0.6
 41
-30.0
 62
     5
 63
     7
421
 16777215
 74
     1
 91
        4
 64
     7
 65
   257
 75
     1
175
     1
 42
1.0
 92
        8
 66
     7
 43
1.0
 76
     1
 77
     6
 78
     2
 67
     7
 79
     5
170
     0
171
     0
290
     0
174
     0
 93
        1
 44
50.0
173
     0
291
     1
 45
0.0
1001
ACAD
1000
AcDbSavedByObjectVersion
1070
     0
  0
VISUALSTYLE
  5
3A
102
{ACAD_REACTORS
330
2A
102
}
102
{ACAD_XDICTIONARY
360
303
102
}
330
2A
100
AcDbVisualStyle
  2
ColorChange
 70
    16
 71
     2
 72
     2
 73
     3
 90
        0
 40
-0.6
 41
-30.0
 62
     5
 63
     8
421
  8421504
 74
     1
 91
        4
 64
     7
 65
   257
 75
     1
175
     1
 42
1.0
 92
        8
 66
     8
424
  8421504
 43
1.0
 76
     1
 77
     6
 78
     2
 67
     7
 79
     5
170
     0
171
     0
290
     0
174
     0
 93
        1
 44
0.0
173
     0
291
     1
 45
0.0
1001
ACAD
1000
AcDbSavedByObjectVersion
1070
     0
  0
VISUALSTYLE
  5
34
102
{ACAD_REACTORS
330
2A
102
}
102
{ACAD_XDICTIONARY
360
2F7
102
}
330
2A
100
AcDbVisualStyle
  2
Conceptual
 70
     9
 71
     3
 72
     2
 73
     0
 90
        0
 40
-0.6
 41
-30.0
 62
     5
 63
     7
421
 16777215
 74
     2
 91
        2
 64
     7
 65
   257
 75
     1
175
     1
 42
40.0
 92
        8
 66
     7
 43
1.0
 76
     1
 77
     6
 78
     2
 67
     7
 79
     3
170
     0
171
     0
290
     0
174
     0
 93
        1
 44
0.0
173
     0
291
     0
 45
0.0
1001
ACAD
1000
AcDbSavedByObjectVersion
1070
     0
  0
VISUALSTYLE
  5
35
102
{ACAD_REACTORS
330
2A
102
}
102
{ACAD_XDICTIONARY
360
2F9
102
}
330
2A
100
AcDbVisualStyle
  2
Dim
 70
    11
 71
     2
 72
     2
 73
     0
 90
        0
 40
-0.6
 41
-30.0
 62
     5
 63
     7
421
 16777215
 74
     1
 91
        4
 64
     7
 65
   257
 75
     1
175
     1
 42
1.0
 92
        8
 66
     7
 43
1.0
 76
     1
 77
     6
 78
     2
 67
     7
 79
     5
170
     0
171
     0
290
     0
174
     0
 93
        1
 44
-50.0
173
     0
291
     1
 45
0.0
1001
ACAD
1000
AcDbSavedByObjectVersion
1070
     0
  0
VISUALSTYLE
  5
39
102
{ACAD_REACTORS
330
2A
102
}
102
{ACAD_XDICTIONARY
360
301
102
}
330
2A
100
AcDbVisualStyle
  2
Facepattern
 70
    15
 71
     2
 72
     2
 73
     0
 90
        0
 40
-0.6
 41
-30.0
 62
     5
 63
     7
421
 16777215
 74
     1
 91
        4
 64
     7
 65
   257
 75
     1
175
     1
 42
1.0
 92
        8
 66
     7
 43
1.0
 76
     1
 77
     6
 78
     2
 67
     7
 79
     5
170
     0
171
     0
290
     0
174
     0
 93
        1
 44
0.0
173
     0
291
     1
 45
0.0
1001
ACAD
1000
AcDbSavedByObjectVersion
1070
     0
  0
VISUALSTYLE
  5
2B
102
{ACAD_REACTORS
330
2A
102
}
102
{ACAD_XDICTIONARY
360
2E5
102
}
330
2A
100
AcDbVisualStyle
  2
Flat
 70
     0
 71
     2
 72
     1
 73
     1
 90
        2
 40
-0.6
 41
30.0
 62
     5
 63
     7
421
 16777215
 74
     0
 91
        4
 64
     7
 65
   257
 75
     1
175
     1
 42
1.0
 92
        8
 66
     7
 43
1.0
 76
     1
 77
     6
 78
     2
 67
     7
 79
     5
170
     0
171
     0
290
     0
174
     0
 93
       13
 44
0.0
173
     0
291
     1
 45
0.0
1001
ACAD
1000
AcDbSavedByObjectVersion
1070
     0
  0
VISUALSTYLE
  5
2C
102
{ACAD_REACTORS
330
2A
102
}
102
{ACAD_XDICTIONARY
360
2E7
102
}
330
2A
100
AcDbVisualStyle
  2
FlatWithEdges
 70
     1
 71
     2
 72
     1
 73
     1
 90
        2
 40
-0.6
 41
30.0
 62
     5
 63
     7
421
 16777215
 74
     1
 91
        4
 64
     7
 65
   257
 75
     1
175
     1
 42
1.0
 92
        0
 66
   257
 43
1.0
 76
     1
 77
     6
 78
     2
 67
     7
 79
     5
170
     0
171
     0
290
     0
174
     0
 93
       13
 44
0.0
173
     0
291
     1
 45
0.0
1001
ACAD
1000
AcDbSavedByObjectVersion
1070
     0
  0
VISUALSTYLE
  5
2D
102
{ACAD_REACTORS
330
2A
102
}
102
{ACAD_XDICTIONARY
360
2E9
102
}
330
2A
100
AcDbVisualStyle
  2
Gouraud
 70
     2
 71
     2
 72
     2
 73
     1
 90
        2
 40
-0.6
 41
30.0
 62
     5
 63
     7
421
 16777215
 74
     0
 91
        4
 64
     7
 65
   257
 75
     1
175
     1
 42
1.0
 92
        0
 66
     7
 43
1.0
 76
     1
 77
     6
 78
     2
 67
     7
 79
     5
170
     0
171
     0
290
     0
174
     0
 93
       13
 44
0.0
173
     0
291
     1
 45
0.0
1001
ACAD
1000
AcDbSavedByObjectVersion
1070
     0
  0
VISUALSTYLE
  5
2E
102
{ACAD_REACTORS
330
2A
102
}
102
{ACAD_XDICTIONARY
360
2EB
102
}
330
2A
100
AcDbVisualStyle
  2
GouraudWithEdges
 70
     3
 71
     2
 72
     2
 73
     1
 90
        2
 40
-0.6
 41
30.0
 62
     5
 63
     7
421
 16777215
 74
     1
 91
        4
 64
     7
 65
   257
 75
     1
175
     1
 42
1.0
 92
        0
 66
   257
 43
1.0
 76
     1
 77
     6
 78
     2
 67
     7
 79
     5
170
     0
171
     0
290
     0
174
     0
 93
       13
 44
0.0
173
     0
291
     1
 45
0.0
1001
ACAD
1000
AcDbSavedByObjectVersion
1070
     0
  0
VISUALSTYLE
  5
38
102
{ACAD_REACTORS
330
2A
102
}
102
{ACAD_XDICTIONARY
360
2FF
102
}
330
2A
100
AcDbVisualStyle
  2
Linepattern
 70
    14
 71
     2
 72
     2
 73
     0
 90
        0
 40
-0.6
 41
-30.0
 62
     5
 63
     7
421
 16777215
 74
     1
 91
        4
 64
     7
 65
   257
 75
     7
175
     7
 42
1.0
 92
        8
 66
     7
 43
1.0
 76
     1
 77
     6
 78
     2
 67
     7
 79
     5
170
     0
171
     0
290
     0
174
     0
 93
        1
 44
0.0
173
     0
291
     1
 45
0.0
1001
ACAD
1000
AcDbSavedByObjectVersion
1070
     0
  0
VISUALSTYLE
  5
33
102
{ACAD_REACTORS
330
2A
102
}
102
{ACAD_XDICTIONARY
360
2F5
102
}
330
2A
100
AcDbVisualStyle
  2
Realistic
 70
     8
 71
     2
 72
     2
 73
     0
 90
        0
 40
-0.6
 41
-30.0
 62
     5
 63
     7
421
 16777215
 74
     1
 91
        0
 64
     7
 65
   257
 75
     1
175
     1
 42
1.0
 92
        8
 66
     8
424
  7895160
 43
1.0
 76
     1
 77
     6
 78
     2
 67
     7
 79
     5
170
     0
171
     0
290
     0
174
     0
 93
       13
 44
0.0
173
     0
291
     0
 45
0.0
1001
ACAD
1000
AcDbSavedByObjectVersion
1070
     0
  0
VISUALSTYLE
  5
37
102
{ACAD_REACTORS
330
2A
102
}
102
{ACAD_XDICTIONARY
360
2FD
102
}
330
2A
100
AcDbVisualStyle
  2
Thicken
 70
    13
 71
     2
 72
     2
 73
     0
 90
        0
 40
-0.6
 41
-30.0
 62
     5
 63
     7
421
 16777215
 74
     1
 91
        4
 64
     7
 65
   257
 75
     1
175
     1
 42
1.0
 92
       12
 66
     7
 43
1.0
 76
     1
 77
     6
 78
     2
 67
     7
 79
     5
170
     0
171
     0
290
     0
174
     0
 93
        1
 44
0.0
173
     0
291
     1
 45
0.0
1001
ACAD
1000
AcDbSavedByObjectVersion
1070
     0
  0
DICTIONARY
  5
307
330
3D
100
AcDbDictionary
280
     1
281
     1
  3
ACAD_XREC_ROUNDTRIP
360
308
  0
DICTIONARY
  5
305
330
3C
100
AcDbDictionary
280
     1
281
     1
  3
ACAD_XREC_ROUNDTRIP
360
306
  0
DICTIONARY
  5
309
330
3E
100
AcDbDictionary
280
     1
281
     1
  3
ACAD_XREC_ROUNDTRIP
360
30A
  0
DICTIONARY
  5
2ED
330
2F
100
AcDbDictionary
280
     1
281
     1
  3
ACAD_XREC_ROUNDTRIP
360
2EE
  0
DICTIONARY
  5
2F1
330
31
100
AcDbDictionary
280
     1
281
     1
  3
ACAD_XREC_ROUNDTRIP
360
2F2
  0
DICTIONARY
  5
2EF
330
30
100
AcDbDictionary
280
     1
281
     1
  3
ACAD_XREC_ROUNDTRIP
360
2F0
  0
DICTIONARY
  5
2F3
330
32
100
AcDbDictionary
280
     1
281
     1
  3
ACAD_XREC_ROUNDTRIP
360
2F4
  0
DICTIONARY
  5
2FB
330
36
100
AcDbDictionary
280
     1
281
     1
  3
ACAD_XREC_ROUNDTRIP
360
2FC
  0
DICTIONARY
  5
303
330
3A
100
AcDbDictionary
280
     1
281
     1
  3
ACAD_XREC_ROUNDTRIP
360
304
  0
DICTIONARY
  5
2F7
330
34
100
AcDbDictionary
280
     1
281
     1
  3
ACAD_XREC_ROUNDTRIP
360
2F8
  0
DICTIONARY
  5
2F9
330
35
100
AcDbDictionary
280
     1
281
     1
  3
ACAD_XREC_ROUNDTRIP
360
2FA
  0
DICTIONARY
  5
301
330
39
100
AcDbDictionary
280
     1
281
     1
  3
ACAD_XREC_ROUNDTRIP
360
302
  0
DICTIONARY
  5
2E5
330
2B
100
AcDbDictionary
280
     1
281
     1
  3
ACAD_XREC_ROUNDTRIP
360
2E6
  0
DICTIONARY
  5
2E7
330
2C
100
AcDbDictionary
280
     1
281
     1
  3
ACAD_XREC_ROUNDTRIP
360
2E8
  0
DICTIONARY
  5
2E9
330
2D
100
AcDbDictionary
280
     1
281
     1
  3
ACAD_XREC_ROUNDTRIP
360
2EA
  0
DICTIONARY
  5
2EB
330
2E
100
AcDbDictionary
280
     1
281
     1
  3
ACAD_XREC_ROUNDTRIP
360
2EC
  0
DICTIONARY
  5
2FF
330
38
100
AcDbDictionary
280
     1
281
     1
  3
ACAD_XREC_ROUNDTRIP
360
300
  0
DICTIONARY
  5
2F5
330
33
100
AcDbDictionary
280
     1
281
     1
  3
ACAD_XREC_ROUNDTRIP
360
2F6
  0
DICTIONARY
  5
2FD
330
37
100
AcDbDictionary
280
     1
281
     1
  3
ACAD_XREC_ROUNDTRIP
360
2FE
  0
XRECORD
  5
308
102
{ACAD_REACTORS
330
307
102
}
330
307
100
AcDbXrecord
280
     1
102
MATERIAL
148
0.0
149
0.0
149
0.0
 93
        0
 94
      127
282
     0
 72
     1
 77
     1
171
     1
175
     1
179
     1
273
     0
  0
XRECORD
  5
306
102
{ACAD_REACTORS
330
305
102
}
330
305
100
AcDbXrecord
280
     1
102
MATERIAL
148
0.0
149
0.0
149
0.0
 93
        0
 94
      127
282
     0
 72
     1
 77
     1
171
     1
175
     1
179
     1
273
     0
  0
XRECORD
  5
30A
102
{ACAD_REACTORS
330
309
102
}
330
309
100
AcDbXrecord
280
     1
102
MATERIAL
148
0.0
149
0.0
149
0.0
 93
        0
 94
      127
282
     0
 72
     1
 77
     1
171
     1
175
     1
179
     1
273
     0
  0
XRECORD
  5
2EE
102
{ACAD_REACTORS
330
2ED
102
}
330
2ED
100
AcDbXrecord
280
     1
102
RTVSPropertyOp0
 70
     1
102
RTVSPropertyOp1
 70
     1
102
RTVSPropertyOp2
 70
     1
102
RTVSPropertyOp3
 70
     1
102
RTVSPropertyOp4
 70
     1
102
RTVSPropertyOp5
 70
     1
102
RTVSPropertyOp6
 70
     1
102
RTVSPropertyOp7
 70
     1
102
RTVSPropertyOp8
 70
     1
102
RTVSPropertyOp9
 70
     1
102
RTVSPropertyOp10
 70
     1
102
RTVSPropertyOp11
 70
     1
102
RTVSPropertyOp12
 70
     1
102
RTVSPropertyOp13
 70
     1
102
RTVSPropertyOp14
 70
     1
102
RTVSPropertyOp15
 70
     1
102
RTVSPropertyOp16
 70
     1
102
RTVSPropertyOp17
 70
     1
102
RTVSPropertyOp18
 70
     1
102
RTVSPropertyOp19
 70
     1
102
RTVSPropertyOp20
 70
     1
102
RTVSPropertyOp21
 70
     1
102
RTVSPropertyOp22
 70
     1
102
RTVSPropertyOp23
 70
     1
102
RTVSPropertyOp24
 70
     1
102
RTVSPropertyOp25
 70
     1
102
RTVSPropertyOp26
 70
     1
102
RTVSPropertyOp27
 70
     1
  0
XRECORD
  5
2F2
102
{ACAD_REACTORS
330
2F1
102
}
330
2F1
100
AcDbXrecord
280
     1
102
RTVSPropertyOp0
 70
     1
102
RTVSPropertyOp1
 70
     1
102
RTVSPropertyOp2
 70
     1
102
RTVSPropertyOp3
 70
     1
102
RTVSPropertyOp4
 70
     1
102
RTVSPropertyOp5
 70
     1
102
RTVSPropertyOp6
 70
     1
102
RTVSPropertyOp7
 70
     1
102
RTVSPropertyOp8
 70
     1
102
RTVSPropertyOp9
 70
     1
102
RTVSPropertyOp10
 70
     1
102
RTVSPropertyOp11
 70
     1
102
RTVSPropertyOp12
 70
     1
102
RTVSPropertyOp13
 70
     1
102
RTVSPropertyOp14
 70
     1
102
RTVSPropertyOp15
 70
     1
102
RTVSPropertyOp16
 70
     1
102
RTVSPropertyOp17
 70
     1
102
RTVSPropertyOp18
 70
     1
102
RTVSPropertyOp19
 70
     1
102
RTVSPropertyOp20
 70
     1
102
RTVSPropertyOp21
 70
     1
102
RTVSPropertyOp22
 70
     1
102
RTVSPropertyOp23
 70
     1
102
RTVSPropertyOp24
 70
     1
102
RTVSPropertyOp25
 70
     1
102
RTVSPropertyOp26
 70
     1
102
RTVSPropertyOp27
 70
     1
  0
XRECORD
  5
2F0
102
{ACAD_REACTORS
330
2EF
102
}
330
2EF
100
AcDbXrecord
280
     1
102
RTVSPropertyOp0
 70
     1
102
RTVSPropertyOp1
 70
     1
102
RTVSPropertyOp2
 70
     1
102
RTVSPropertyOp3
 70
     1
102
RTVSPropertyOp4
 70
     1
102
RTVSPropertyOp5
 70
     1
102
RTVSPropertyOp6
 70
     1
102
RTVSPropertyOp7
 70
     1
102
RTVSPropertyOp8
 70
     1
102
RTVSPropertyOp9
 70
     1
102
RTVSPropertyOp10
 70
     1
102
RTVSPropertyOp11
 70
     1
102
RTVSPropertyOp12
 70
     1
102
RTVSPropertyOp13
 70
     1
102
RTVSPropertyOp14
 70
     1
102
RTVSPropertyOp15
 70
     1
102
RTVSPropertyOp16
 70
     1
102
RTVSPropertyOp17
 70
     1
102
RTVSPropertyOp18
 70
     1
102
RTVSPropertyOp19
 70
     1
102
RTVSPropertyOp20
 70
     1
102
RTVSPropertyOp21
 70
     1
102
RTVSPropertyOp22
 70
     1
102
RTVSPropertyOp23
 70
     1
102
RTVSPropertyOp24
 70
     1
102
RTVSPropertyOp25
 70
     1
102
RTVSPropertyOp26
 70
     1
102
RTVSPropertyOp27
 70
     1
  0
XRECORD
  5
2F4
102
{ACAD_REACTORS
330
2F3
102
}
330
2F3
100
AcDbXrecord
280
     1
102
RTVSPropertyOp0
 70
     1
102
RTVSPropertyOp1
 70
     1
102
RTVSPropertyOp2
 70
     1
102
RTVSPropertyOp3
 70
     1
102
RTVSPropertyOp4
 70
     1
102
RTVSPropertyOp5
 70
     1
102
RTVSPropertyOp6
 70
     1
102
RTVSPropertyOp7
 70
     1
102
RTVSPropertyOp8
 70
     1
102
RTVSPropertyOp9
 70
     1
102
RTVSPropertyOp10
 70
     1
102
RTVSPropertyOp11
 70
     1
102
RTVSPropertyOp12
 70
     1
102
RTVSPropertyOp13
 70
     1
102
RTVSPropertyOp14
 70
     1
102
RTVSPropertyOp15
 70
     1
102
RTVSPropertyOp16
 70
     1
102
RTVSPropertyOp17
 70
     1
102
RTVSPropertyOp18
 70
     1
102
RTVSPropertyOp19
 70
     1
102
RTVSPropertyOp20
 70
     1
102
RTVSPropertyOp21
 70
     1
102
RTVSPropertyOp22
 70
     1
102
RTVSPropertyOp23
 70
     1
102
RTVSPropertyOp24
 70
     1
102
RTVSPropertyOp25
 70
     1
102
RTVSPropertyOp26
 70
     1
102
RTVSPropertyOp27
 70
     1
  0
XRECORD
  5
2FC
102
{ACAD_REACTORS
330
2FB
102
}
330
2FB
100
AcDbXrecord
280
     1
102
RTVSPropertyOp0
 70
     1
102
RTVSPropertyOp1
 70
     1
102
RTVSPropertyOp2
 70
     1
102
RTVSPropertyOp3
 70
     1
102
RTVSPropertyOp4
 70
     1
102
RTVSPropertyOp5
 70
     1
102
RTVSPropertyOp6
 70
     1
102
RTVSPropertyOp7
 70
     1
102
RTVSPropertyOp8
 70
     1
102
RTVSPropertyOp9
 70
     1
102
RTVSPropertyOp10
 70
     1
102
RTVSPropertyOp11
 70
     1
102
RTVSPropertyOp12
 70
     1
102
RTVSPropertyOp13
 70
     1
102
RTVSPropertyOp14
 70
     1
102
RTVSPropertyOp15
 70
     1
102
RTVSPropertyOp16
 70
     1
102
RTVSPropertyOp17
 70
     1
102
RTVSPropertyOp18
 70
     1
102
RTVSPropertyOp19
 70
     1
102
RTVSPropertyOp20
 70
     1
102
RTVSPropertyOp21
 70
     1
102
RTVSPropertyOp22
 70
     1
102
RTVSPropertyOp23
 70
     1
102
RTVSPropertyOp24
 70
     1
102
RTVSPropertyOp25
 70
     1
102
RTVSPropertyOp26
 70
     1
102
RTVSPropertyOp27
 70
     1
  0
XRECORD
  5
304
102
{ACAD_REACTORS
330
303
102
}
330
303
100
AcDbXrecord
280
     1
102
RTVSPropertyOp0
 70
     1
102
RTVSPropertyOp1
 70
     1
102
RTVSPropertyOp2
 70
     1
102
RTVSPropertyOp3
 70
     1
102
RTVSPropertyOp4
 70
     1
102
RTVSPropertyOp5
 70
     1
102
RTVSPropertyOp6
 70
     1
102
RTVSPropertyOp7
 70
     1
102
RTVSPropertyOp8
 70
     1
102
RTVSPropertyOp9
 70
     1
102
RTVSPropertyOp10
 70
     1
102
RTVSPropertyOp11
 70
     1
102
RTVSPropertyOp12
 70
     1
102
RTVSPropertyOp13
 70
     1
102
RTVSPropertyOp14
 70
     1
102
RTVSPropertyOp15
 70
     1
102
RTVSPropertyOp16
 70
     1
102
RTVSPropertyOp17
 70
     1
102
RTVSPropertyOp18
 70
     1
102
RTVSPropertyOp19
 70
     1
102
RTVSPropertyOp20
 70
     1
102
RTVSPropertyOp21
 70
     1
102
RTVSPropertyOp22
 70
     1
102
RTVSPropertyOp23
 70
     1
102
RTVSPropertyOp24
 70
     1
102
RTVSPropertyOp25
 70
     1
102
RTVSPropertyOp26
 70
     1
102
RTVSPropertyOp27
 70
     1
  0
XRECORD
  5
2F8
102
{ACAD_REACTORS
330
2F7
102
}
330
2F7
100
AcDbXrecord
280
     1
102
RTVSPropertyOp0
 70
     1
102
RTVSPropertyOp1
 70
     1
102
RTVSPropertyOp2
 70
     1
102
RTVSPropertyOp3
 70
     1
102
RTVSPropertyOp4
 70
     1
102
RTVSPropertyOp5
 70
     1
102
RTVSPropertyOp6
 70
     1
102
RTVSPropertyOp7
 70
     1
102
RTVSPropertyOp8
 70
     1
102
RTVSPropertyOp9
 70
     1
102
RTVSPropertyOp10
 70
     1
102
RTVSPropertyOp11
 70
     1
102
RTVSPropertyOp12
 70
     1
102
RTVSPropertyOp13
 70
     1
102
RTVSPropertyOp14
 70
     1
102
RTVSPropertyOp15
 70
     1
102
RTVSPropertyOp16
 70
     1
102
RTVSPropertyOp17
 70
     1
102
RTVSPropertyOp18
 70
     1
102
RTVSPropertyOp19
 70
     1
102
RTVSPropertyOp20
 70
     1
102
RTVSPropertyOp21
 70
     1
102
RTVSPropertyOp22
 70
     1
102
RTVSPropertyOp23
 70
     1
102
RTVSPropertyOp24
 70
     1
102
RTVSPropertyOp25
 70
     1
102
RTVSPropertyOp26
 70
     1
102
RTVSPropertyOp27
 70
     1
  0
XRECORD
  5
2FA
102
{ACAD_REACTORS
330
2F9
102
}
330
2F9
100
AcDbXrecord
280
     1
102
RTVSPropertyOp0
 70
     1
102
RTVSPropertyOp1
 70
     1
102
RTVSPropertyOp2
 70
     1
102
RTVSPropertyOp3
 70
     1
102
RTVSPropertyOp4
 70
     1
102
RTVSPropertyOp5
 70
     1
102
RTVSPropertyOp6
 70
     1
102
RTVSPropertyOp7
 70
     1
102
RTVSPropertyOp8
 70
     1
102
RTVSPropertyOp9
 70
     1
102
RTVSPropertyOp10
 70
     1
102
RTVSPropertyOp11
 70
     1
102
RTVSPropertyOp12
 70
     1
102
RTVSPropertyOp13
 70
     1
102
RTVSPropertyOp14
 70
     1
102
RTVSPropertyOp15
 70
     1
102
RTVSPropertyOp16
 70
     1
102
RTVSPropertyOp17
 70
     1
102
RTVSPropertyOp18
 70
     1
102
RTVSPropertyOp19
 70
     1
102
RTVSPropertyOp20
 70
     1
102
RTVSPropertyOp21
 70
     1
102
RTVSPropertyOp22
 70
     1
102
RTVSPropertyOp23
 70
     1
102
RTVSPropertyOp24
 70
     1
102
RTVSPropertyOp25
 70
     1
102
RTVSPropertyOp26
 70
     1
102
RTVSPropertyOp27
 70
     1
  0
XRECORD
  5
302
102
{ACAD_REACTORS
330
301
102
}
330
301
100
AcDbXrecord
280
     1
102
RTVSPropertyOp0
 70
     1
102
RTVSPropertyOp1
 70
     1
102
RTVSPropertyOp2
 70
     1
102
RTVSPropertyOp3
 70
     1
102
RTVSPropertyOp4
 70
     1
102
RTVSPropertyOp5
 70
     1
102
RTVSPropertyOp6
 70
     1
102
RTVSPropertyOp7
 70
     1
102
RTVSPropertyOp8
 70
     1
102
RTVSPropertyOp9
 70
     1
102
RTVSPropertyOp10
 70
     1
102
RTVSPropertyOp11
 70
     1
102
RTVSPropertyOp12
 70
     1
102
RTVSPropertyOp13
 70
     1
102
RTVSPropertyOp14
 70
     1
102
RTVSPropertyOp15
 70
     1
102
RTVSPropertyOp16
 70
     1
102
RTVSPropertyOp17
 70
     1
102
RTVSPropertyOp18
 70
     1
102
RTVSPropertyOp19
 70
     1
102
RTVSPropertyOp20
 70
     1
102
RTVSPropertyOp21
 70
     1
102
RTVSPropertyOp22
 70
     1
102
RTVSPropertyOp23
 70
     1
102
RTVSPropertyOp24
 70
     1
102
RTVSPropertyOp25
 70
     1
102
RTVSPropertyOp26
 70
     1
102
RTVSPropertyOp27
 70
     1
  0
XRECORD
  5
2E6
102
{ACAD_REACTORS
330
2E5
102
}
330
2E5
100
AcDbXrecord
280
     1
102
RTVSPropertyOp0
 70
     1
102
RTVSPropertyOp1
 70
     1
102
RTVSPropertyOp2
 70
     1
102
RTVSPropertyOp3
 70
     1
102
RTVSPropertyOp4
 70
     1
102
RTVSPropertyOp5
 70
     1
102
RTVSPropertyOp6
 70
     1
102
RTVSPropertyOp7
 70
     1
102
RTVSPropertyOp8
 70
     1
102
RTVSPropertyOp9
 70
     1
102
RTVSPropertyOp10
 70
     1
102
RTVSPropertyOp11
 70
     1
102
RTVSPropertyOp12
 70
     1
102
RTVSPropertyOp13
 70
     1
102
RTVSPropertyOp14
 70
     1
102
RTVSPropertyOp15
 70
     1
102
RTVSPropertyOp16
 70
     1
102
RTVSPropertyOp17
 70
     1
102
RTVSPropertyOp18
 70
     1
102
RTVSPropertyOp19
 70
     1
102
RTVSPropertyOp20
 70
     1
102
RTVSPropertyOp21
 70
     1
102
RTVSPropertyOp22
 70
     1
102
RTVSPropertyOp23
 70
     1
102
RTVSPropertyOp24
 70
     1
102
RTVSPropertyOp25
 70
     1
102
RTVSPropertyOp26
 70
     1
102
RTVSPropertyOp27
 70
     1
  0
XRECORD
  5
2E8
102
{ACAD_REACTORS
330
2E7
102
}
330
2E7
100
AcDbXrecord
280
     1
102
RTVSPropertyOp0
 70
     1
102
RTVSPropertyOp1
 70
     1
102
RTVSPropertyOp2
 70
     1
102
RTVSPropertyOp3
 70
     1
102
RTVSPropertyOp4
 70
     1
102
RTVSPropertyOp5
 70
     1
102
RTVSPropertyOp6
 70
     1
102
RTVSPropertyOp7
 70
     1
102
RTVSPropertyOp8
 70
     1
102
RTVSPropertyOp9
 70
     1
102
RTVSPropertyOp10
 70
     1
102
RTVSPropertyOp11
 70
     1
102
RTVSPropertyOp12
 70
     1
102
RTVSPropertyOp13
 70
     1
102
RTVSPropertyOp14
 70
     1
102
RTVSPropertyOp15
 70
     1
102
RTVSPropertyOp16
 70
     1
102
RTVSPropertyOp17
 70
     1
102
RTVSPropertyOp18
 70
     1
102
RTVSPropertyOp19
 70
     1
102
RTVSPropertyOp20
 70
     1
102
RTVSPropertyOp21
 70
     1
102
RTVSPropertyOp22
 70
     1
102
RTVSPropertyOp23
 70
     1
102
RTVSPropertyOp24
 70
     1
102
RTVSPropertyOp25
 70
     1
102
RTVSPropertyOp26
 70
     1
102
RTVSPropertyOp27
 70
     1
  0
XRECORD
  5
2EA
102
{ACAD_REACTORS
330
2E9
102
}
330
2E9
100
AcDbXrecord
280
     1
102
RTVSPropertyOp0
 70
     1
102
RTVSPropertyOp1
 70
     1
102
RTVSPropertyOp2
 70
     1
102
RTVSPropertyOp3
 70
     1
102
RTVSPropertyOp4
 70
     1
102
RTVSPropertyOp5
 70
     1
102
RTVSPropertyOp6
 70
     1
102
RTVSPropertyOp7
 70
     1
102
RTVSPropertyOp8
 70
     1
102
RTVSPropertyOp9
 70
     1
102
RTVSPropertyOp10
 70
     1
102
RTVSPropertyOp11
 70
     1
102
RTVSPropertyOp12
 70
     1
102
RTVSPropertyOp13
 70
     1
102
RTVSPropertyOp14
 70
     1
102
RTVSPropertyOp15
 70
     1
102
RTVSPropertyOp16
 70
     1
102
RTVSPropertyOp17
 70
     1
102
RTVSPropertyOp18
 70
     1
102
RTVSPropertyOp19
 70
     1
102
RTVSPropertyOp20
 70
     1
102
RTVSPropertyOp21
 70
     1
102
RTVSPropertyOp22
 70
     1
102
RTVSPropertyOp23
 70
     1
102
RTVSPropertyOp24
 70
     1
102
RTVSPropertyOp25
 70
     1
102
RTVSPropertyOp26
 70
     1
102
RTVSPropertyOp27
 70
     1
  0
XRECORD
  5
2EC
102
{ACAD_REACTORS
330
2EB
102
}
330
2EB
100
AcDbXrecord
280
     1
102
RTVSPropertyOp0
 70
     1
102
RTVSPropertyOp1
 70
     1
102
RTVSPropertyOp2
 70
     1
102
RTVSPropertyOp3
 70
     1
102
RTVSPropertyOp4
 70
     1
102
RTVSPropertyOp5
 70
     1
102
RTVSPropertyOp6
 70
     1
102
RTVSPropertyOp7
 70
     1
102
RTVSPropertyOp8
 70
     1
102
RTVSPropertyOp9
 70
     1
102
RTVSPropertyOp10
 70
     1
102
RTVSPropertyOp11
 70
     1
102
RTVSPropertyOp12
 70
     1
102
RTVSPropertyOp13
 70
     1
102
RTVSPropertyOp14
 70
     1
102
RTVSPropertyOp15
 70
     1
102
RTVSPropertyOp16
 70
     1
102
RTVSPropertyOp17
 70
     1
102
RTVSPropertyOp18
 70
     1
102
RTVSPropertyOp19
 70
     1
102
RTVSPropertyOp20
 70
     1
102
RTVSPropertyOp21
 70
     1
102
RTVSPropertyOp22
 70
     1
102
RTVSPropertyOp23
 70
     1
102
RTVSPropertyOp24
 70
     1
102
RTVSPropertyOp25
 70
     1
102
RTVSPropertyOp26
 70
     1
102
RTVSPropertyOp27
 70
     1
  0
XRECORD
  5
300
102
{ACAD_REACTORS
330
2FF
102
}
330
2FF
100
AcDbXrecord
280
     1
102
RTVSPropertyOp0
 70
     1
102
RTVSPropertyOp1
 70
     1
102
RTVSPropertyOp2
 70
     1
102
RTVSPropertyOp3
 70
     1
102
RTVSPropertyOp4
 70
     1
102
RTVSPropertyOp5
 70
     1
102
RTVSPropertyOp6
 70
     1
102
RTVSPropertyOp7
 70
     1
102
RTVSPropertyOp8
 70
     1
102
RTVSPropertyOp9
 70
     1
102
RTVSPropertyOp10
 70
     1
102
RTVSPropertyOp11
 70
     1
102
RTVSPropertyOp12
 70
     1
102
RTVSPropertyOp13
 70
     1
102
RTVSPropertyOp14
 70
     1
102
RTVSPropertyOp15
 70
     1
102
RTVSPropertyOp16
 70
     1
102
RTVSPropertyOp17
 70
     1
102
RTVSPropertyOp18
 70
     1
102
RTVSPropertyOp19
 70
     1
102
RTVSPropertyOp20
 70
     1
102
RTVSPropertyOp21
 70
     1
102
RTVSPropertyOp22
 70
     1
102
RTVSPropertyOp23
 70
     1
102
RTVSPropertyOp24
 70
     1
102
RTVSPropertyOp25
 70
     1
102
RTVSPropertyOp26
 70
     1
102
RTVSPropertyOp27
 70
     1
  0
XRECORD
  5
2F6
102
{ACAD_REACTORS
330
2F5
102
}
330
2F5
100
AcDbXrecord
280
     1
102
RTVSPropertyOp0
 70
     1
102
RTVSPropertyOp1
 70
     1
102
RTVSPropertyOp2
 70
     1
102
RTVSPropertyOp3
 70
     1
102
RTVSPropertyOp4
 70
     1
102
RTVSPropertyOp5
 70
     1
102
RTVSPropertyOp6
 70
     1
102
RTVSPropertyOp7
 70
     1
102
RTVSPropertyOp8
 70
     1
102
RTVSPropertyOp9
 70
     1
102
RTVSPropertyOp10
 70
     1
102
RTVSPropertyOp11
 70
     1
102
RTVSPropertyOp12
 70
     1
102
RTVSPropertyOp13
 70
     1
102
RTVSPropertyOp14
 70
     1
102
RTVSPropertyOp15
 70
     1
102
RTVSPropertyOp16
 70
     1
102
RTVSPropertyOp17
 70
     1
102
RTVSPropertyOp18
 70
     1
102
RTVSPropertyOp19
 70
     1
102
RTVSPropertyOp20
 70
     1
102
RTVSPropertyOp21
 70
     1
102
RTVSPropertyOp22
 70
     1
102
RTVSPropertyOp23
 70
     1
102
RTVSPropertyOp24
 70
     1
102
RTVSPropertyOp25
 70
     1
102
RTVSPropertyOp26
 70
     1
102
RTVSPropertyOp27
 70
     1
  0
XRECORD
  5
2FE
102
{ACAD_REACTORS
330
2FD
102
}
330
2FD
100
AcDbXrecord
280
     1
102
RTVSPropertyOp0
 70
     1
102
RTVSPropertyOp1
 70
     1
102
RTVSPropertyOp2
 70
     1
102
RTVSPropertyOp3
 70
     1
102
RTVSPropertyOp4
 70
     1
102
RTVSPropertyOp5
 70
     1
102
RTVSPropertyOp6
 70
     1
102
RTVSPropertyOp7
 70
     1
102
RTVSPropertyOp8
 70
     1
102
RTVSPropertyOp9
 70
     1
102
RTVSPropertyOp10
 70
     1
102
RTVSPropertyOp11
 70
     1
102
RTVSPropertyOp12
 70
     1
102
RTVSPropertyOp13
 70
     1
102
RTVSPropertyOp14
 70
     1
102
RTVSPropertyOp15
 70
     1
102
RTVSPropertyOp16
 70
     1
102
RTVSPropertyOp17
 70
     1
102
RTVSPropertyOp18
 70
     1
102
RTVSPropertyOp19
 70
     1
102
RTVSPropertyOp20
 70
     1
102
RTVSPropertyOp21
 70
     1
102
RTVSPropertyOp22
 70
     1
102
RTVSPropertyOp23
 70
     1
102
RTVSPropertyOp24
 70
     1
102
RTVSPropertyOp25
 70
     1
102
RTVSPropertyOp26
 70
     1
102
RTVSPropertyOp27
 70
     1
  0
ENDSEC
  0
EOF
