ISO-10303-21;
HEADER;
/* Generated by software containing ST-Developer
 * from STEP Tools, Inc. (www.steptools.com) 
 */

FILE_DESCRIPTION(
/* description */ (''),
/* implementation_level */ '2;1');

FILE_NAME(
/* name */ 'C:\\Users\\Mikes\\Desktop\\Christel 012.stp',
/* time_stamp */ '2021-03-28T16:53:05+02:00',
/* author */ ('Mikes'),
/* organization */ (''),
/* preprocessor_version */ 'ST-DEVELOPER v18.1',
/* originating_system */ 'Autodesk Inventor 2021',
/* authorisation */ '');

FILE_SCHEMA (('AUTOMOTIVE_DESIGN { 1 0 10303 214 3 1 1 }'));
ENDSEC;

DATA;
#10=MECHANICAL_DESIGN_GEOMETRIC_PRESENTATION_REPRESENTATION('',(#24,#25),
#270);
#11=SHAPE_REPRESENTATION_RELATIONSHIP('SRR','None',#277,#12);
#12=ADVANCED_BREP_SHAPE_REPRESENTATION('',(#13),#269);
#13=MANIFOLD_SOLID_BREP('Solid2',#100);
#14=PLANE('',#127);
#15=PLANE('',#129);
#16=LINE('',#260,#20);
#17=LINE('',#261,#21);
#18=LINE('',#263,#22);
#19=LINE('',#265,#23);
#20=VECTOR('',#146,10.);
#21=VECTOR('',#147,10.);
#22=VECTOR('',#150,10.);
#23=VECTOR('',#153,10.);
#24=STYLED_ITEM('',(#287),#96);
#25=STYLED_ITEM('',(#286),#13);
#26=FACE_OUTER_BOUND('',#32,.T.);
#27=FACE_OUTER_BOUND('',#33,.T.);
#28=FACE_OUTER_BOUND('',#34,.T.);
#29=FACE_OUTER_BOUND('',#35,.T.);
#30=FACE_OUTER_BOUND('',#36,.T.);
#31=FACE_OUTER_BOUND('',#37,.T.);
#32=EDGE_LOOP('',(#66,#67,#68,#69));
#33=EDGE_LOOP('',(#70,#71,#72,#73));
#34=EDGE_LOOP('',(#74,#75,#76,#77));
#35=EDGE_LOOP('',(#78,#79,#80,#81));
#36=EDGE_LOOP('',(#82,#83,#84,#85));
#37=EDGE_LOOP('',(#86,#87,#88,#89));
#38=ELLIPSE('',#121,961.307117111072,456.056155380323);
#39=ELLIPSE('',#122,961.307117111072,456.056155380323);
#40=ELLIPSE('',#124,961.307117111071,456.056155380323);
#41=ELLIPSE('',#125,961.307117111071,456.056155380323);
#42=B_SPLINE_CURVE_WITH_KNOTS('',3,(#160,#161,#162,#163,#164,#165,#166,
#167,#168,#169,#170,#171,#172,#173,#174,#175,#176,#177,#178,#179,#180,#181),
 .UNSPECIFIED.,.F.,.F.,(4,2,2,2,2,2,2,2,2,2,4),(2.88524594547313,2.89625110224393,
5.79250220448786,8.68875330673179,11.5850044089757,14.4812555112197,17.3775066134636,
20.2737577157075,23.1700088179514,26.0375604784151,28.5655478841613),
 .UNSPECIFIED.);
#43=B_SPLINE_CURVE_WITH_KNOTS('',3,(#185,#186,#187,#188,#189,#190,#191,
#192,#193,#194,#195,#196,#197,#198,#199,#200,#201,#202,#203,#204,#205,#206),
 .UNSPECIFIED.,.F.,.F.,(4,2,2,2,2,2,2,2,2,2,4),(17.2949450910222,19.9846107533335,
22.8395551466669,25.7228983928125,28.606241638958,31.4895848851036,34.3729281312492,
37.2562713773948,40.1396146235403,43.0229578696859,43.1105006698621),
 .UNSPECIFIED.);
#44=B_SPLINE_CURVE_WITH_KNOTS('',3,(#211,#212,#213,#214,#215,#216,#217,
#218,#219,#220,#221,#222,#223,#224,#225,#226,#227,#228,#229,#230,#231,#232),
 .UNSPECIFIED.,.F.,.F.,(4,2,2,2,2,2,2,2,2,2,4),(17.5448742175029,20.0728616232472,
22.9404132837111,25.8366643859552,28.7329154881994,31.6291665904436,34.5254176926877,
37.4216687949319,40.317919897176,43.2141709994202,43.2251761561912),
 .UNSPECIFIED.);
#45=B_SPLINE_CURVE_WITH_KNOTS('',3,(#236,#237,#238,#239,#240,#241,#242,
#243,#244,#245,#246,#247,#248,#249,#250,#251,#252,#253,#254,#255,#256,#257),
 .UNSPECIFIED.,.F.,.F.,(4,2,2,2,2,2,2,2,2,2,4),(2.7958004459694,2.88334324614558,
5.76668649229116,8.65002973843674,11.5333729845823,14.4167162307279,17.3000594768735,
20.1834027230191,23.0667459691646,25.921690362498,28.6113560248093),
 .UNSPECIFIED.);
#46=VERTEX_POINT('',#158);
#47=VERTEX_POINT('',#159);
#48=VERTEX_POINT('',#182);
#49=VERTEX_POINT('',#184);
#50=VERTEX_POINT('',#209);
#51=VERTEX_POINT('',#210);
#52=VERTEX_POINT('',#233);
#53=VERTEX_POINT('',#235);
#54=EDGE_CURVE('',#46,#47,#42,.T.);
#55=EDGE_CURVE('',#48,#46,#38,.T.);
#56=EDGE_CURVE('',#49,#48,#43,.T.);
#57=EDGE_CURVE('',#47,#49,#39,.T.);
#58=EDGE_CURVE('',#50,#51,#44,.T.);
#59=EDGE_CURVE('',#52,#50,#40,.T.);
#60=EDGE_CURVE('',#53,#52,#45,.T.);
#61=EDGE_CURVE('',#51,#53,#41,.T.);
#62=EDGE_CURVE('',#48,#53,#16,.T.);
#63=EDGE_CURVE('',#52,#49,#17,.T.);
#64=EDGE_CURVE('',#46,#51,#18,.T.);
#65=EDGE_CURVE('',#50,#47,#19,.T.);
#66=ORIENTED_EDGE('',*,*,#54,.F.);
#67=ORIENTED_EDGE('',*,*,#55,.F.);
#68=ORIENTED_EDGE('',*,*,#56,.F.);
#69=ORIENTED_EDGE('',*,*,#57,.F.);
#70=ORIENTED_EDGE('',*,*,#58,.F.);
#71=ORIENTED_EDGE('',*,*,#59,.F.);
#72=ORIENTED_EDGE('',*,*,#60,.F.);
#73=ORIENTED_EDGE('',*,*,#61,.F.);
#74=ORIENTED_EDGE('',*,*,#56,.T.);
#75=ORIENTED_EDGE('',*,*,#62,.T.);
#76=ORIENTED_EDGE('',*,*,#60,.T.);
#77=ORIENTED_EDGE('',*,*,#63,.T.);
#78=ORIENTED_EDGE('',*,*,#55,.T.);
#79=ORIENTED_EDGE('',*,*,#64,.T.);
#80=ORIENTED_EDGE('',*,*,#61,.T.);
#81=ORIENTED_EDGE('',*,*,#62,.F.);
#82=ORIENTED_EDGE('',*,*,#54,.T.);
#83=ORIENTED_EDGE('',*,*,#65,.F.);
#84=ORIENTED_EDGE('',*,*,#58,.T.);
#85=ORIENTED_EDGE('',*,*,#64,.F.);
#86=ORIENTED_EDGE('',*,*,#57,.T.);
#87=ORIENTED_EDGE('',*,*,#63,.F.);
#88=ORIENTED_EDGE('',*,*,#59,.T.);
#89=ORIENTED_EDGE('',*,*,#65,.T.);
#90=CYLINDRICAL_SURFACE('',#120,456.056155380323);
#91=CYLINDRICAL_SURFACE('',#123,456.056155380323);
#92=CYLINDRICAL_SURFACE('',#126,264.5);
#93=CYLINDRICAL_SURFACE('',#128,263.);
#94=ADVANCED_FACE('',(#26),#90,.T.);
#95=ADVANCED_FACE('',(#27),#91,.T.);
#96=ADVANCED_FACE('',(#28),#92,.T.);
#97=ADVANCED_FACE('',(#29),#14,.T.);
#98=ADVANCED_FACE('',(#30),#93,.F.);
#99=ADVANCED_FACE('',(#31),#15,.T.);
#100=CLOSED_SHELL('',(#94,#95,#96,#97,#98,#99));
#101=DERIVED_UNIT_ELEMENT(#103,1.);
#102=DERIVED_UNIT_ELEMENT(#272,3.);
#103=(
MASS_UNIT()
NAMED_UNIT(*)
SI_UNIT($,.GRAM.)
);
#104=DERIVED_UNIT((#101,#102));
#105=MEASURE_REPRESENTATION_ITEM('density measure',
POSITIVE_RATIO_MEASURE(1.),#104);
#106=PROPERTY_DEFINITION_REPRESENTATION(#111,#108);
#107=PROPERTY_DEFINITION_REPRESENTATION(#112,#109);
#108=REPRESENTATION('material name',(#110),#269);
#109=REPRESENTATION('density',(#105),#269);
#110=DESCRIPTIVE_REPRESENTATION_ITEM('Generic','Generic');
#111=PROPERTY_DEFINITION('material property','material name',#279);
#112=PROPERTY_DEFINITION('material property','density of part',#279);
#113=DATE_TIME_ROLE('creation_date');
#114=APPLIED_DATE_AND_TIME_ASSIGNMENT(#115,#113,(#279));
#115=DATE_AND_TIME(#116,#117);
#116=CALENDAR_DATE(2021,28,3);
#117=LOCAL_TIME(0,0,0.,#118);
#118=COORDINATED_UNIVERSAL_TIME_OFFSET(0,0,.BEHIND.);
#119=AXIS2_PLACEMENT_3D('placement',#156,#130,#131);
#120=AXIS2_PLACEMENT_3D('',#157,#132,#133);
#121=AXIS2_PLACEMENT_3D('',#183,#134,#135);
#122=AXIS2_PLACEMENT_3D('',#207,#136,#137);
#123=AXIS2_PLACEMENT_3D('',#208,#138,#139);
#124=AXIS2_PLACEMENT_3D('',#234,#140,#141);
#125=AXIS2_PLACEMENT_3D('',#258,#142,#143);
#126=AXIS2_PLACEMENT_3D('',#259,#144,#145);
#127=AXIS2_PLACEMENT_3D('',#262,#148,#149);
#128=AXIS2_PLACEMENT_3D('',#264,#151,#152);
#129=AXIS2_PLACEMENT_3D('',#266,#154,#155);
#130=DIRECTION('axis',(0.,0.,1.));
#131=DIRECTION('refdir',(1.,0.,0.));
#132=DIRECTION('center_axis',(0.,0.,1.));
#133=DIRECTION('ref_axis',(0.925637757269029,-0.378410811576471,0.));
#134=DIRECTION('center_axis',(-3.18223624493906E-17,-0.880302639842748,
0.474412544401905));
#135=DIRECTION('ref_axis',(-9.23927851870365E-17,-0.474412544401905,-0.880302639842748));
#136=DIRECTION('center_axis',(-4.78602823885608E-16,0.880302639842748,0.474412544401905));
#137=DIRECTION('ref_axis',(2.58699798523702E-16,-0.474412544401905,0.880302639842748));
#138=DIRECTION('center_axis',(0.,0.,1.));
#139=DIRECTION('ref_axis',(-0.984574254569786,0.174967246187249,0.));
#140=DIRECTION('center_axis',(-4.78602823885608E-16,0.880302639842748,0.474412544401905));
#141=DIRECTION('ref_axis',(-2.30981962967591E-16,0.474412544401905,-0.880302639842748));
#142=DIRECTION('center_axis',(-3.18223624493906E-17,-0.880302639842748,
0.474412544401905));
#143=DIRECTION('ref_axis',(-9.23927851870365E-18,0.474412544401905,0.880302639842748));
#144=DIRECTION('center_axis',(-1.,-2.53765262771464E-16,0.));
#145=DIRECTION('ref_axis',(0.,0.,-1.));
#146=DIRECTION('',(-1.,-3.03750320533557E-17,-1.20389423992228E-16));
#147=DIRECTION('',(1.,4.77155493489573E-16,1.20389423992228E-16));
#148=DIRECTION('center_axis',(-3.18223624493906E-17,-0.880302639842748,
0.474412544401905));
#149=DIRECTION('ref_axis',(1.20389423992228E-16,-0.474412544401905,-0.880302639842748));
#150=DIRECTION('',(-1.,-3.03750320533557E-17,-1.20389423992228E-16));
#151=DIRECTION('center_axis',(-1.,-2.53765262771464E-16,0.));
#152=DIRECTION('ref_axis',(0.,0.,-1.));
#153=DIRECTION('',(1.,4.77155493489573E-16,1.20389423992228E-16));
#154=DIRECTION('center_axis',(-4.78602823885608E-16,0.880302639842748,0.474412544401905));
#155=DIRECTION('ref_axis',(1.20389423992228E-16,-0.474412544401905,0.880302639842748));
#156=CARTESIAN_POINT('',(0.,0.,0.));
#157=CARTESIAN_POINT('Origin',(-421.309570656844,47.0904072041689,-0.0010000000000332));
#158=CARTESIAN_POINT('',(1.12509378001725,-124.770499177701,32.9804057213572));
#159=CARTESIAN_POINT('',(28.082263015359,124.770499177701,32.9804057213573));
#160=CARTESIAN_POINT('Ctrl Pts',(1.12509378001726,-124.770499177701,32.9804057213573));
#161=CARTESIAN_POINT('Ctrl Pts',(1.1377879539981,-124.739296856948,32.9635901721247));
#162=CARTESIAN_POINT('Ctrl Pts',(1.15048024330411,-124.708089264847,32.9467799218511));
#163=CARTESIAN_POINT('Ctrl Pts',(4.50293095061145,-116.462519965323,28.5073805464318));
#164=CARTESIAN_POINT('Ctrl Pts',(7.71089749310817,-107.882121175229,24.4535926434485));
#165=CARTESIAN_POINT('Ctrl Pts',(13.7152600249619,-90.1263677933084,17.2388676073735));
#166=CARTESIAN_POINT('Ctrl Pts',(16.5118960803261,-80.9496059141242,14.0774080575698));
#167=CARTESIAN_POINT('Ctrl Pts',(21.5743035424046,-62.1604768632325,8.76500362881197));
#168=CARTESIAN_POINT('Ctrl Pts',(23.839919999757,-52.5480487616453,6.61412659308204));
#169=CARTESIAN_POINT('Ctrl Pts',(27.7561940825268,-33.0708711408437,3.40090199181849));
#170=CARTESIAN_POINT('Ctrl Pts',(29.4099943604579,-23.1898264736225,2.33602763740961));
#171=CARTESIAN_POINT('Ctrl Pts',(32.0598359053927,-3.34389390726013,1.33363659018409));
#172=CARTESIAN_POINT('Ctrl Pts',(33.0558510329685,6.62100238068685,1.3962168863359));
#173=CARTESIAN_POINT('Ctrl Pts',(34.386217255102,26.4250247187082,2.64287019447728));
#174=CARTESIAN_POINT('Ctrl Pts',(34.7207775505048,36.2663292967427,3.82717474375677));
#175=CARTESIAN_POINT('Ctrl Pts',(34.7695008614388,55.6179901960212,7.2604081128118));
#176=CARTESIAN_POINT('Ctrl Pts',(34.4838302990264,65.128331560117,9.50941887527472));
#177=CARTESIAN_POINT('Ctrl Pts',(33.381221484716,83.5264214166465,14.933573900536));
#178=CARTESIAN_POINT('Ctrl Pts',(32.5575711865357,92.6190665316695,18.1576097924903));
#179=CARTESIAN_POINT('Ctrl Pts',(30.5348528061064,109.434654881595,25.19683028895));
#180=CARTESIAN_POINT('Ctrl Pts',(29.3921636750705,117.192513049714,28.8964787652111));
#181=CARTESIAN_POINT('Ctrl Pts',(28.0822630153591,124.770499177701,32.9804057213573));
#182=CARTESIAN_POINT('',(0.83488377422384,-125.482117994304,31.6599517615931));
#183=CARTESIAN_POINT('Origin',(-421.309570656844,47.0904072041689,351.879244630559));
#184=CARTESIAN_POINT('',(27.9586749823034,125.482117994304,31.6599517615931));
#185=CARTESIAN_POINT('Ctrl Pts',(27.9586749823034,125.482117994304,31.6599517615932));
#186=CARTESIAN_POINT('Ctrl Pts',(29.3671002277719,117.410336771931,27.3099088397117));
#187=CARTESIAN_POINT('Ctrl Pts',(30.585690039792,109.135214908664,23.3933426228625));
#188=CARTESIAN_POINT('Ctrl Pts',(32.6382147284692,91.8047392844798,16.2556106252933));
#189=CARTESIAN_POINT('Ctrl Pts',(33.4435813314698,82.7325098848395,13.0922381563517));
#190=CARTESIAN_POINT('Ctrl Pts',(34.511900850118,64.3891276831139,7.7776282238995));
#191=CARTESIAN_POINT('Ctrl Pts',(34.7814932986872,54.909683879114,5.57730202066528));
#192=CARTESIAN_POINT('Ctrl Pts',(34.704385754899,35.6243152144482,2.22734592012185));
#193=CARTESIAN_POINT('Ctrl Pts',(34.3575241503767,25.8184049488406,1.07763572284406));
#194=CARTESIAN_POINT('Ctrl Pts',(33.007240377898,6.08754655533814,-0.114575963404283));
#195=CARTESIAN_POINT('Ctrl Pts',(32.003611611091,-3.83953837152986,-0.157299964278016));
#196=CARTESIAN_POINT('Ctrl Pts',(29.3435082273016,-23.6096852035753,0.869934863498895));
#197=CARTESIAN_POINT('Ctrl Pts',(27.6870601161291,-33.4527556729131,1.93979750282877));
#198=CARTESIAN_POINT('Ctrl Pts',(23.7700484047481,-52.8561163910985,5.14854464400695));
#199=CARTESIAN_POINT('Ctrl Pts',(21.5063911743175,-62.4323846148112,7.28991270649778));
#200=CARTESIAN_POINT('Ctrl Pts',(16.4516612801594,-81.1528062351915,12.5693474498238));
#201=CARTESIAN_POINT('Ctrl Pts',(13.6607406649281,-90.2970196899935,15.7073467451615));
#202=CARTESIAN_POINT('Ctrl Pts',(7.67011922052344,-107.993126629623,22.8622118336875));
#203=CARTESIAN_POINT('Ctrl Pts',(4.47018217447735,-116.546400724969,26.8795855422193));
#204=CARTESIAN_POINT('Ctrl Pts',(1.0375413323173,-124.985755957459,31.3929637740743));
#205=CARTESIAN_POINT('Ctrl Pts',(0.936271651009049,-125.23410441345,31.5262923260609));
#206=CARTESIAN_POINT('Ctrl Pts',(0.834883774223833,-125.482117994304,31.6599517615932));
#207=CARTESIAN_POINT('Origin',(-421.309570656844,47.0904072041689,177.120755369441));
#208=CARTESIAN_POINT('Origin',(422.976023053112,47.0904072041694,-0.0010000000000332));
#209=CARTESIAN_POINT('',(-26.4158106190915,124.770499177701,32.9804057213573));
#210=CARTESIAN_POINT('',(0.541358616250562,-124.770499177701,32.9804057213572));
#211=CARTESIAN_POINT('Ctrl Pts',(-26.4158106190914,124.770499177701,32.9804057213573));
#212=CARTESIAN_POINT('Ctrl Pts',(-27.7257112788018,117.19251304972,28.8964787652143));
#213=CARTESIAN_POINT('Ctrl Pts',(-28.8684004098371,109.434654881607,25.1968302889556));
#214=CARTESIAN_POINT('Ctrl Pts',(-30.8911187902663,92.6190665316873,18.157609792497));
#215=CARTESIAN_POINT('Ctrl Pts',(-31.714769088447,83.5264214166639,14.9335739005418));
#216=CARTESIAN_POINT('Ctrl Pts',(-32.817377902758,65.1283315601333,9.50941887527886));
#217=CARTESIAN_POINT('Ctrl Pts',(-33.1030484651708,55.6179901960369,7.2604081128152));
#218=CARTESIAN_POINT('Ctrl Pts',(-33.0543251542375,36.2663292967571,3.82717474375877));
#219=CARTESIAN_POINT('Ctrl Pts',(-32.719764858835,26.425024718722,2.64287019447863));
#220=CARTESIAN_POINT('Ctrl Pts',(-31.3893986367019,6.62100238069918,1.39621688633617));
#221=CARTESIAN_POINT('Ctrl Pts',(-30.3933835091263,-3.34389390724854,1.3336365901839));
#222=CARTESIAN_POINT('Ctrl Pts',(-27.7435419641918,-23.1898264736124,2.33602763740867));
#223=CARTESIAN_POINT('Ctrl Pts',(-26.0897416862606,-33.0708711408344,3.4009019918173));
#224=CARTESIAN_POINT('Ctrl Pts',(-22.1734676034909,-52.5480487616376,6.61412659308046));
#225=CARTESIAN_POINT('Ctrl Pts',(-19.9078511461386,-62.1604768632255,8.7650036288103));
#226=CARTESIAN_POINT('Ctrl Pts',(-14.84544368406,-80.9496059141188,14.0774080575681));
#227=CARTESIAN_POINT('Ctrl Pts',(-12.0488076286955,-90.1263677933037,17.2388676073718));
#228=CARTESIAN_POINT('Ctrl Pts',(-6.04444509684146,-107.882121175226,24.453592643447));
#229=CARTESIAN_POINT('Ctrl Pts',(-2.83647855434454,-116.462519965321,28.5073805464305));
#230=CARTESIAN_POINT('Ctrl Pts',(0.515972152963297,-124.708089264846,32.9467799218505));
#231=CARTESIAN_POINT('Ctrl Pts',(0.528664442269545,-124.739296856947,32.9635901721243));
#232=CARTESIAN_POINT('Ctrl Pts',(0.54135861625063,-124.770499177701,32.9804057213572));
#233=CARTESIAN_POINT('',(-26.2922225860358,125.482117994304,31.6599517615931));
#234=CARTESIAN_POINT('Origin',(422.976023053112,47.0904072041694,177.120755369441));
#235=CARTESIAN_POINT('',(0.831568622043974,-125.482117994304,31.6599517615931));
#236=CARTESIAN_POINT('Ctrl Pts',(0.831568622044045,-125.482117994304,31.6599517615932));
#237=CARTESIAN_POINT('Ctrl Pts',(0.730180745258815,-125.23410441345,31.5262923260608));
#238=CARTESIAN_POINT('Ctrl Pts',(0.628911063950594,-124.985755957459,31.3929637740743));
#239=CARTESIAN_POINT('Ctrl Pts',(-2.80372977820948,-116.546400724969,26.8795855422192));
#240=CARTESIAN_POINT('Ctrl Pts',(-6.0036668242556,-107.993126629623,22.8622118336874));
#241=CARTESIAN_POINT('Ctrl Pts',(-11.9942882686603,-90.2970196899934,15.7073467451614));
#242=CARTESIAN_POINT('Ctrl Pts',(-14.7852088838916,-81.1528062351914,12.5693474498237));
#243=CARTESIAN_POINT('Ctrl Pts',(-19.8399387780498,-62.4323846148111,7.28991270649776));
#244=CARTESIAN_POINT('Ctrl Pts',(-22.1035960084803,-52.8561163910983,5.14854464400691));
#245=CARTESIAN_POINT('Ctrl Pts',(-26.0206077198614,-33.4527556729129,1.93979750282874));
#246=CARTESIAN_POINT('Ctrl Pts',(-27.677055831034,-23.6096852035751,0.869934863498887));
#247=CARTESIAN_POINT('Ctrl Pts',(-30.3371592148234,-3.83953837152961,-0.157299964278009));
#248=CARTESIAN_POINT('Ctrl Pts',(-31.3407879816302,6.08754655533842,-0.114575963404296));
#249=CARTESIAN_POINT('Ctrl Pts',(-32.6910717541089,25.8184049488409,1.07763572284408));
#250=CARTESIAN_POINT('Ctrl Pts',(-33.0379333586313,35.6243152144485,2.22734592012191));
#251=CARTESIAN_POINT('Ctrl Pts',(-33.1150409024195,54.9096838791144,5.57730202066537));
#252=CARTESIAN_POINT('Ctrl Pts',(-32.8454484538503,64.3891276831143,7.77762822389958));
#253=CARTESIAN_POINT('Ctrl Pts',(-31.7771289352021,82.73250988484,13.0922381563518));
#254=CARTESIAN_POINT('Ctrl Pts',(-30.9717623322015,91.8047392844802,16.2556106252935));
#255=CARTESIAN_POINT('Ctrl Pts',(-28.9192376435244,109.135214908664,23.3933426228627));
#256=CARTESIAN_POINT('Ctrl Pts',(-27.7006478315042,117.410336771931,27.3099088397118));
#257=CARTESIAN_POINT('Ctrl Pts',(-26.2922225860358,125.482117994304,31.6599517615932));
#258=CARTESIAN_POINT('Origin',(422.976023053112,47.0904072041694,351.87924463056));
#259=CARTESIAN_POINT('Origin',(-8.88178419700125E-15,-2.66453525910038E-14,
264.5));
#260=CARTESIAN_POINT('',(35.,-125.482117994304,31.6599517615931));
#261=CARTESIAN_POINT('',(-35.,125.482117994304,31.6599517615931));
#262=CARTESIAN_POINT('Origin',(35.,-125.482117994304,31.6599517615931));
#263=CARTESIAN_POINT('',(35.,-124.770499177701,32.9804057213573));
#264=CARTESIAN_POINT('Origin',(-8.88178419700125E-15,-2.66453525910038E-14,
264.5));
#265=CARTESIAN_POINT('',(-35.,124.770499177701,32.9804057213573));
#266=CARTESIAN_POINT('Origin',(-35.,125.482117994304,31.6599517615931));
#267=UNCERTAINTY_MEASURE_WITH_UNIT(LENGTH_MEASURE(0.01),#271,
'DISTANCE_ACCURACY_VALUE',
'Maximum model space distance between geometric entities at asserted c
onnectivities');
#268=UNCERTAINTY_MEASURE_WITH_UNIT(LENGTH_MEASURE(0.01),#271,
'DISTANCE_ACCURACY_VALUE',
'Maximum model space distance between geometric entities at asserted c
onnectivities');
#269=(
GEOMETRIC_REPRESENTATION_CONTEXT(3)
GLOBAL_UNCERTAINTY_ASSIGNED_CONTEXT((#267))
GLOBAL_UNIT_ASSIGNED_CONTEXT((#271,#273,#274))
REPRESENTATION_CONTEXT('','3D')
);
#270=(
GEOMETRIC_REPRESENTATION_CONTEXT(3)
GLOBAL_UNCERTAINTY_ASSIGNED_CONTEXT((#268))
GLOBAL_UNIT_ASSIGNED_CONTEXT((#271,#273,#274))
REPRESENTATION_CONTEXT('','3D')
);
#271=(
LENGTH_UNIT()
NAMED_UNIT(*)
SI_UNIT(.MILLI.,.METRE.)
);
#272=(
LENGTH_UNIT()
NAMED_UNIT(*)
SI_UNIT(.CENTI.,.METRE.)
);
#273=(
NAMED_UNIT(*)
PLANE_ANGLE_UNIT()
SI_UNIT($,.RADIAN.)
);
#274=(
NAMED_UNIT(*)
SI_UNIT($,.STERADIAN.)
SOLID_ANGLE_UNIT()
);
#275=SHAPE_DEFINITION_REPRESENTATION(#276,#277);
#276=PRODUCT_DEFINITION_SHAPE('',$,#279);
#277=SHAPE_REPRESENTATION('',(#119),#269);
#278=PRODUCT_DEFINITION_CONTEXT('part definition',#283,'design');
#279=PRODUCT_DEFINITION('Part4','Part4',#280,#278);
#280=PRODUCT_DEFINITION_FORMATION('',$,#285);
#281=PRODUCT_RELATED_PRODUCT_CATEGORY('Part4','Part4',(#285));
#282=APPLICATION_PROTOCOL_DEFINITION('international standard',
'automotive_design',2009,#283);
#283=APPLICATION_CONTEXT(
'Core Data for Automotive Mechanical Design Process');
#284=PRODUCT_CONTEXT('part definition',#283,'mechanical');
#285=PRODUCT('Part4','Part4',$,(#284));
#286=PRESENTATION_STYLE_ASSIGNMENT((#288));
#287=PRESENTATION_STYLE_ASSIGNMENT((#289));
#288=SURFACE_STYLE_USAGE(.BOTH.,#294);
#289=SURFACE_STYLE_USAGE(.BOTH.,#295);
#290=SURFACE_STYLE_RENDERING_WITH_PROPERTIES($,#302,(#292));
#291=SURFACE_STYLE_RENDERING_WITH_PROPERTIES($,#303,(#293));
#292=SURFACE_STYLE_TRANSPARENT(0.);
#293=SURFACE_STYLE_TRANSPARENT(0.);
#294=SURFACE_SIDE_STYLE('',(#296,#290));
#295=SURFACE_SIDE_STYLE('',(#297,#291));
#296=SURFACE_STYLE_FILL_AREA(#298);
#297=SURFACE_STYLE_FILL_AREA(#299);
#298=FILL_AREA_STYLE('',(#300));
#299=FILL_AREA_STYLE('',(#301));
#300=FILL_AREA_STYLE_COLOUR('',#302);
#301=FILL_AREA_STYLE_COLOUR('',#303);
#302=COLOUR_RGB('',0.749019607843137,0.749019607843137,0.749019607843137);
#303=COLOUR_RGB('',1.,0.,0.349019607843137);
ENDSEC;
END-ISO-10303-21;
