ISO-10303-21;
HEADER;
/* Generated by software containing ST-Developer
 * from STEP Tools, Inc. (www.steptools.com) 
 */

FILE_DESCRIPTION(
/* description */ (''),
/* implementation_level */ '2;1');

FILE_NAME(
/* name */ 'C:\\Users\\Mikes\\Desktop\\Christel 011.stp',
/* time_stamp */ '2021-03-28T16:52:22+02:00',
/* author */ ('Mikes'),
/* organization */ (''),
/* preprocessor_version */ 'ST-DEVELOPER v18.1',
/* originating_system */ 'Autodesk Inventor 2021',
/* authorisation */ '');

FILE_SCHEMA (('AUTOMOTIVE_DESIGN { 1 0 10303 214 3 1 1 }'));
ENDSEC;

DATA;
#10=MECHANICAL_DESIGN_GEOMETRIC_PRESENTATION_REPRESENTATION('',(#56,#57,
#58),#343);
#11=CONTEXT_DEPENDENT_OVER_RIDING_STYLED_ITEM('',(#373),#359,#58,(#26));
#12=CONTEXT_DEPENDENT_OVER_RIDING_STYLED_ITEM('',(#373),#359,#58,(#30));
#13=CONTEXT_DEPENDENT_OVER_RIDING_STYLED_ITEM('',(#372),#359,#58,(#25));
#14=CONTEXT_DEPENDENT_OVER_RIDING_STYLED_ITEM('',(#372),#359,#58,(#29));
#15=CONTEXT_DEPENDENT_OVER_RIDING_STYLED_ITEM('',(#373),#359,#58,(#28));
#16=CONTEXT_DEPENDENT_OVER_RIDING_STYLED_ITEM('',(#372),#359,#58,(#27));
#17=MAPPED_ITEM('',#18,#176);
#18=REPRESENTATION_MAP(#176,#358);
#19=ITEM_DEFINED_TRANSFORMATION($,$,#159,#170);
#20=ITEM_DEFINED_TRANSFORMATION($,$,#159,#171);
#21=ITEM_DEFINED_TRANSFORMATION($,$,#159,#172);
#22=ITEM_DEFINED_TRANSFORMATION($,$,#159,#173);
#23=ITEM_DEFINED_TRANSFORMATION($,$,#159,#174);
#24=ITEM_DEFINED_TRANSFORMATION($,$,#159,#175);
#25=(
REPRESENTATION_RELATIONSHIP($,$,#359,#358)
REPRESENTATION_RELATIONSHIP_WITH_TRANSFORMATION(#19)
SHAPE_REPRESENTATION_RELATIONSHIP()
);
#26=(
REPRESENTATION_RELATIONSHIP($,$,#359,#358)
REPRESENTATION_RELATIONSHIP_WITH_TRANSFORMATION(#20)
SHAPE_REPRESENTATION_RELATIONSHIP()
);
#27=(
REPRESENTATION_RELATIONSHIP($,$,#359,#358)
REPRESENTATION_RELATIONSHIP_WITH_TRANSFORMATION(#21)
SHAPE_REPRESENTATION_RELATIONSHIP()
);
#28=(
REPRESENTATION_RELATIONSHIP($,$,#359,#358)
REPRESENTATION_RELATIONSHIP_WITH_TRANSFORMATION(#22)
SHAPE_REPRESENTATION_RELATIONSHIP()
);
#29=(
REPRESENTATION_RELATIONSHIP($,$,#359,#358)
REPRESENTATION_RELATIONSHIP_WITH_TRANSFORMATION(#23)
SHAPE_REPRESENTATION_RELATIONSHIP()
);
#30=(
REPRESENTATION_RELATIONSHIP($,$,#359,#358)
REPRESENTATION_RELATIONSHIP_WITH_TRANSFORMATION(#24)
SHAPE_REPRESENTATION_RELATIONSHIP()
);
#31=CONTEXT_DEPENDENT_SHAPE_REPRESENTATION(#25,#352);
#32=CONTEXT_DEPENDENT_SHAPE_REPRESENTATION(#26,#353);
#33=CONTEXT_DEPENDENT_SHAPE_REPRESENTATION(#27,#354);
#34=CONTEXT_DEPENDENT_SHAPE_REPRESENTATION(#28,#355);
#35=CONTEXT_DEPENDENT_SHAPE_REPRESENTATION(#29,#356);
#36=CONTEXT_DEPENDENT_SHAPE_REPRESENTATION(#30,#357);
#37=NEXT_ASSEMBLY_USAGE_OCCURRENCE('Part4:1','Part4:1','Part4:1',#361,#362,
'Part4:1');
#38=NEXT_ASSEMBLY_USAGE_OCCURRENCE('Part4:2','Part4:2','Part4:2',#361,#362,
'Part4:2');
#39=NEXT_ASSEMBLY_USAGE_OCCURRENCE('Part4:3','Part4:3','Part4:3',#361,#362,
'Part4:3');
#40=NEXT_ASSEMBLY_USAGE_OCCURRENCE('Part4:4','Part4:4','Part4:4',#361,#362,
'Part4:4');
#41=NEXT_ASSEMBLY_USAGE_OCCURRENCE('Part4:5','Part4:5','Part4:5',#361,#362,
'Part4:5');
#42=NEXT_ASSEMBLY_USAGE_OCCURRENCE('Part4:6','Part4:6','Part4:6',#361,#362,
'Part4:6');
#43=SHAPE_REPRESENTATION_RELATIONSHIP('SRR','None',#359,#44);
#44=ADVANCED_BREP_SHAPE_REPRESENTATION('',(#45),#342);
#45=MANIFOLD_SOLID_BREP('Solid2',#133);
#46=PLANE('',#167);
#47=PLANE('',#169);
#48=LINE('',#324,#52);
#49=LINE('',#325,#53);
#50=LINE('',#327,#54);
#51=LINE('',#329,#55);
#52=VECTOR('',#195,10.);
#53=VECTOR('',#196,10.);
#54=VECTOR('',#199,10.);
#55=VECTOR('',#202,10.);
#56=STYLED_ITEM('',(#375),#129);
#57=STYLED_ITEM('',(#374),#45);
#58=STYLED_ITEM('',(#376),#17);
#59=FACE_OUTER_BOUND('',#65,.T.);
#60=FACE_OUTER_BOUND('',#66,.T.);
#61=FACE_OUTER_BOUND('',#67,.T.);
#62=FACE_OUTER_BOUND('',#68,.T.);
#63=FACE_OUTER_BOUND('',#69,.T.);
#64=FACE_OUTER_BOUND('',#70,.T.);
#65=EDGE_LOOP('',(#99,#100,#101,#102));
#66=EDGE_LOOP('',(#103,#104,#105,#106));
#67=EDGE_LOOP('',(#107,#108,#109,#110));
#68=EDGE_LOOP('',(#111,#112,#113,#114));
#69=EDGE_LOOP('',(#115,#116,#117,#118));
#70=EDGE_LOOP('',(#119,#120,#121,#122));
#71=ELLIPSE('',#161,961.307117111072,456.056155380323);
#72=ELLIPSE('',#162,961.307117111072,456.056155380323);
#73=ELLIPSE('',#164,961.307117111071,456.056155380323);
#74=ELLIPSE('',#165,961.307117111071,456.056155380323);
#75=B_SPLINE_CURVE_WITH_KNOTS('',3,(#224,#225,#226,#227,#228,#229,#230,
#231,#232,#233,#234,#235,#236,#237,#238,#239,#240,#241,#242,#243,#244,#245),
 .UNSPECIFIED.,.F.,.F.,(4,2,2,2,2,2,2,2,2,2,4),(2.88524594547313,2.89625110224393,
5.79250220448786,8.68875330673179,11.5850044089757,14.4812555112197,17.3775066134636,
20.2737577157075,23.1700088179514,26.0375604784151,28.5655478841613),
 .UNSPECIFIED.);
#76=B_SPLINE_CURVE_WITH_KNOTS('',3,(#249,#250,#251,#252,#253,#254,#255,
#256,#257,#258,#259,#260,#261,#262,#263,#264,#265,#266,#267,#268,#269,#270),
 .UNSPECIFIED.,.F.,.F.,(4,2,2,2,2,2,2,2,2,2,4),(17.2949450910222,19.9846107533335,
22.8395551466669,25.7228983928125,28.606241638958,31.4895848851036,34.3729281312492,
37.2562713773948,40.1396146235403,43.0229578696859,43.1105006698621),
 .UNSPECIFIED.);
#77=B_SPLINE_CURVE_WITH_KNOTS('',3,(#275,#276,#277,#278,#279,#280,#281,
#282,#283,#284,#285,#286,#287,#288,#289,#290,#291,#292,#293,#294,#295,#296),
 .UNSPECIFIED.,.F.,.F.,(4,2,2,2,2,2,2,2,2,2,4),(17.5448742175029,20.0728616232472,
22.9404132837111,25.8366643859552,28.7329154881994,31.6291665904436,34.5254176926877,
37.4216687949319,40.317919897176,43.2141709994202,43.2251761561912),
 .UNSPECIFIED.);
#78=B_SPLINE_CURVE_WITH_KNOTS('',3,(#300,#301,#302,#303,#304,#305,#306,
#307,#308,#309,#310,#311,#312,#313,#314,#315,#316,#317,#318,#319,#320,#321),
 .UNSPECIFIED.,.F.,.F.,(4,2,2,2,2,2,2,2,2,2,4),(2.7958004459694,2.88334324614558,
5.76668649229116,8.65002973843674,11.5333729845823,14.4167162307279,17.3000594768735,
20.1834027230191,23.0667459691646,25.921690362498,28.6113560248093),
 .UNSPECIFIED.);
#79=VERTEX_POINT('',#222);
#80=VERTEX_POINT('',#223);
#81=VERTEX_POINT('',#246);
#82=VERTEX_POINT('',#248);
#83=VERTEX_POINT('',#273);
#84=VERTEX_POINT('',#274);
#85=VERTEX_POINT('',#297);
#86=VERTEX_POINT('',#299);
#87=EDGE_CURVE('',#79,#80,#75,.T.);
#88=EDGE_CURVE('',#81,#79,#71,.T.);
#89=EDGE_CURVE('',#82,#81,#76,.T.);
#90=EDGE_CURVE('',#80,#82,#72,.T.);
#91=EDGE_CURVE('',#83,#84,#77,.T.);
#92=EDGE_CURVE('',#85,#83,#73,.T.);
#93=EDGE_CURVE('',#86,#85,#78,.T.);
#94=EDGE_CURVE('',#84,#86,#74,.T.);
#95=EDGE_CURVE('',#81,#86,#48,.T.);
#96=EDGE_CURVE('',#85,#82,#49,.T.);
#97=EDGE_CURVE('',#79,#84,#50,.T.);
#98=EDGE_CURVE('',#83,#80,#51,.T.);
#99=ORIENTED_EDGE('',*,*,#87,.F.);
#100=ORIENTED_EDGE('',*,*,#88,.F.);
#101=ORIENTED_EDGE('',*,*,#89,.F.);
#102=ORIENTED_EDGE('',*,*,#90,.F.);
#103=ORIENTED_EDGE('',*,*,#91,.F.);
#104=ORIENTED_EDGE('',*,*,#92,.F.);
#105=ORIENTED_EDGE('',*,*,#93,.F.);
#106=ORIENTED_EDGE('',*,*,#94,.F.);
#107=ORIENTED_EDGE('',*,*,#89,.T.);
#108=ORIENTED_EDGE('',*,*,#95,.T.);
#109=ORIENTED_EDGE('',*,*,#93,.T.);
#110=ORIENTED_EDGE('',*,*,#96,.T.);
#111=ORIENTED_EDGE('',*,*,#88,.T.);
#112=ORIENTED_EDGE('',*,*,#97,.T.);
#113=ORIENTED_EDGE('',*,*,#94,.T.);
#114=ORIENTED_EDGE('',*,*,#95,.F.);
#115=ORIENTED_EDGE('',*,*,#87,.T.);
#116=ORIENTED_EDGE('',*,*,#98,.F.);
#117=ORIENTED_EDGE('',*,*,#91,.T.);
#118=ORIENTED_EDGE('',*,*,#97,.F.);
#119=ORIENTED_EDGE('',*,*,#90,.T.);
#120=ORIENTED_EDGE('',*,*,#96,.F.);
#121=ORIENTED_EDGE('',*,*,#92,.T.);
#122=ORIENTED_EDGE('',*,*,#98,.T.);
#123=CYLINDRICAL_SURFACE('',#160,456.056155380323);
#124=CYLINDRICAL_SURFACE('',#163,456.056155380323);
#125=CYLINDRICAL_SURFACE('',#166,264.5);
#126=CYLINDRICAL_SURFACE('',#168,263.);
#127=ADVANCED_FACE('',(#59),#123,.T.);
#128=ADVANCED_FACE('',(#60),#124,.T.);
#129=ADVANCED_FACE('',(#61),#125,.T.);
#130=ADVANCED_FACE('',(#62),#46,.T.);
#131=ADVANCED_FACE('',(#63),#126,.F.);
#132=ADVANCED_FACE('',(#64),#47,.T.);
#133=CLOSED_SHELL('',(#127,#128,#129,#130,#131,#132));
#134=DERIVED_UNIT_ELEMENT(#136,1.);
#135=DERIVED_UNIT_ELEMENT(#345,3.);
#136=(
MASS_UNIT()
NAMED_UNIT(*)
SI_UNIT($,.GRAM.)
);
#137=DERIVED_UNIT((#134,#135));
#138=MEASURE_REPRESENTATION_ITEM('density measure',
POSITIVE_RATIO_MEASURE(1.),#137);
#139=PROPERTY_DEFINITION_REPRESENTATION(#144,#141);
#140=PROPERTY_DEFINITION_REPRESENTATION(#145,#142);
#141=REPRESENTATION('material name',(#143),#342);
#142=REPRESENTATION('density',(#138),#342);
#143=DESCRIPTIVE_REPRESENTATION_ITEM('Generic','Generic');
#144=PROPERTY_DEFINITION('material property','material name',#362);
#145=PROPERTY_DEFINITION('material property','density of part',#362);
#146=DATE_TIME_ROLE('creation_date');
#147=DATE_TIME_ROLE('creation_date');
#148=APPLIED_DATE_AND_TIME_ASSIGNMENT(#150,#146,(#361));
#149=APPLIED_DATE_AND_TIME_ASSIGNMENT(#151,#147,(#362));
#150=DATE_AND_TIME(#152,#154);
#151=DATE_AND_TIME(#153,#155);
#152=CALENDAR_DATE(2021,28,3);
#153=CALENDAR_DATE(2021,28,3);
#154=LOCAL_TIME(0,0,0.,#156);
#155=LOCAL_TIME(0,0,0.,#157);
#156=COORDINATED_UNIVERSAL_TIME_OFFSET(0,0,.BEHIND.);
#157=COORDINATED_UNIVERSAL_TIME_OFFSET(0,0,.BEHIND.);
#158=AXIS2_PLACEMENT_3D('placement',#219,#177,#178);
#159=AXIS2_PLACEMENT_3D('placement',#220,#179,#180);
#160=AXIS2_PLACEMENT_3D('',#221,#181,#182);
#161=AXIS2_PLACEMENT_3D('',#247,#183,#184);
#162=AXIS2_PLACEMENT_3D('',#271,#185,#186);
#163=AXIS2_PLACEMENT_3D('',#272,#187,#188);
#164=AXIS2_PLACEMENT_3D('',#298,#189,#190);
#165=AXIS2_PLACEMENT_3D('',#322,#191,#192);
#166=AXIS2_PLACEMENT_3D('',#323,#193,#194);
#167=AXIS2_PLACEMENT_3D('',#326,#197,#198);
#168=AXIS2_PLACEMENT_3D('',#328,#200,#201);
#169=AXIS2_PLACEMENT_3D('',#330,#203,#204);
#170=AXIS2_PLACEMENT_3D('',#331,#205,#206);
#171=AXIS2_PLACEMENT_3D('',#332,#207,#208);
#172=AXIS2_PLACEMENT_3D('',#333,#209,#210);
#173=AXIS2_PLACEMENT_3D('',#334,#211,#212);
#174=AXIS2_PLACEMENT_3D('',#335,#213,#214);
#175=AXIS2_PLACEMENT_3D('',#336,#215,#216);
#176=AXIS2_PLACEMENT_3D('',#337,#217,#218);
#177=DIRECTION('axis',(0.,0.,1.));
#178=DIRECTION('refdir',(1.,0.,0.));
#179=DIRECTION('axis',(0.,0.,1.));
#180=DIRECTION('refdir',(1.,0.,0.));
#181=DIRECTION('center_axis',(0.,0.,1.));
#182=DIRECTION('ref_axis',(0.925637757269029,-0.378410811576471,0.));
#183=DIRECTION('center_axis',(-3.18223624493906E-17,-0.880302639842748,
0.474412544401905));
#184=DIRECTION('ref_axis',(-9.23927851870365E-17,-0.474412544401905,-0.880302639842748));
#185=DIRECTION('center_axis',(-4.78602823885608E-16,0.880302639842748,0.474412544401905));
#186=DIRECTION('ref_axis',(2.58699798523702E-16,-0.474412544401905,0.880302639842748));
#187=DIRECTION('center_axis',(0.,0.,1.));
#188=DIRECTION('ref_axis',(-0.984574254569786,0.174967246187249,0.));
#189=DIRECTION('center_axis',(-4.78602823885608E-16,0.880302639842748,0.474412544401905));
#190=DIRECTION('ref_axis',(-2.30981962967591E-16,0.474412544401905,-0.880302639842748));
#191=DIRECTION('center_axis',(-3.18223624493906E-17,-0.880302639842748,
0.474412544401905));
#192=DIRECTION('ref_axis',(-9.23927851870365E-18,0.474412544401905,0.880302639842748));
#193=DIRECTION('center_axis',(-1.,-2.53765262771464E-16,0.));
#194=DIRECTION('ref_axis',(0.,0.,-1.));
#195=DIRECTION('',(-1.,-3.03750320533557E-17,-1.20389423992228E-16));
#196=DIRECTION('',(1.,4.77155493489573E-16,1.20389423992228E-16));
#197=DIRECTION('center_axis',(-3.18223624493906E-17,-0.880302639842748,
0.474412544401905));
#198=DIRECTION('ref_axis',(1.20389423992228E-16,-0.474412544401905,-0.880302639842748));
#199=DIRECTION('',(-1.,-3.03750320533557E-17,-1.20389423992228E-16));
#200=DIRECTION('center_axis',(-1.,-2.53765262771464E-16,0.));
#201=DIRECTION('ref_axis',(0.,0.,-1.));
#202=DIRECTION('',(1.,4.77155493489573E-16,1.20389423992228E-16));
#203=DIRECTION('center_axis',(-4.78602823885608E-16,0.880302639842748,0.474412544401905));
#204=DIRECTION('ref_axis',(1.20389423992228E-16,-0.474412544401905,0.880302639842748));
#205=DIRECTION('',(-0.97300369443375,0.190094651070369,0.130873351957944));
#206=DIRECTION('',(0.13330404888346,-4.24649739239442E-16,0.991075189151296));
#207=DIRECTION('',(-0.373049097588678,0.18961433847359,0.908229471793057));
#208=DIRECTION('',(0.924947904597083,-0.000847217016911526,0.380092957057601));
#209=DIRECTION('',(0.59290936772561,0.189614338473558,0.782626912588912));
#210=DIRECTION('',(0.796988055433832,0.000847217016872162,-0.603994471596492));
#211=DIRECTION('',(0.974117341849583,0.19009465107032,-0.122308740253329));
#212=DIRECTION('',(-0.124580367551397,5.80265002714247E-16,-0.9922095202228));
#213=DIRECTION('',(0.365190460300065,0.190094651070351,-0.911317700552485));
#214=DIRECTION('',(-0.928243507829222,3.462341262801E-14,-0.371973104098806));
#215=DIRECTION('',(-0.603241062412255,0.190094651070369,-0.77457358866293));
#216=DIRECTION('',(-0.788959662010799,-4.92227786308418E-16,0.614444994869195));
#217=DIRECTION('center_axis',(0.,0.,1.));
#218=DIRECTION('ref_axis',(1.,0.,0.));
#219=CARTESIAN_POINT('',(0.,0.,0.));
#220=CARTESIAN_POINT('',(0.,0.,0.));
#221=CARTESIAN_POINT('Origin',(-421.309570656844,47.0904072041689,-0.0010000000000332));
#222=CARTESIAN_POINT('',(1.12509378001725,-124.770499177701,32.9804057213572));
#223=CARTESIAN_POINT('',(28.082263015359,124.770499177701,32.9804057213573));
#224=CARTESIAN_POINT('Ctrl Pts',(1.12509378001726,-124.770499177701,32.9804057213573));
#225=CARTESIAN_POINT('Ctrl Pts',(1.1377879539981,-124.739296856948,32.9635901721247));
#226=CARTESIAN_POINT('Ctrl Pts',(1.15048024330411,-124.708089264847,32.9467799218511));
#227=CARTESIAN_POINT('Ctrl Pts',(4.50293095061145,-116.462519965323,28.5073805464318));
#228=CARTESIAN_POINT('Ctrl Pts',(7.71089749310817,-107.882121175229,24.4535926434485));
#229=CARTESIAN_POINT('Ctrl Pts',(13.7152600249619,-90.1263677933084,17.2388676073735));
#230=CARTESIAN_POINT('Ctrl Pts',(16.5118960803261,-80.9496059141242,14.0774080575698));
#231=CARTESIAN_POINT('Ctrl Pts',(21.5743035424046,-62.1604768632325,8.76500362881197));
#232=CARTESIAN_POINT('Ctrl Pts',(23.839919999757,-52.5480487616453,6.61412659308204));
#233=CARTESIAN_POINT('Ctrl Pts',(27.7561940825268,-33.0708711408437,3.40090199181849));
#234=CARTESIAN_POINT('Ctrl Pts',(29.4099943604579,-23.1898264736225,2.33602763740961));
#235=CARTESIAN_POINT('Ctrl Pts',(32.0598359053927,-3.34389390726013,1.33363659018409));
#236=CARTESIAN_POINT('Ctrl Pts',(33.0558510329685,6.62100238068685,1.3962168863359));
#237=CARTESIAN_POINT('Ctrl Pts',(34.386217255102,26.4250247187082,2.64287019447728));
#238=CARTESIAN_POINT('Ctrl Pts',(34.7207775505048,36.2663292967427,3.82717474375677));
#239=CARTESIAN_POINT('Ctrl Pts',(34.7695008614388,55.6179901960212,7.2604081128118));
#240=CARTESIAN_POINT('Ctrl Pts',(34.4838302990264,65.128331560117,9.50941887527472));
#241=CARTESIAN_POINT('Ctrl Pts',(33.381221484716,83.5264214166465,14.933573900536));
#242=CARTESIAN_POINT('Ctrl Pts',(32.5575711865357,92.6190665316695,18.1576097924903));
#243=CARTESIAN_POINT('Ctrl Pts',(30.5348528061064,109.434654881595,25.19683028895));
#244=CARTESIAN_POINT('Ctrl Pts',(29.3921636750705,117.192513049714,28.8964787652111));
#245=CARTESIAN_POINT('Ctrl Pts',(28.0822630153591,124.770499177701,32.9804057213573));
#246=CARTESIAN_POINT('',(0.83488377422384,-125.482117994304,31.6599517615931));
#247=CARTESIAN_POINT('Origin',(-421.309570656844,47.0904072041689,351.879244630559));
#248=CARTESIAN_POINT('',(27.9586749823034,125.482117994304,31.6599517615931));
#249=CARTESIAN_POINT('Ctrl Pts',(27.9586749823034,125.482117994304,31.6599517615932));
#250=CARTESIAN_POINT('Ctrl Pts',(29.3671002277719,117.410336771931,27.3099088397117));
#251=CARTESIAN_POINT('Ctrl Pts',(30.585690039792,109.135214908664,23.3933426228625));
#252=CARTESIAN_POINT('Ctrl Pts',(32.6382147284692,91.8047392844798,16.2556106252933));
#253=CARTESIAN_POINT('Ctrl Pts',(33.4435813314698,82.7325098848395,13.0922381563517));
#254=CARTESIAN_POINT('Ctrl Pts',(34.511900850118,64.3891276831139,7.7776282238995));
#255=CARTESIAN_POINT('Ctrl Pts',(34.7814932986872,54.909683879114,5.57730202066528));
#256=CARTESIAN_POINT('Ctrl Pts',(34.704385754899,35.6243152144482,2.22734592012185));
#257=CARTESIAN_POINT('Ctrl Pts',(34.3575241503767,25.8184049488406,1.07763572284406));
#258=CARTESIAN_POINT('Ctrl Pts',(33.007240377898,6.08754655533814,-0.114575963404283));
#259=CARTESIAN_POINT('Ctrl Pts',(32.003611611091,-3.83953837152986,-0.157299964278016));
#260=CARTESIAN_POINT('Ctrl Pts',(29.3435082273016,-23.6096852035753,0.869934863498895));
#261=CARTESIAN_POINT('Ctrl Pts',(27.6870601161291,-33.4527556729131,1.93979750282877));
#262=CARTESIAN_POINT('Ctrl Pts',(23.7700484047481,-52.8561163910985,5.14854464400695));
#263=CARTESIAN_POINT('Ctrl Pts',(21.5063911743175,-62.4323846148112,7.28991270649778));
#264=CARTESIAN_POINT('Ctrl Pts',(16.4516612801594,-81.1528062351915,12.5693474498238));
#265=CARTESIAN_POINT('Ctrl Pts',(13.6607406649281,-90.2970196899935,15.7073467451615));
#266=CARTESIAN_POINT('Ctrl Pts',(7.67011922052344,-107.993126629623,22.8622118336875));
#267=CARTESIAN_POINT('Ctrl Pts',(4.47018217447735,-116.546400724969,26.8795855422193));
#268=CARTESIAN_POINT('Ctrl Pts',(1.0375413323173,-124.985755957459,31.3929637740743));
#269=CARTESIAN_POINT('Ctrl Pts',(0.936271651009049,-125.23410441345,31.5262923260609));
#270=CARTESIAN_POINT('Ctrl Pts',(0.834883774223833,-125.482117994304,31.6599517615932));
#271=CARTESIAN_POINT('Origin',(-421.309570656844,47.0904072041689,177.120755369441));
#272=CARTESIAN_POINT('Origin',(422.976023053112,47.0904072041694,-0.0010000000000332));
#273=CARTESIAN_POINT('',(-26.4158106190915,124.770499177701,32.9804057213573));
#274=CARTESIAN_POINT('',(0.541358616250562,-124.770499177701,32.9804057213572));
#275=CARTESIAN_POINT('Ctrl Pts',(-26.4158106190914,124.770499177701,32.9804057213573));
#276=CARTESIAN_POINT('Ctrl Pts',(-27.7257112788018,117.19251304972,28.8964787652143));
#277=CARTESIAN_POINT('Ctrl Pts',(-28.8684004098371,109.434654881607,25.1968302889556));
#278=CARTESIAN_POINT('Ctrl Pts',(-30.8911187902663,92.6190665316873,18.157609792497));
#279=CARTESIAN_POINT('Ctrl Pts',(-31.714769088447,83.5264214166639,14.9335739005418));
#280=CARTESIAN_POINT('Ctrl Pts',(-32.817377902758,65.1283315601333,9.50941887527886));
#281=CARTESIAN_POINT('Ctrl Pts',(-33.1030484651708,55.6179901960369,7.2604081128152));
#282=CARTESIAN_POINT('Ctrl Pts',(-33.0543251542375,36.2663292967571,3.82717474375877));
#283=CARTESIAN_POINT('Ctrl Pts',(-32.719764858835,26.425024718722,2.64287019447863));
#284=CARTESIAN_POINT('Ctrl Pts',(-31.3893986367019,6.62100238069918,1.39621688633617));
#285=CARTESIAN_POINT('Ctrl Pts',(-30.3933835091263,-3.34389390724854,1.3336365901839));
#286=CARTESIAN_POINT('Ctrl Pts',(-27.7435419641918,-23.1898264736124,2.33602763740867));
#287=CARTESIAN_POINT('Ctrl Pts',(-26.0897416862606,-33.0708711408344,3.4009019918173));
#288=CARTESIAN_POINT('Ctrl Pts',(-22.1734676034909,-52.5480487616376,6.61412659308046));
#289=CARTESIAN_POINT('Ctrl Pts',(-19.9078511461386,-62.1604768632255,8.7650036288103));
#290=CARTESIAN_POINT('Ctrl Pts',(-14.84544368406,-80.9496059141188,14.0774080575681));
#291=CARTESIAN_POINT('Ctrl Pts',(-12.0488076286955,-90.1263677933037,17.2388676073718));
#292=CARTESIAN_POINT('Ctrl Pts',(-6.04444509684146,-107.882121175226,24.453592643447));
#293=CARTESIAN_POINT('Ctrl Pts',(-2.83647855434454,-116.462519965321,28.5073805464305));
#294=CARTESIAN_POINT('Ctrl Pts',(0.515972152963297,-124.708089264846,32.9467799218505));
#295=CARTESIAN_POINT('Ctrl Pts',(0.528664442269545,-124.739296856947,32.9635901721243));
#296=CARTESIAN_POINT('Ctrl Pts',(0.54135861625063,-124.770499177701,32.9804057213572));
#297=CARTESIAN_POINT('',(-26.2922225860358,125.482117994304,31.6599517615931));
#298=CARTESIAN_POINT('Origin',(422.976023053112,47.0904072041694,177.120755369441));
#299=CARTESIAN_POINT('',(0.831568622043974,-125.482117994304,31.6599517615931));
#300=CARTESIAN_POINT('Ctrl Pts',(0.831568622044045,-125.482117994304,31.6599517615932));
#301=CARTESIAN_POINT('Ctrl Pts',(0.730180745258815,-125.23410441345,31.5262923260608));
#302=CARTESIAN_POINT('Ctrl Pts',(0.628911063950594,-124.985755957459,31.3929637740743));
#303=CARTESIAN_POINT('Ctrl Pts',(-2.80372977820948,-116.546400724969,26.8795855422192));
#304=CARTESIAN_POINT('Ctrl Pts',(-6.0036668242556,-107.993126629623,22.8622118336874));
#305=CARTESIAN_POINT('Ctrl Pts',(-11.9942882686603,-90.2970196899934,15.7073467451614));
#306=CARTESIAN_POINT('Ctrl Pts',(-14.7852088838916,-81.1528062351914,12.5693474498237));
#307=CARTESIAN_POINT('Ctrl Pts',(-19.8399387780498,-62.4323846148111,7.28991270649776));
#308=CARTESIAN_POINT('Ctrl Pts',(-22.1035960084803,-52.8561163910983,5.14854464400691));
#309=CARTESIAN_POINT('Ctrl Pts',(-26.0206077198614,-33.4527556729129,1.93979750282874));
#310=CARTESIAN_POINT('Ctrl Pts',(-27.677055831034,-23.6096852035751,0.869934863498887));
#311=CARTESIAN_POINT('Ctrl Pts',(-30.3371592148234,-3.83953837152961,-0.157299964278009));
#312=CARTESIAN_POINT('Ctrl Pts',(-31.3407879816302,6.08754655533842,-0.114575963404296));
#313=CARTESIAN_POINT('Ctrl Pts',(-32.6910717541089,25.8184049488409,1.07763572284408));
#314=CARTESIAN_POINT('Ctrl Pts',(-33.0379333586313,35.6243152144485,2.22734592012191));
#315=CARTESIAN_POINT('Ctrl Pts',(-33.1150409024195,54.9096838791144,5.57730202066537));
#316=CARTESIAN_POINT('Ctrl Pts',(-32.8454484538503,64.3891276831143,7.77762822389958));
#317=CARTESIAN_POINT('Ctrl Pts',(-31.7771289352021,82.73250988484,13.0922381563518));
#318=CARTESIAN_POINT('Ctrl Pts',(-30.9717623322015,91.8047392844802,16.2556106252935));
#319=CARTESIAN_POINT('Ctrl Pts',(-28.9192376435244,109.135214908664,23.3933426228627));
#320=CARTESIAN_POINT('Ctrl Pts',(-27.7006478315042,117.410336771931,27.3099088397118));
#321=CARTESIAN_POINT('Ctrl Pts',(-26.2922225860358,125.482117994304,31.6599517615932));
#322=CARTESIAN_POINT('Origin',(422.976023053112,47.0904072041694,351.87924463056));
#323=CARTESIAN_POINT('Origin',(-8.88178419700125E-15,-2.66453525910038E-14,
264.5));
#324=CARTESIAN_POINT('',(35.,-125.482117994304,31.6599517615931));
#325=CARTESIAN_POINT('',(-35.,125.482117994304,31.6599517615931));
#326=CARTESIAN_POINT('Origin',(35.,-125.482117994304,31.6599517615931));
#327=CARTESIAN_POINT('',(35.,-124.770499177701,32.9804057213573));
#328=CARTESIAN_POINT('Origin',(-8.88178419700125E-15,-2.66453525910038E-14,
264.5));
#329=CARTESIAN_POINT('',(-35.,124.770499177701,32.9804057213573));
#330=CARTESIAN_POINT('Origin',(-35.,125.482117994304,31.6599517615931));
#331=CARTESIAN_POINT('',(55.6043,128.4102,-7.42061));
#332=CARTESIAN_POINT('',(20.7397601667224,128.438286058324,-51.2305535183778));
#333=CARTESIAN_POINT('',(-34.47187,128.43687,-43.21761));
#334=CARTESIAN_POINT('',(-55.43762,128.4102,8.69851));
#335=CARTESIAN_POINT('',(-19.97444,128.4102,53.265));
#336=CARTESIAN_POINT('',(35.2448384964601,128.410196306751,44.6296508590248));
#337=CARTESIAN_POINT('Origin',(0.,0.,0.));
#338=UNCERTAINTY_MEASURE_WITH_UNIT(LENGTH_MEASURE(0.01),#344,
'DISTANCE_ACCURACY_VALUE',
'Maximum model space distance between geometric entities at asserted c
onnectivities');
#339=UNCERTAINTY_MEASURE_WITH_UNIT(LENGTH_MEASURE(0.01),#344,
'DISTANCE_ACCURACY_VALUE',
'Maximum model space distance between geometric entities at asserted c
onnectivities');
#340=UNCERTAINTY_MEASURE_WITH_UNIT(LENGTH_MEASURE(0.01),#344,
'DISTANCE_ACCURACY_VALUE',
'Maximum model space distance between geometric entities at asserted c
onnectivities');
#341=(
GEOMETRIC_REPRESENTATION_CONTEXT(3)
GLOBAL_UNCERTAINTY_ASSIGNED_CONTEXT((#338))
GLOBAL_UNIT_ASSIGNED_CONTEXT((#344,#346,#347))
REPRESENTATION_CONTEXT('','3D')
);
#342=(
GEOMETRIC_REPRESENTATION_CONTEXT(3)
GLOBAL_UNCERTAINTY_ASSIGNED_CONTEXT((#339))
GLOBAL_UNIT_ASSIGNED_CONTEXT((#344,#346,#347))
REPRESENTATION_CONTEXT('','3D')
);
#343=(
GEOMETRIC_REPRESENTATION_CONTEXT(3)
GLOBAL_UNCERTAINTY_ASSIGNED_CONTEXT((#340))
GLOBAL_UNIT_ASSIGNED_CONTEXT((#344,#346,#347))
REPRESENTATION_CONTEXT('','3D')
);
#344=(
LENGTH_UNIT()
NAMED_UNIT(*)
SI_UNIT(.MILLI.,.METRE.)
);
#345=(
LENGTH_UNIT()
NAMED_UNIT(*)
SI_UNIT(.CENTI.,.METRE.)
);
#346=(
NAMED_UNIT(*)
PLANE_ANGLE_UNIT()
SI_UNIT($,.RADIAN.)
);
#347=(
NAMED_UNIT(*)
SI_UNIT($,.STERADIAN.)
SOLID_ANGLE_UNIT()
);
#348=SHAPE_DEFINITION_REPRESENTATION(#350,#358);
#349=SHAPE_DEFINITION_REPRESENTATION(#351,#359);
#350=PRODUCT_DEFINITION_SHAPE('',$,#361);
#351=PRODUCT_DEFINITION_SHAPE('',$,#362);
#352=PRODUCT_DEFINITION_SHAPE($,$,#37);
#353=PRODUCT_DEFINITION_SHAPE($,$,#38);
#354=PRODUCT_DEFINITION_SHAPE($,$,#39);
#355=PRODUCT_DEFINITION_SHAPE($,$,#40);
#356=PRODUCT_DEFINITION_SHAPE($,$,#41);
#357=PRODUCT_DEFINITION_SHAPE($,$,#42);
#358=SHAPE_REPRESENTATION('',(#158,#170,#171,#172,#173,#174,#175),#341);
#359=SHAPE_REPRESENTATION('',(#159),#342);
#360=PRODUCT_DEFINITION_CONTEXT('part definition',#368,'design');
#361=PRODUCT_DEFINITION('Assembly1','Assembly1',#363,#360);
#362=PRODUCT_DEFINITION('Part4','Part4',#364,#360);
#363=PRODUCT_DEFINITION_FORMATION('',$,#370);
#364=PRODUCT_DEFINITION_FORMATION('',$,#371);
#365=PRODUCT_RELATED_PRODUCT_CATEGORY('Assembly1','Assembly1',(#370));
#366=PRODUCT_RELATED_PRODUCT_CATEGORY('Part4','Part4',(#371));
#367=APPLICATION_PROTOCOL_DEFINITION('international standard',
'automotive_design',2009,#368);
#368=APPLICATION_CONTEXT(
'Core Data for Automotive Mechanical Design Process');
#369=PRODUCT_CONTEXT('part definition',#368,'mechanical');
#370=PRODUCT('Assembly1','Assembly1',$,(#369));
#371=PRODUCT('Part4','Part4',$,(#369));
#372=PRESENTATION_STYLE_ASSIGNMENT((#377));
#373=PRESENTATION_STYLE_ASSIGNMENT((#378));
#374=PRESENTATION_STYLE_ASSIGNMENT((#379));
#375=PRESENTATION_STYLE_ASSIGNMENT((#380));
#376=PRESENTATION_STYLE_ASSIGNMENT((NULL_STYLE(.NULL.)));
#377=SURFACE_STYLE_USAGE(.BOTH.,#387);
#378=SURFACE_STYLE_USAGE(.BOTH.,#388);
#379=SURFACE_STYLE_USAGE(.BOTH.,#389);
#380=SURFACE_STYLE_USAGE(.BOTH.,#390);
#381=SURFACE_STYLE_RENDERING_WITH_PROPERTIES($,#403,(#384));
#382=SURFACE_STYLE_RENDERING_WITH_PROPERTIES($,#405,(#385));
#383=SURFACE_STYLE_RENDERING_WITH_PROPERTIES($,#406,(#386));
#384=SURFACE_STYLE_TRANSPARENT(0.);
#385=SURFACE_STYLE_TRANSPARENT(0.);
#386=SURFACE_STYLE_TRANSPARENT(0.);
#387=SURFACE_SIDE_STYLE('',(#391,#381));
#388=SURFACE_SIDE_STYLE('',(#392));
#389=SURFACE_SIDE_STYLE('',(#393,#382));
#390=SURFACE_SIDE_STYLE('',(#394,#383));
#391=SURFACE_STYLE_FILL_AREA(#395);
#392=SURFACE_STYLE_FILL_AREA(#396);
#393=SURFACE_STYLE_FILL_AREA(#397);
#394=SURFACE_STYLE_FILL_AREA(#398);
#395=FILL_AREA_STYLE('',(#399));
#396=FILL_AREA_STYLE('',(#400));
#397=FILL_AREA_STYLE('',(#401));
#398=FILL_AREA_STYLE('',(#402));
#399=FILL_AREA_STYLE_COLOUR('',#403);
#400=FILL_AREA_STYLE_COLOUR('',#404);
#401=FILL_AREA_STYLE_COLOUR('',#405);
#402=FILL_AREA_STYLE_COLOUR('',#406);
#403=COLOUR_RGB('',0.745098039215686,0.737254901960784,0.729411764705882);
#404=COLOUR_RGB('',0.435294117647059,0.305882352941176,0.32156862745098);
#405=COLOUR_RGB('',0.749019607843137,0.749019607843137,0.749019607843137);
#406=COLOUR_RGB('',1.,0.,0.349019607843137);
ENDSEC;
END-ISO-10303-21;
