ISO-10303-21;
HEADER;
FILE_DESCRIPTION (( 'STEP AP214' ),
    '1' );
FILE_NAME ('Christel 010.STEP',
    '2021-03-28T08:57:15',
    ( '' ),
    ( '' ),
    'SwSTEP 2.0',
    'SolidWorks 2021',
    '' );
FILE_SCHEMA (( 'AUTOMOTIVE_DESIGN' ));
ENDSEC;

DATA;
#1 = CARTESIAN_POINT ( 'NONE',  ( -32.49999999999994316, 76.30519644665301371, 56.29165124598755909 ) ) ;
#2 = CARTESIAN_POINT ( 'NONE',  ( 64.99999999999978684, 76.30519644665164947, 6.696032617270475384E-13 ) ) ;
#3 = CARTESIAN_POINT ( 'NONE',  ( -1.665334536937734811E-13, 249.9999999999998295, -1.110223024625156540E-13 ) ) ;
#4 = APPLICATION_CONTEXT ( 'automotive_design' ) ;
#5 = CARTESIAN_POINT ( 'NONE',  ( 26.72649730810300284, 0.000000000000000000, -46.29165124598844017 ) ) ;
#6 = SURFACE_STYLE_FILL_AREA ( #144 ) ;
#7 = CARTESIAN_POINT ( 'NONE',  ( -248.3260367802795372, 76.30519644665159262, 49.55168543857321595 ) ) ;
#8 = CARTESIAN_POINT ( 'NONE',  ( 167.0760367802794235, 76.30519644665159262, -190.2808135535444194 ) ) ;
#9 = EDGE_CURVE ( 'NONE', #272, #228, #34, .T. ) ;
#10 = CARTESIAN_POINT ( 'NONE',  ( -1.665334536937734811E-13, 249.9999999999998295, -1.110223024625156540E-13 ) ) ;
#11 = VECTOR ( 'NONE', #29, 1000.000000000000114 ) ;
#12 = DIRECTION ( 'NONE',  ( 0.8660254037844384856, 0.000000000000000000, 0.5000000000000002220 ) ) ;
#13 = PRODUCT_DEFINITION_SHAPE ( 'NONE', 'NONE',  #278 ) ;
#14 = VERTEX_POINT ( 'NONE', #200 ) ;
#15 = ADVANCED_FACE ( 'NONE', ( #117 ), #251, .T. ) ;
#16 = DIRECTION ( 'NONE',  ( 0.000000000000000000, 0.000000000000000000, 1.000000000000000000 ) ) ;
#17 = ORIENTED_EDGE ( 'NONE', *, *, #75, .T. ) ;
#18 = CARTESIAN_POINT ( 'NONE',  ( 0.000000000000000000, 0.000000000000000000, 0.000000000000000000 ) ) ;
#19 = EDGE_CURVE ( 'NONE', #274, #246, #181, .T. ) ;
#20 = ORIENTED_EDGE ( 'NONE', *, *, #284, .T. ) ;
#21 = EDGE_LOOP ( 'NONE', ( #38, #226, #227 ) ) ;
#22 = DIRECTION ( 'NONE',  ( -1.000000000000000000, -0.000000000000000000, -0.000000000000000000 ) ) ;
#23 = CARTESIAN_POINT ( 'NONE',  ( 53.45299461620741255, -7.709108559182139595E-15, 1.318389841742373392E-13 ) ) ;
#24 = ORIENTED_EDGE ( 'NONE', *, *, #9, .F. ) ;
#25 = CARTESIAN_POINT ( 'NONE',  ( 64.99999999999988631, 50.50682133907127991, 6.732742457208297475E-13 ) ) ;
#26 = CARTESIAN_POINT ( 'NONE',  ( -1.665334536937734811E-13, 249.9999999999998295, -1.110223024625156540E-13 ) ) ;
#27 = CYLINDRICAL_SURFACE ( 'NONE', #230, 296.1241502381054715 ) ;
#28 = CARTESIAN_POINT ( 'NONE',  ( 32.50000000000066791, 76.30519644665164947, 56.29165124598755909 ) ) ;
#29 = DIRECTION ( 'NONE',  ( -0.5000000000000001110, -0.000000000000000000, 0.8660254037844385966 ) ) ;
#30 = CARTESIAN_POINT ( 'NONE',  ( 53.45299461620741255, -7.709108559182139595E-15, 1.318389841742373392E-13 ) ) ;
#31 = CARTESIAN_POINT ( 'NONE',  ( -167.0760367802790256, 76.30519644665164947, -190.2808135535440499 ) ) ;
#32 = SURFACE_STYLE_USAGE ( .BOTH. , #189 ) ;
#33 = VECTOR ( 'NONE', #236, 1000.000000000000114 ) ;
#34 =( BOUNDED_CURVE ( )  B_SPLINE_CURVE ( 3, ( #199, #295, #94, #179 ),
 .UNSPECIFIED., .F., .F. ) 
 B_SPLINE_CURVE_WITH_KNOTS ( ( 4, 4 ),
 ( 2.514786860651676115, 3.402212740416088455 ),
 .UNSPECIFIED. ) 
 CURVE ( )  GEOMETRIC_REPRESENTATION_ITEM ( )  RATIONAL_B_SPLINE_CURVE ( ( 1.000000000000000000, 0.9354426285436004962, 0.9354426285436004962, 1.000000000000000000 ) ) 
 REPRESENTATION_ITEM ( '' )  );
#35 = CYLINDRICAL_SURFACE ( 'NONE', #91, 296.1241502381053579 ) ;
#36 = DIRECTION ( 'NONE',  ( 0.000000000000000000, 0.000000000000000000, 1.000000000000000000 ) ) ;
#37 = EDGE_CURVE ( 'NONE', #40, #14, #53, .T. ) ;
#38 = ORIENTED_EDGE ( 'NONE', *, *, #75, .F. ) ;
#39 = EDGE_CURVE ( 'NONE', #272, #161, #282, .T. ) ;
#40 = VERTEX_POINT ( 'NONE', #5 ) ;
#41 =( BOUNDED_CURVE ( )  B_SPLINE_CURVE ( 3, ( #111, #185, #103, #239 ),
 .UNSPECIFIED., .F., .T. ) 
 B_SPLINE_CURVE_WITH_KNOTS ( ( 4, 4 ),
 ( 5.656379514241471895, 6.283185307179583567 ),
 .UNSPECIFIED. ) 
 CURVE ( )  GEOMETRIC_REPRESENTATION_ITEM ( )  RATIONAL_B_SPLINE_CURVE ( ( 1.000000000000000000, 0.9675266500447122775, 0.9675266500447122775, 1.000000000000000000 ) ) 
 REPRESENTATION_ITEM ( '' )  );
#42 = FACE_OUTER_BOUND ( 'NONE', #126, .T. ) ;
#43 = ORIENTED_EDGE ( 'NONE', *, *, #69, .T. ) ;
#44 = STYLED_ITEM ( 'NONE', ( #153 ), #201 ) ;
#45 =( BOUNDED_CURVE ( )  B_SPLINE_CURVE ( 3, ( #3, #286, #264, #234 ),
 .UNSPECIFIED., .F., .F. ) 
 B_SPLINE_CURVE_WITH_KNOTS ( ( 4, 4 ),
 ( 2.514786860651675671, 3.402212740416089343 ),
 .UNSPECIFIED. ) 
 CURVE ( )  GEOMETRIC_REPRESENTATION_ITEM ( )  RATIONAL_B_SPLINE_CURVE ( ( 1.000000000000000000, 0.9354426285436003852, 0.9354426285436003852, 1.000000000000000000 ) ) 
 REPRESENTATION_ITEM ( '' )  );
#46 = CARTESIAN_POINT ( 'NONE',  ( -248.3260367802795372, 76.30519644665159262, 49.55168543857321595 ) ) ;
#47 = EDGE_LOOP ( 'NONE', ( #259, #51, #203 ) ) ;
#48 = AXIS2_PLACEMENT_3D ( 'NONE', #7, #266, #56 ) ;
#49 = VECTOR ( 'NONE', #207, 1000.000000000000000 ) ;
#50 = CARTESIAN_POINT ( 'NONE',  ( -26.72649730810465130, 3.587539348710445955E-15, 46.29165124598713987 ) ) ;
#51 = ORIENTED_EDGE ( 'NONE', *, *, #172, .F. ) ;
#52 = LINE ( 'NONE', #205, #33 ) ;
#53 = LINE ( 'NONE', #235, #49 ) ;
#54 = DIRECTION ( 'NONE',  ( -1.000000000000000000, -0.000000000000000000, -0.000000000000000000 ) ) ;
#55 = CARTESIAN_POINT ( 'NONE',  ( 26.72649730810472590, 0.000000000000000000, 46.29165124598705461 ) ) ;
#56 = DIRECTION ( 'NONE',  ( 0.8660254037844384856, 0.000000000000000000, -0.5000000000000003331 ) ) ;
#57 = CARTESIAN_POINT ( 'NONE',  ( 0.000000000000000000, 0.000000000000000000, 0.000000000000000000 ) ) ;
#58 = LINE ( 'NONE', #127, #78 ) ;
#59 =( BOUNDED_CURVE ( )  B_SPLINE_CURVE ( 3, ( #1, #285, #231, #50 ),
 .UNSPECIFIED., .F., .T. ) 
 B_SPLINE_CURVE_WITH_KNOTS ( ( 4, 4 ),
 ( -2.664535259100375697E-15, 0.2606200868262981141 ),
 .UNSPECIFIED. ) 
 CURVE ( )  GEOMETRIC_REPRESENTATION_ITEM ( )  RATIONAL_B_SPLINE_CURVE ( ( 1.000000000000000000, 0.9943477692303327453, 0.9943477692303327453, 1.000000000000000000 ) ) 
 REPRESENTATION_ITEM ( '' )  );
#60 = ADVANCED_FACE ( 'NONE', ( #188 ), #27, .T. ) ;
#61 = CARTESIAN_POINT ( 'NONE',  ( 26.72649730810472590, 0.000000000000000000, 46.29165124598705461 ) ) ;
#62 =( GEOMETRIC_REPRESENTATION_CONTEXT ( 3 ) GLOBAL_UNCERTAINTY_ASSIGNED_CONTEXT ( ( #258 ) ) GLOBAL_UNIT_ASSIGNED_CONTEXT ( ( #79, #171, #107 ) ) REPRESENTATION_CONTEXT ( 'NONE', 'WORKASPACE' ) );
#63 = CYLINDRICAL_SURFACE ( 'NONE', #202, 296.1241502381054715 ) ;
#64 = EDGE_CURVE ( 'NONE', #228, #246, #84, .T. ) ;
#65 = STYLED_ITEM ( 'NONE', ( #110 ), #98 ) ;
#66 = ORIENTED_EDGE ( 'NONE', *, *, #253, .F. ) ;
#67 =( BOUNDED_CURVE ( )  B_SPLINE_CURVE ( 3, ( #118, #160, #72, #135 ),
 .UNSPECIFIED., .F., .T. ) 
 B_SPLINE_CURVE_WITH_KNOTS ( ( 4, 4 ),
 ( 2.514786860651677003, 3.141592653589793116 ),
 .UNSPECIFIED. ) 
 CURVE ( )  GEOMETRIC_REPRESENTATION_ITEM ( )  RATIONAL_B_SPLINE_CURVE ( ( 1.000000000000000000, 0.9675266500447119444, 0.9675266500447119444, 1.000000000000000000 ) ) 
 REPRESENTATION_ITEM ( '' )  );
#68 = ORIENTED_EDGE ( 'NONE', *, *, #172, .T. ) ;
#69 = EDGE_CURVE ( 'NONE', #133, #246, #59, .T. ) ;
#70 = ORIENTED_EDGE ( 'NONE', *, *, #284, .F. ) ;
#71 = ORIENTED_EDGE ( 'NONE', *, *, #64, .F. ) ;
#72 = CARTESIAN_POINT ( 'NONE',  ( 32.49999999999935341, 139.2108552082501660, -56.29165124598871728 ) ) ;
#73 = VERTEX_POINT ( 'NONE', #125 ) ;
#74 = FACE_OUTER_BOUND ( 'NONE', #273, .T. ) ;
#75 = EDGE_CURVE ( 'NONE', #139, #161, #279, .T. ) ;
#76 =( LENGTH_UNIT ( ) NAMED_UNIT ( * ) SI_UNIT ( .MILLI., .METRE. ) );
#77 = ORIENTED_EDGE ( 'NONE', *, *, #37, .T. ) ;
#78 = VECTOR ( 'NONE', #260, 1000.000000000000114 ) ;
#79 =( LENGTH_UNIT ( ) NAMED_UNIT ( * ) SI_UNIT ( .MILLI., .METRE. ) );
#80 = DIRECTION ( 'NONE',  ( -0.5000000000000001110, -0.000000000000000000, 0.8660254037844385966 ) ) ;
#81 =( BOUNDED_CURVE ( )  B_SPLINE_CURVE ( 3, ( #212, #82, #240, #262 ),
 .UNSPECIFIED., .F., .F. ) 
 B_SPLINE_CURVE_WITH_KNOTS ( ( 4, 4 ),
 ( 3.141592653589793116, 3.402212740416089343 ),
 .UNSPECIFIED. ) 
 CURVE ( )  GEOMETRIC_REPRESENTATION_ITEM ( )  RATIONAL_B_SPLINE_CURVE ( ( 1.000000000000000000, 0.9943477692303330784, 0.9943477692303330784, 1.000000000000000000 ) ) 
 REPRESENTATION_ITEM ( '' )  );
#82 = CARTESIAN_POINT ( 'NONE',  ( 32.49999999999936051, 50.50682133907133675, -56.29165124598872438 ) ) ;
#83 = ADVANCED_FACE ( 'NONE', ( #287 ), #169, .T. ) ;
#84 = LINE ( 'NONE', #254, #145 ) ;
#85 = DIRECTION ( 'NONE',  ( 0.5000000000000003331, -0.000000000000000000, 0.8660254037844385966 ) ) ;
#86 = PRODUCT_RELATED_PRODUCT_CATEGORY ( 'part', '', ( #244 ) ) ;
#87 = CARTESIAN_POINT ( 'NONE',  ( 64.99999999999988631, -5.139405706121227562E-13, 46.29165124598711856 ) ) ;
#88 = MECHANICAL_DESIGN_GEOMETRIC_PRESENTATION_REPRESENTATION (  '', ( #44 ), #257 ) ;
#89 =( BOUNDED_CURVE ( )  B_SPLINE_CURVE ( 3, ( #173, #288, #176, #61 ),
 .UNSPECIFIED., .F., .F. ) 
 B_SPLINE_CURVE_WITH_KNOTS ( ( 4, 4 ),
 ( 0.000000000000000000, 0.2606200868262987802 ),
 .UNSPECIFIED. ) 
 CURVE ( )  GEOMETRIC_REPRESENTATION_ITEM ( )  RATIONAL_B_SPLINE_CURVE ( ( 1.000000000000000000, 0.9943477692303328563, 0.9943477692303328563, 1.000000000000000000 ) ) 
 REPRESENTATION_ITEM ( '' )  );
#90 =( BOUNDED_CURVE ( )  B_SPLINE_CURVE ( 3, ( #281, #146, #148, #2 ),
 .UNSPECIFIED., .F., .T. ) 
 B_SPLINE_CURVE_WITH_KNOTS ( ( 4, 4 ),
 ( 5.656379514241469231, 6.283185307179586232 ),
 .UNSPECIFIED. ) 
 CURVE ( )  GEOMETRIC_REPRESENTATION_ITEM ( )  RATIONAL_B_SPLINE_CURVE ( ( 1.000000000000000000, 0.9675266500447119444, 0.9675266500447119444, 1.000000000000000000 ) ) 
 REPRESENTATION_ITEM ( '' )  );
#91 = AXIS2_PLACEMENT_3D ( 'NONE', #93, #214, #12 ) ;
#92 = ORIENTED_EDGE ( 'NONE', *, *, #292, .T. ) ;
#93 = CARTESIAN_POINT ( 'NONE',  ( 248.3260367802789688, 76.30519644665162105, 49.55168543857281804 ) ) ;
#94 = CARTESIAN_POINT ( 'NONE',  ( -80.41000442197777431, 87.53923548099912466, -6.646244976450369121E-13 ) ) ;
#95 = SHAPE_DEFINITION_REPRESENTATION ( #13, #201 ) ;
#96 = ORIENTED_EDGE ( 'NONE', *, *, #292, .F. ) ;
#97 = AXIS2_PLACEMENT_3D ( 'NONE', #46, #119, #297 ) ;
#98 = MANIFOLD_SOLID_BREP ( 'Cut-Extrude3', #280 ) ;
#99 = EDGE_LOOP ( 'NONE', ( #178, #134, #24 ) ) ;
#100 = DIRECTION ( 'NONE',  ( -1.000000000000000000, -0.000000000000000000, -0.000000000000000000 ) ) ;
#101 = ADVANCED_FACE ( 'NONE', ( #150 ), #108, .T. ) ;
#102 = ORIENTED_EDGE ( 'NONE', *, *, #9, .T. ) ;
#103 = CARTESIAN_POINT ( 'NONE',  ( -32.50000000000002842, 139.2108552082505639, 56.29165124598779357 ) ) ;
#104 = CARTESIAN_POINT ( 'NONE',  ( 89.37500000000007105, 76.30519644665164947, -42.21873843449127861 ) ) ;
#105 = CARTESIAN_POINT ( 'NONE',  ( -53.45299461620789572, 0.000000000000000000, -6.626643678231403101E-13 ) ) ;
#106 = CARTESIAN_POINT ( 'NONE',  ( 64.99999999999988631, 76.30519644665301371, -239.8324989921179053 ) ) ;
#107 =( NAMED_UNIT ( * ) SI_UNIT ( $, .STERADIAN. ) SOLID_ANGLE_UNIT ( ) );
#108 = CYLINDRICAL_SURFACE ( 'NONE', #268, 296.1241502381055284 ) ;
#109 = CARTESIAN_POINT ( 'NONE',  ( -26.72649730810465130, 3.587539348710445955E-15, 46.29165124598713987 ) ) ;
#110 = PRESENTATION_STYLE_ASSIGNMENT (( #261 ) ) ;
#111 = CARTESIAN_POINT ( 'NONE',  ( -1.665334536937734811E-13, 249.9999999999998295, -1.110223024625156540E-13 ) ) ;
#112 = PRODUCT_CONTEXT ( 'NONE', #298, 'mechanical' ) ;
#113 = CARTESIAN_POINT ( 'NONE',  ( -32.49999999999994316, 76.30519644665301371, 56.29165124598755909 ) ) ;
#114 = ORIENTED_EDGE ( 'NONE', *, *, #248, .T. ) ;
#115 = EDGE_CURVE ( 'NONE', #161, #274, #89, .T. ) ;
#116 = ORIENTED_EDGE ( 'NONE', *, *, #39, .F. ) ;
#117 = FACE_OUTER_BOUND ( 'NONE', #47, .T. ) ;
#118 = CARTESIAN_POINT ( 'NONE',  ( -1.665334536937734811E-13, 249.9999999999998295, -1.110223024625156540E-13 ) ) ;
#119 = DIRECTION ( 'NONE',  ( 0.5000000000000003331, -0.000000000000000000, 0.8660254037844385966 ) ) ;
#120 = ORIENTED_EDGE ( 'NONE', *, *, #19, .F. ) ;
#121 = VECTOR ( 'NONE', #155, 1000.000000000000114 ) ;
#122 = CARTESIAN_POINT ( 'NONE',  ( 64.99999999999988631, 76.30519644665301371, 56.29165124598755909 ) ) ;
#123 = DIRECTION ( 'NONE',  ( 0.5000000000000003331, -0.000000000000000000, 0.8660254037844384856 ) ) ;
#124 = CARTESIAN_POINT ( 'NONE',  ( 0.5352540378443724212, -8.425943506694159047E-32, -93.51038968047988931 ) ) ;
#125 = CARTESIAN_POINT ( 'NONE',  ( 32.49999999999955946, 76.30519644665159262, -56.29165124598900150 ) ) ;
#126 = EDGE_LOOP ( 'NONE', ( #156, #17, #138, #114 ) ) ;
#127 = CARTESIAN_POINT ( 'NONE',  ( -0.5352540378444625713, 0.000000000000000000, -93.51038968047983246 ) ) ;
#128 = DIRECTION ( 'NONE',  ( -1.000000000000000000, -0.000000000000000000, -0.000000000000000000 ) ) ;
#129 = CYLINDRICAL_SURFACE ( 'NONE', #291, 296.1241502381059263 ) ;
#130 = CARTESIAN_POINT ( 'NONE',  ( 32.50000000000061107, 139.2108552082506492, 56.29165124598761594 ) ) ;
#131 = ADVANCED_FACE ( 'NONE', ( #149 ), #35, .T. ) ;
#132 = UNCERTAINTY_MEASURE_WITH_UNIT (LENGTH_MEASURE( 1.000000000000000082E-05 ), #76, 'distance_accuracy_value', 'NONE');
#133 = VERTEX_POINT ( 'NONE', #113 ) ;
#134 = ORIENTED_EDGE ( 'NONE', *, *, #225, .T. ) ;
#135 = CARTESIAN_POINT ( 'NONE',  ( 32.49999999999955946, 76.30519644665159262, -56.29165124598900150 ) ) ;
#136 = COLOUR_RGB ( '',0.7529411764705882248, 0.7529411764705882248, 0.7529411764705882248 ) ;
#137 =( NAMED_UNIT ( * ) PLANE_ANGLE_UNIT ( ) SI_UNIT ( $, .RADIAN. ) );
#138 = ORIENTED_EDGE ( 'NONE', *, *, #115, .T. ) ;
#139 = VERTEX_POINT ( 'NONE', #194 ) ;
#140 = CARTESIAN_POINT ( 'NONE',  ( -167.0760367802790256, 76.30519644665164947, -190.2808135535440499 ) ) ;
#141 = CARTESIAN_POINT ( 'NONE',  ( 61.12911909323546666, 24.92717378587664356, 6.737039998316569655E-13 ) ) ;
#142 = FILL_AREA_STYLE_COLOUR ( '', #136 ) ;
#143 =( NAMED_UNIT ( * ) SI_UNIT ( $, .STERADIAN. ) SOLID_ANGLE_UNIT ( ) );
#144 = FILL_AREA_STYLE ('',( #168 ) ) ;
#145 = VECTOR ( 'NONE', #123, 1000.000000000000114 ) ;
#146 = CARTESIAN_POINT ( 'NONE',  ( 42.60612933435426442, 199.0523777631487690, 6.757604648031774888E-13 ) ) ;
#147 = SURFACE_SIDE_STYLE ('',( #190 ) ) ;
#148 = CARTESIAN_POINT ( 'NONE',  ( 64.99999999999988631, 139.2108552082501660, 6.732742457208297475E-13 ) ) ;
#149 = FACE_OUTER_BOUND ( 'NONE', #99, .T. ) ;
#150 = FACE_OUTER_BOUND ( 'NONE', #21, .T. ) ;
#151 = AXIS2_PLACEMENT_3D ( 'NONE', #140, #229, #162 ) ;
#152 = ORIENTED_EDGE ( 'NONE', *, *, #174, .T. ) ;
#153 = PRESENTATION_STYLE_ASSIGNMENT (( #32 ) ) ;
#154 = ADVANCED_FACE ( 'NONE', ( #219 ), #63, .T. ) ;
#155 = DIRECTION ( 'NONE',  ( 0.5000000000000003331, -0.000000000000000000, 0.8660254037844384856 ) ) ;
#156 = ORIENTED_EDGE ( 'NONE', *, *, #269, .F. ) ;
#157 = APPLICATION_PROTOCOL_DEFINITION ( 'draft international standard', 'automotive_design', 1998, #4 ) ;
#158 = ORIENTED_EDGE ( 'NONE', *, *, #195, .F. ) ;
#159 = ORIENTED_EDGE ( 'NONE', *, *, #64, .T. ) ;
#160 = CARTESIAN_POINT ( 'NONE',  ( 21.30306466717661706, 199.0523777631486553, -36.89799036047656244 ) ) ;
#161 = VERTEX_POINT ( 'NONE', #28 ) ;
#162 = DIRECTION ( 'NONE',  ( 0.8660254037844384856, 0.000000000000000000, 0.5000000000000000000 ) ) ;
#163 = AXIS2_PLACEMENT_3D ( 'NONE', #221, #224, #16 ) ;
#164 = DIRECTION ( 'NONE',  ( 0.000000000000000000, 0.000000000000000000, 1.000000000000000000 ) ) ;
#165 = ORIENTED_EDGE ( 'NONE', *, *, #19, .T. ) ;
#166 = ADVANCED_FACE ( 'NONE', ( #210 ), #170, .F. ) ;
#167 = FILL_AREA_STYLE ('',( #142 ) ) ;
#168 = FILL_AREA_STYLE_COLOUR ( '', #175 ) ;
#169 = CYLINDRICAL_SURFACE ( 'NONE', #48, 296.1241502381059263 ) ;
#170 = PLANE ( 'NONE',  #237 ) ;
#171 =( NAMED_UNIT ( * ) PLANE_ANGLE_UNIT ( ) SI_UNIT ( $, .RADIAN. ) );
#172 = EDGE_CURVE ( 'NONE', #272, #73, #67, .T. ) ;
#173 = CARTESIAN_POINT ( 'NONE',  ( 32.50000000000066791, 76.30519644665164947, 56.29165124598755909 ) ) ;
#174 = EDGE_CURVE ( 'NONE', #73, #139, #296, .T. ) ;
#175 = COLOUR_RGB ( '',0.7529411764705882248, 0.7529411764705882248, 0.7529411764705882248 ) ;
#176 = CARTESIAN_POINT ( 'NONE',  ( 30.56455954661833729, 24.92717378587683541, 52.93937004570536686 ) ) ;
#177 = ORIENTED_EDGE ( 'NONE', *, *, #115, .F. ) ;
#178 = ORIENTED_EDGE ( 'NONE', *, *, #253, .T. ) ;
#179 = CARTESIAN_POINT ( 'NONE',  ( -53.45299461620789572, 0.000000000000000000, -6.626643678231403101E-13 ) ) ;
#180 = ADVANCED_FACE ( 'NONE', ( #42 ), #182, .T. ) ;
#181 = LINE ( 'NONE', #87, #275 ) ;
#182 = CYLINDRICAL_SURFACE ( 'NONE', #151, 296.1241502381055284 ) ;
#183 = ORIENTED_EDGE ( 'NONE', *, *, #213, .T. ) ;
#184 = ORIENTED_EDGE ( 'NONE', *, *, #195, .T. ) ;
#185 = CARTESIAN_POINT ( 'NONE',  ( -21.30306466717734182, 199.0523777631489679, 36.89799036047570979 ) ) ;
#186 = DIRECTION ( 'NONE',  ( 0.8660254037844384856, 0.000000000000000000, -0.5000000000000003331 ) ) ;
#187 = UNCERTAINTY_MEASURE_WITH_UNIT (LENGTH_MEASURE( 1.000000000000000082E-05 ), #294, 'distance_accuracy_value', 'NONE');
#188 = FACE_OUTER_BOUND ( 'NONE', #218, .T. ) ;
#189 = SURFACE_SIDE_STYLE ('',( #6 ) ) ;
#190 = SURFACE_STYLE_FILL_AREA ( #167 ) ;
#191 = DIRECTION ( 'NONE',  ( 0.8660254037844384856, 0.000000000000000000, 0.5000000000000000000 ) ) ;
#192 =( NAMED_UNIT ( * ) PLANE_ANGLE_UNIT ( ) SI_UNIT ( $, .RADIAN. ) );
#193 = DIRECTION ( 'NONE',  ( -0.5000000000000001110, -0.000000000000000000, 0.8660254037844387076 ) ) ;
#194 = CARTESIAN_POINT ( 'NONE',  ( 64.99999999999978684, 76.30519644665164947, 6.696032617270475384E-13 ) ) ;
#195 = EDGE_CURVE ( 'NONE', #161, #133, #198, .T. ) ;
#196 = EDGE_LOOP ( 'NONE', ( #177, #184, #43, #120 ) ) ;
#197 = EDGE_LOOP ( 'NONE', ( #70, #102, #159, #216 ) ) ;
#198 = LINE ( 'NONE', #122, #270 ) ;
#199 = CARTESIAN_POINT ( 'NONE',  ( -1.665334536937734811E-13, 249.9999999999998295, -1.110223024625156540E-13 ) ) ;
#200 = CARTESIAN_POINT ( 'NONE',  ( -26.72649730810378088, 0.000000000000000000, -46.29165124598844017 ) ) ;
#201 = ADVANCED_BREP_SHAPE_REPRESENTATION ( 'Christel 010', ( #98, #289 ), #62 ) ;
#202 = AXIS2_PLACEMENT_3D ( 'NONE', #263, #54, #238 ) ;
#203 = ORIENTED_EDGE ( 'NONE', *, *, #267, .T. ) ;
#204 = LINE ( 'NONE', #124, #11 ) ;
#205 = CARTESIAN_POINT ( 'NONE',  ( 80.71474596215568909, 0.000000000000000000, -47.21873843449125729 ) ) ;
#206 = PRESENTATION_LAYER_ASSIGNMENT (  '', '', ( #44 ) ) ;
#207 = DIRECTION ( 'NONE',  ( -1.000000000000000000, -0.000000000000000000, -0.000000000000000000 ) ) ;
#208 = FACE_OUTER_BOUND ( 'NONE', #197, .T. ) ;
#209 = ADVANCED_FACE ( 'NONE', ( #74 ), #256, .T. ) ;
#210 = FACE_OUTER_BOUND ( 'NONE', #277, .T. ) ;
#211 = CARTESIAN_POINT ( 'NONE',  ( 64.99999999999978684, 76.30519644665164947, 6.696032617270475384E-13 ) ) ;
#212 = CARTESIAN_POINT ( 'NONE',  ( 32.49999999999955946, 76.30519644665159262, -56.29165124598900150 ) ) ;
#213 = EDGE_CURVE ( 'NONE', #73, #40, #81, .T. ) ;
#214 = DIRECTION ( 'NONE',  ( -0.5000000000000001110, -0.000000000000000000, 0.8660254037844387076 ) ) ;
#215 = DIRECTION ( 'NONE',  ( 0.000000000000000000, -0.000000000000000000, 1.000000000000000000 ) ) ;
#216 = ORIENTED_EDGE ( 'NONE', *, *, #69, .F. ) ;
#217 = MECHANICAL_DESIGN_GEOMETRIC_PRESENTATION_REPRESENTATION (  '', ( #65 ), #265 ) ;
#218 = EDGE_LOOP ( 'NONE', ( #158, #116, #20 ) ) ;
#219 = FACE_OUTER_BOUND ( 'NONE', #196, .T. ) ;
#220 =( NAMED_UNIT ( * ) SI_UNIT ( $, .STERADIAN. ) SOLID_ANGLE_UNIT ( ) );
#221 = CARTESIAN_POINT ( 'NONE',  ( 64.99999999999988631, 76.30519644665173473, 239.8324989921169390 ) ) ;
#222 = ORIENTED_EDGE ( 'NONE', *, *, #213, .F. ) ;
#223 = PRESENTATION_LAYER_ASSIGNMENT (  '', '', ( #65 ) ) ;
#224 = DIRECTION ( 'NONE',  ( -1.000000000000000000, -0.000000000000000000, -0.000000000000000000 ) ) ;
#225 = EDGE_CURVE ( 'NONE', #14, #228, #204, .T. ) ;
#226 = ORIENTED_EDGE ( 'NONE', *, *, #267, .F. ) ;
#227 = ORIENTED_EDGE ( 'NONE', *, *, #39, .T. ) ;
#228 = VERTEX_POINT ( 'NONE', #105 ) ;
#229 = DIRECTION ( 'NONE',  ( -0.5000000000000001110, -0.000000000000000000, 0.8660254037844387076 ) ) ;
#230 = AXIS2_PLACEMENT_3D ( 'NONE', #106, #128, #164 ) ;
#231 = CARTESIAN_POINT ( 'NONE',  ( -30.56455954661782926, 24.92717378587715515, 52.93937004570568661 ) ) ;
#232 = APPLICATION_PROTOCOL_DEFINITION ( 'draft international standard', 'automotive_design', 1998, #298 ) ;
#233 = CARTESIAN_POINT ( 'NONE',  ( 21.30306466717788538, 199.0523777631490248, 36.89799036047550373 ) ) ;
#234 = CARTESIAN_POINT ( 'NONE',  ( -26.72649730810378088, 0.000000000000000000, -46.29165124598844017 ) ) ;
#235 = CARTESIAN_POINT ( 'NONE',  ( 64.99999999999988631, 0.000000000000000000, -46.29165124598844727 ) ) ;
#236 = DIRECTION ( 'NONE',  ( 0.5000000000000001110, 0.000000000000000000, -0.8660254037844385966 ) ) ;
#237 = AXIS2_PLACEMENT_3D ( 'NONE', #57, #243, #215 ) ;
#238 = DIRECTION ( 'NONE',  ( 0.000000000000000000, 0.000000000000000000, 1.000000000000000000 ) ) ;
#239 = CARTESIAN_POINT ( 'NONE',  ( -32.49999999999994316, 76.30519644665301371, 56.29165124598755909 ) ) ;
#240 = CARTESIAN_POINT ( 'NONE',  ( 30.56455954661715069, 24.92717378587666133, -52.93937004570663873 ) ) ;
#241 = PRODUCT_DEFINITION_CONTEXT ( 'detailed design', #4, 'design' ) ;
#242 = EDGE_LOOP ( 'NONE', ( #222, #152, #276, #92 ) ) ;
#243 = DIRECTION ( 'NONE',  ( 0.000000000000000000, 1.000000000000000000, 0.000000000000000000 ) ) ;
#244 = PRODUCT ( 'Christel 010', 'Christel 010', '', ( #112 ) ) ;
#245 = ORIENTED_EDGE ( 'NONE', *, *, #37, .F. ) ;
#246 = VERTEX_POINT ( 'NONE', #109 ) ;
#247 = DIRECTION ( 'NONE',  ( 1.000000000000000000, 0.000000000000000000, 0.000000000000000000 ) ) ;
#248 = EDGE_CURVE ( 'NONE', #274, #290, #52, .T. ) ;
#249 = ORIENTED_EDGE ( 'NONE', *, *, #248, .F. ) ;
#250 = PRODUCT_DEFINITION_FORMATION_WITH_SPECIFIED_SOURCE ( 'ANY', '', #244, .NOT_KNOWN. ) ;
#251 = CYLINDRICAL_SURFACE ( 'NONE', #97, 296.1241502381059263 ) ;
#252 = CARTESIAN_POINT ( 'NONE',  ( 8.124999999999882760, 76.30519644665159262, -98.51038968047984667 ) ) ;
#253 = EDGE_CURVE ( 'NONE', #272, #14, #45, .T. ) ;
#254 = CARTESIAN_POINT ( 'NONE',  ( -80.71474596215563224, 3.167403310647642843E-47, -47.21873843449137098 ) ) ;
#255 = VECTOR ( 'NONE', #80, 1000.000000000000114 ) ;
#256 = CYLINDRICAL_SURFACE ( 'NONE', #163, 296.1241502381054147 ) ;
#257 =( GEOMETRIC_REPRESENTATION_CONTEXT ( 3 ) GLOBAL_UNCERTAINTY_ASSIGNED_CONTEXT ( ( #187 ) ) GLOBAL_UNIT_ASSIGNED_CONTEXT ( ( #294, #137, #220 ) ) REPRESENTATION_CONTEXT ( 'NONE', 'WORKASPACE' ) );
#258 = UNCERTAINTY_MEASURE_WITH_UNIT (LENGTH_MEASURE( 1.000000000000000082E-05 ), #79, 'distance_accuracy_value', 'NONE');
#259 = ORIENTED_EDGE ( 'NONE', *, *, #174, .F. ) ;
#260 = DIRECTION ( 'NONE',  ( -0.5000000000000003331, 0.000000000000000000, -0.8660254037844384856 ) ) ;
#261 = SURFACE_STYLE_USAGE ( .BOTH. , #147 ) ;
#262 = CARTESIAN_POINT ( 'NONE',  ( 26.72649730810300284, 0.000000000000000000, -46.29165124598844017 ) ) ;
#263 = CARTESIAN_POINT ( 'NONE',  ( 64.99999999999988631, 76.30519644665301371, -239.8324989921179053 ) ) ;
#264 = CARTESIAN_POINT ( 'NONE',  ( -40.20500221098896532, 87.53923548099905361, -69.63710654785187160 ) ) ;
#265 =( GEOMETRIC_REPRESENTATION_CONTEXT ( 3 ) GLOBAL_UNCERTAINTY_ASSIGNED_CONTEXT ( ( #132 ) ) GLOBAL_UNIT_ASSIGNED_CONTEXT ( ( #76, #192, #143 ) ) REPRESENTATION_CONTEXT ( 'NONE', 'WORKASPACE' ) );
#266 = DIRECTION ( 'NONE',  ( 0.5000000000000003331, -0.000000000000000000, 0.8660254037844385966 ) ) ;
#267 = EDGE_CURVE ( 'NONE', #272, #139, #90, .T. ) ;
#268 = AXIS2_PLACEMENT_3D ( 'NONE', #31, #193, #191 ) ;
#269 = EDGE_CURVE ( 'NONE', #139, #290, #299, .T. ) ;
#270 = VECTOR ( 'NONE', #100, 1000.000000000000000 ) ;
#271 = ADVANCED_FACE ( 'NONE', ( #208 ), #129, .T. ) ;
#272 = VERTEX_POINT ( 'NONE', #10 ) ;
#273 = EDGE_LOOP ( 'NONE', ( #68, #183, #77, #66 ) ) ;
#274 = VERTEX_POINT ( 'NONE', #55 ) ;
#275 = VECTOR ( 'NONE', #22, 1000.000000000000000 ) ;
#276 = ORIENTED_EDGE ( 'NONE', *, *, #269, .T. ) ;
#277 = EDGE_LOOP ( 'NONE', ( #293, #245, #96, #249, #165, #71 ) ) ;
#278 = PRODUCT_DEFINITION ( 'UNKNOWN', '', #250, #241 ) ;
#279 = LINE ( 'NONE', #104, #255 ) ;
#280 = CLOSED_SHELL ( 'NONE', ( #154, #83, #180, #271, #101, #166, #15, #131, #209, #60 ) ) ;
#281 = CARTESIAN_POINT ( 'NONE',  ( -1.665334536937734811E-13, 249.9999999999998295, -1.110223024625156540E-13 ) ) ;
#282 =( BOUNDED_CURVE ( )  B_SPLINE_CURVE ( 3, ( #26, #233, #130, #283 ),
 .UNSPECIFIED., .F., .T. ) 
 B_SPLINE_CURVE_WITH_KNOTS ( ( 4, 4 ),
 ( 5.656379514241471007, 6.283185307179586232 ),
 .UNSPECIFIED. ) 
 CURVE ( )  GEOMETRIC_REPRESENTATION_ITEM ( )  RATIONAL_B_SPLINE_CURVE ( ( 1.000000000000000000, 0.9675266500447121665, 0.9675266500447121665, 1.000000000000000000 ) ) 
 REPRESENTATION_ITEM ( '' )  );
#283 = CARTESIAN_POINT ( 'NONE',  ( 32.50000000000066791, 76.30519644665164947, 56.29165124598755909 ) ) ;
#284 = EDGE_CURVE ( 'NONE', #272, #133, #41, .T. ) ;
#285 = CARTESIAN_POINT ( 'NONE',  ( -32.50000000000007105, 50.50682133907227467, 56.29165124598784331 ) ) ;
#286 = CARTESIAN_POINT ( 'NONE',  ( -30.68134767120729833, 176.6236226903736792, -53.14165301121601459 ) ) ;
#287 = FACE_OUTER_BOUND ( 'NONE', #242, .T. ) ;
#288 = CARTESIAN_POINT ( 'NONE',  ( 32.50000000000061107, 50.50682133907172044, 56.29165124598762304 ) ) ;
#289 = AXIS2_PLACEMENT_3D ( 'NONE', #18, #36, #247 ) ;
#290 = VERTEX_POINT ( 'NONE', #30 ) ;
#291 = AXIS2_PLACEMENT_3D ( 'NONE', #8, #85, #186 ) ;
#292 = EDGE_CURVE ( 'NONE', #290, #40, #58, .T. ) ;
#293 = ORIENTED_EDGE ( 'NONE', *, *, #225, .F. ) ;
#294 =( LENGTH_UNIT ( ) NAMED_UNIT ( * ) SI_UNIT ( .MILLI., .METRE. ) );
#295 = CARTESIAN_POINT ( 'NONE',  ( -61.36269534241443324, 176.6236226903736792, -6.667391737547650854E-13 ) ) ;
#296 = LINE ( 'NONE', #252, #121 ) ;
#297 = DIRECTION ( 'NONE',  ( 0.8660254037844384856, 0.000000000000000000, -0.5000000000000003331 ) ) ;
#298 = APPLICATION_CONTEXT ( 'automotive_design' ) ;
#299 =( BOUNDED_CURVE ( )  B_SPLINE_CURVE ( 3, ( #211, #25, #141, #23 ),
 .UNSPECIFIED., .F., .F. ) 
 B_SPLINE_CURVE_WITH_KNOTS ( ( 4, 4 ),
 ( 0.000000000000000000, 0.2606200868262960046 ),
 .UNSPECIFIED. ) 
 CURVE ( )  GEOMETRIC_REPRESENTATION_ITEM ( )  RATIONAL_B_SPLINE_CURVE ( ( 1.000000000000000000, 0.9943477692303330784, 0.9943477692303330784, 1.000000000000000000 ) ) 
 REPRESENTATION_ITEM ( '' )  );
ENDSEC;
END-ISO-10303-21;
