ISO-10303-21;
HEADER;
FILE_DESCRIPTION(('CATIA V5 STEP Exchange'),'2;1');

FILE_NAME('C:\\Users\\user1\\Desktop\\Catia dessin\\Guidage.stp','2020-10-06T11:12:21+00:00',('none'),('none'),'CATIA Version 5 Release 21 GA (IN-10)','CATIA V5 STEP AP203','none');

FILE_SCHEMA(('CONFIG_CONTROL_DESIGN'));

ENDSEC;
/* file written by CATIA V5R21 */
DATA;
#5=PRODUCT('Guidage','','',(#2)) ;
#1=APPLICATION_CONTEXT('configuration controlled 3D design of mechanical parts and assemblies') ;
#14=PRODUCT_DEFINITION('',' ',#6,#3) ;
#16=SECURITY_CLASSIFICATION(' ',' ',#15) ;
#15=SECURITY_CLASSIFICATION_LEVEL('unclassified') ;
#47=CARTESIAN_POINT(' ',(0.,0.,0.)) ;
#52=CARTESIAN_POINT('Axis2P3D Location',(0.,25.,80.)) ;
#57=CARTESIAN_POINT('Line Origine',(5.78651476587,25.,80.)) ;
#61=CARTESIAN_POINT('Vertex',(0.,25.,80.)) ;
#63=CARTESIAN_POINT('Vertex',(11.5730295317,25.,80.)) ;
#66=CARTESIAN_POINT('Line Origine',(0.,19.2134852341,80.)) ;
#70=CARTESIAN_POINT('Vertex',(0.,13.4269704683,80.)) ;
#73=CARTESIAN_POINT('Line Origine',(5.78651476587,19.2134852341,80.)) ;
#84=CARTESIAN_POINT('Axis2P3D Location',(0.,5.,40.)) ;
#89=CARTESIAN_POINT('Line Origine',(30.,5.,30.)) ;
#93=CARTESIAN_POINT('Vertex',(30.,5.,20.)) ;
#95=CARTESIAN_POINT('Vertex',(30.,5.,40.)) ;
#98=CARTESIAN_POINT('Line Origine',(15.,5.,40.)) ;
#102=CARTESIAN_POINT('Vertex',(0.,5.,40.)) ;
#105=CARTESIAN_POINT('Line Origine',(0.,5.,30.)) ;
#109=CARTESIAN_POINT('Vertex',(0.,5.,20.)) ;
#112=CARTESIAN_POINT('Line Origine',(15.,5.,20.)) ;
#124=CARTESIAN_POINT('Axis2P3D Location',(15.,-2.44929359829E-015,20.)) ;
#129=CARTESIAN_POINT('Axis2P3D Location',(30.,-2.44929359829E-015,20.)) ;
#133=CARTESIAN_POINT('Vertex',(30.,-5.,20.)) ;
#136=CARTESIAN_POINT('Axis2P3D Location',(0.,-2.44929359829E-015,20.)) ;
#140=CARTESIAN_POINT('Vertex',(0.,-5.,20.)) ;
#143=CARTESIAN_POINT('Line Origine',(15.,-5.,20.)) ;
#155=CARTESIAN_POINT('Axis2P3D Location',(0.,-5.,20.)) ;
#160=CARTESIAN_POINT('Line Origine',(30.,-5.,30.)) ;
#164=CARTESIAN_POINT('Vertex',(30.,-5.,40.)) ;
#167=CARTESIAN_POINT('Line Origine',(0.,-5.,30.)) ;
#171=CARTESIAN_POINT('Vertex',(0.,-5.,40.)) ;
#174=CARTESIAN_POINT('Line Origine',(15.,-5.,40.)) ;
#186=CARTESIAN_POINT('Axis2P3D Location',(15.,0.,40.)) ;
#191=CARTESIAN_POINT('Axis2P3D Location',(30.,0.,40.)) ;
#196=CARTESIAN_POINT('Axis2P3D Location',(0.,0.,40.)) ;
#208=CARTESIAN_POINT('Axis2P3D Location',(0.,-25.,80.)) ;
#213=CARTESIAN_POINT('Line Origine',(5.,-25.,80.)) ;
#217=CARTESIAN_POINT('Vertex',(0.,-25.,80.)) ;
#219=CARTESIAN_POINT('Vertex',(10.,-25.,80.)) ;
#222=CARTESIAN_POINT('Line Origine',(0.,-25.,40.)) ;
#226=CARTESIAN_POINT('Vertex',(0.,-25.,1.42108547152E-014)) ;
#229=CARTESIAN_POINT('Line Origine',(12.5,-25.,1.42108547152E-014)) ;
#233=CARTESIAN_POINT('Vertex',(25.,-25.,1.42108547152E-014)) ;
#236=CARTESIAN_POINT('Line Origine',(27.5,-25.,2.5)) ;
#240=CARTESIAN_POINT('Vertex',(30.,-25.,5.)) ;
#243=CARTESIAN_POINT('Line Origine',(30.,-25.,36.7264973081)) ;
#247=CARTESIAN_POINT('Vertex',(30.,-25.,68.4529946162)) ;
#250=CARTESIAN_POINT('Line Origine',(20.,-25.,74.2264973081)) ;
#264=CARTESIAN_POINT('Axis2P3D Location',(0.,-25.,0.)) ;
#269=CARTESIAN_POINT('Line Origine',(0.,0.,0.)) ;
#273=CARTESIAN_POINT('Vertex',(0.,25.,0.)) ;
#276=CARTESIAN_POINT('Line Origine',(12.5,25.,0.)) ;
#280=CARTESIAN_POINT('Vertex',(25.,25.,0.)) ;
#283=CARTESIAN_POINT('Line Origine',(25.,0.,0.)) ;
#295=CARTESIAN_POINT('Axis2P3D Location',(0.,25.,0.)) ;
#300=CARTESIAN_POINT('Line Origine',(30.,25.,37.0333348037)) ;
#304=CARTESIAN_POINT('Vertex',(30.,25.,5.)) ;
#306=CARTESIAN_POINT('Vertex',(30.,25.,69.0666696074)) ;
#309=CARTESIAN_POINT('Line Origine',(27.5,25.,2.5)) ;
#314=CARTESIAN_POINT('Line Origine',(0.,25.,40.)) ;
#319=CARTESIAN_POINT('Line Origine',(20.7865147655,25.,74.5333348037)) ;
#333=CARTESIAN_POINT('Axis2P3D Location',(30.,0.,0.)) ;
#338=CARTESIAN_POINT('Line Origine',(30.,0.,5.)) ;
#343=CARTESIAN_POINT('Line Origine',(30.,13.75,62.3916729153)) ;
#347=CARTESIAN_POINT('Vertex',(30.,2.5,55.7166762231)) ;
#350=CARTESIAN_POINT('Line Origine',(30.,2.5,52.8583381116)) ;
#354=CARTESIAN_POINT('Vertex',(30.,2.5,50.)) ;
#357=CARTESIAN_POINT('Line Origine',(30.,-6.2172489379E-015,50.)) ;
#361=CARTESIAN_POINT('Vertex',(30.,-2.5,50.)) ;
#364=CARTESIAN_POINT('Line Origine',(30.,-2.5,52.7313067797)) ;
#368=CARTESIAN_POINT('Vertex',(30.,-2.5,55.4626135594)) ;
#371=CARTESIAN_POINT('Line Origine',(30.,-13.75,61.9578040878)) ;
#393=CARTESIAN_POINT('Axis2P3D Location',(30.,-35.,5.)) ;
#405=CARTESIAN_POINT('Axis2P3D Location',(20.,25.,75.)) ;
#411=CARTESIAN_POINT('Control Point',(-2.19106952535E-015,13.4269704683,80.)) ;
#412=CARTESIAN_POINT('Control Point',(-2.91595638792E-015,2.5,73.5166674018)) ;
#413=CARTESIAN_POINT('Vertex',(0.,2.5,73.5166674018)) ;
#417=CARTESIAN_POINT('Control Point',(30.,2.5,55.7166762229)) ;
#418=CARTESIAN_POINT('Control Point',(0.,2.5,73.5166674018)) ;
#428=CARTESIAN_POINT('Axis2P3D Location',(0.,2.5,50.)) ;
#433=CARTESIAN_POINT('Line Origine',(0.,-2.5,50.)) ;
#437=CARTESIAN_POINT('Vertex',(0.,2.5,50.)) ;
#439=CARTESIAN_POINT('Vertex',(0.,-7.5,50.)) ;
#442=CARTESIAN_POINT('Line Origine',(4.33012701892,-5.,50.)) ;
#446=CARTESIAN_POINT('Vertex',(8.66025403784,-2.5,50.)) ;
#449=CARTESIAN_POINT('Line Origine',(19.3301270189,-2.5,50.)) ;
#454=CARTESIAN_POINT('Line Origine',(15.,2.5,50.)) ;
#467=CARTESIAN_POINT('Axis2P3D Location',(0.,-2.5,50.)) ;
#472=CARTESIAN_POINT('Line Origine',(8.66025403784,-2.5,58.8915608176)) ;
#476=CARTESIAN_POINT('Vertex',(8.66025403784,-2.5,67.7831216351)) ;
#479=CARTESIAN_POINT('Line Origine',(19.3301270189,-2.5,61.6228675973)) ;
#491=CARTESIAN_POINT('Line Origine',(0.,-20.,80.)) ;
#495=CARTESIAN_POINT('Vertex',(0.,-15.,80.)) ;
#498=CARTESIAN_POINT('Line Origine',(5.,-20.,80.)) ;
#509=CARTESIAN_POINT('Axis2P3D Location',(0.,0.,0.)) ;
#514=CARTESIAN_POINT('Line Origine',(0.,-11.25,77.8349364905)) ;
#518=CARTESIAN_POINT('Vertex',(0.,-7.5,75.6698729811)) ;
#521=CARTESIAN_POINT('Line Origine',(0.,-7.5,62.8349364905)) ;
#526=CARTESIAN_POINT('Line Origine',(0.,2.5,61.7583337009)) ;
#550=CARTESIAN_POINT('Axis2P3D Location',(0.,-7.5,-16.)) ;
#556=CARTESIAN_POINT('Control Point',(8.66025403784,-2.5,67.7831216351)) ;
#557=CARTESIAN_POINT('Control Point',(0.,-7.5,75.6698729811)) ;
#566=CARTESIAN_POINT('Axis2P3D Location',(0.,2.5,80.)) ;
#578=CARTESIAN_POINT('Axis2P3D Location',(10.,-25.,80.)) ;
#53=DIRECTION('Axis2P3D Direction',(-0.,0.,1.)) ;
#54=DIRECTION('Axis2P3D XDirection',(0.,-1.,0.)) ;
#58=DIRECTION('Vector Direction',(1.,0.,0.)) ;
#67=DIRECTION('Vector Direction',(0.,-1.,0.)) ;
#74=DIRECTION('Vector Direction',(-0.707106781187,-0.707106781187,0.)) ;
#85=DIRECTION('Axis2P3D Direction',(0.,-1.,0.)) ;
#86=DIRECTION('Axis2P3D XDirection',(0.,0.,-1.)) ;
#90=DIRECTION('Vector Direction',(0.,0.,-1.)) ;
#99=DIRECTION('Vector Direction',(1.,0.,0.)) ;
#106=DIRECTION('Vector Direction',(0.,0.,-1.)) ;
#113=DIRECTION('Vector Direction',(1.,0.,0.)) ;
#125=DIRECTION('Axis2P3D Direction',(1.,0.,0.)) ;
#126=DIRECTION('Axis2P3D XDirection',(0.,-1.,1.22460635382E-016)) ;
#130=DIRECTION('Axis2P3D Direction',(1.,0.,0.)) ;
#137=DIRECTION('Axis2P3D Direction',(1.,0.,0.)) ;
#144=DIRECTION('Vector Direction',(1.,0.,0.)) ;
#156=DIRECTION('Axis2P3D Direction',(0.,1.,0.)) ;
#157=DIRECTION('Axis2P3D XDirection',(0.,0.,1.)) ;
#161=DIRECTION('Vector Direction',(0.,0.,1.)) ;
#168=DIRECTION('Vector Direction',(0.,0.,1.)) ;
#175=DIRECTION('Vector Direction',(1.,0.,0.)) ;
#187=DIRECTION('Axis2P3D Direction',(1.,0.,0.)) ;
#188=DIRECTION('Axis2P3D XDirection',(0.,1.,0.)) ;
#192=DIRECTION('Axis2P3D Direction',(1.,0.,0.)) ;
#197=DIRECTION('Axis2P3D Direction',(1.,0.,0.)) ;
#209=DIRECTION('Axis2P3D Direction',(0.,-1.,0.)) ;
#210=DIRECTION('Axis2P3D XDirection',(0.,0.,-1.)) ;
#214=DIRECTION('Vector Direction',(1.,0.,0.)) ;
#223=DIRECTION('Vector Direction',(0.,0.,-1.)) ;
#230=DIRECTION('Vector Direction',(1.,0.,0.)) ;
#237=DIRECTION('Vector Direction',(-0.707106781187,0.,-0.707106781187)) ;
#244=DIRECTION('Vector Direction',(0.,0.,-1.)) ;
#251=DIRECTION('Vector Direction',(0.866025403784,0.,-0.5)) ;
#265=DIRECTION('Axis2P3D Direction',(0.,0.,-1.)) ;
#266=DIRECTION('Axis2P3D XDirection',(0.,1.,0.)) ;
#270=DIRECTION('Vector Direction',(0.,1.,0.)) ;
#277=DIRECTION('Vector Direction',(1.,0.,0.)) ;
#284=DIRECTION('Vector Direction',(0.,1.,0.)) ;
#296=DIRECTION('Axis2P3D Direction',(0.,1.,0.)) ;
#297=DIRECTION('Axis2P3D XDirection',(0.,0.,1.)) ;
#301=DIRECTION('Vector Direction',(0.,0.,1.)) ;
#310=DIRECTION('Vector Direction',(0.707106781187,0.,0.707106781187)) ;
#315=DIRECTION('Vector Direction',(0.,0.,1.)) ;
#320=DIRECTION('Vector Direction',(0.860012120646,0.,-0.510273605375)) ;
#334=DIRECTION('Axis2P3D Direction',(1.,0.,0.)) ;
#335=DIRECTION('Axis2P3D XDirection',(0.,1.,0.)) ;
#339=DIRECTION('Vector Direction',(0.,1.,0.)) ;
#344=DIRECTION('Vector Direction',(0.,-0.860012120643,-0.51027360538)) ;
#351=DIRECTION('Vector Direction',(0.,0.,-1.)) ;
#358=DIRECTION('Vector Direction',(0.,-1.,0.)) ;
#365=DIRECTION('Vector Direction',(0.,0.,1.)) ;
#372=DIRECTION('Vector Direction',(0.,0.866025403784,-0.5)) ;
#394=DIRECTION('Axis2P3D Direction',(-0.707106781187,0.,0.707106781187)) ;
#395=DIRECTION('Axis2P3D XDirection',(0.,1.,0.)) ;
#406=DIRECTION('Axis2P3D Direction',(0.454519477672,-0.454519477672,0.766044443119)) ;
#407=DIRECTION('Axis2P3D XDirection',(-0.707106781187,-0.707106781187,0.)) ;
#429=DIRECTION('Axis2P3D Direction',(-0.,0.,1.)) ;
#430=DIRECTION('Axis2P3D XDirection',(0.,-1.,0.)) ;
#434=DIRECTION('Vector Direction',(0.,1.,0.)) ;
#443=DIRECTION('Vector Direction',(-0.866025403784,-0.5,0.)) ;
#450=DIRECTION('Vector Direction',(1.,0.,0.)) ;
#455=DIRECTION('Vector Direction',(1.,0.,0.)) ;
#468=DIRECTION('Axis2P3D Direction',(0.,1.,0.)) ;
#469=DIRECTION('Axis2P3D XDirection',(0.,0.,1.)) ;
#473=DIRECTION('Vector Direction',(0.,0.,1.)) ;
#480=DIRECTION('Vector Direction',(-0.866025403784,0.,0.5)) ;
#492=DIRECTION('Vector Direction',(0.,-1.,0.)) ;
#499=DIRECTION('Vector Direction',(-0.707106781187,0.707106781187,0.)) ;
#510=DIRECTION('Axis2P3D Direction',(1.,0.,0.)) ;
#511=DIRECTION('Axis2P3D XDirection',(0.,1.,0.)) ;
#515=DIRECTION('Vector Direction',(0.,-0.866025403784,0.5)) ;
#522=DIRECTION('Vector Direction',(0.,0.,1.)) ;
#527=DIRECTION('Vector Direction',(0.,0.,-1.)) ;
#551=DIRECTION('Axis2P3D Direction',(-0.5,0.866025403784,0.)) ;
#552=DIRECTION('Axis2P3D XDirection',(0.,0.,1.)) ;
#567=DIRECTION('Axis2P3D Direction',(0.,-1.,0.)) ;
#568=DIRECTION('Axis2P3D XDirection',(0.,0.,-1.)) ;
#579=DIRECTION('Axis2P3D Direction',(0.4472135955,0.4472135955,0.774596669241)) ;
#580=DIRECTION('Axis2P3D XDirection',(0.866025403784,0.,-0.5)) ;
#48=AXIS2_PLACEMENT_3D(' ',#47,$,$) ;
#55=AXIS2_PLACEMENT_3D('Plane Axis2P3D',#52,#53,#54) ;
#87=AXIS2_PLACEMENT_3D('Plane Axis2P3D',#84,#85,#86) ;
#127=AXIS2_PLACEMENT_3D('Cylinder Axis2P3D',#124,#125,#126) ;
#131=AXIS2_PLACEMENT_3D('Circle Axis2P3D',#129,#130,$) ;
#138=AXIS2_PLACEMENT_3D('Circle Axis2P3D',#136,#137,$) ;
#158=AXIS2_PLACEMENT_3D('Plane Axis2P3D',#155,#156,#157) ;
#189=AXIS2_PLACEMENT_3D('Cylinder Axis2P3D',#186,#187,#188) ;
#193=AXIS2_PLACEMENT_3D('Circle Axis2P3D',#191,#192,$) ;
#198=AXIS2_PLACEMENT_3D('Circle Axis2P3D',#196,#197,$) ;
#211=AXIS2_PLACEMENT_3D('Plane Axis2P3D',#208,#209,#210) ;
#267=AXIS2_PLACEMENT_3D('Plane Axis2P3D',#264,#265,#266) ;
#298=AXIS2_PLACEMENT_3D('Plane Axis2P3D',#295,#296,#297) ;
#336=AXIS2_PLACEMENT_3D('Plane Axis2P3D',#333,#334,#335) ;
#396=AXIS2_PLACEMENT_3D('Plane Axis2P3D',#393,#394,#395) ;
#408=AXIS2_PLACEMENT_3D('Plane Axis2P3D',#405,#406,#407) ;
#431=AXIS2_PLACEMENT_3D('Plane Axis2P3D',#428,#429,#430) ;
#470=AXIS2_PLACEMENT_3D('Plane Axis2P3D',#467,#468,#469) ;
#512=AXIS2_PLACEMENT_3D('Plane Axis2P3D',#509,#510,#511) ;
#553=AXIS2_PLACEMENT_3D('Plane Axis2P3D',#550,#551,#552) ;
#569=AXIS2_PLACEMENT_3D('Plane Axis2P3D',#566,#567,#568) ;
#581=AXIS2_PLACEMENT_3D('Plane Axis2P3D',#578,#579,#580) ;
#40=PRODUCT_DEFINITION_SHAPE(' ',' ',#14) ;
#31=APPROVAL_PERSON_ORGANIZATION(#25,#21,#19) ;
#25=PERSON_AND_ORGANIZATION(#22,#23) ;
#22=PERSON(' ',' ',' ',$,$,$) ;
#23=ORGANIZATION(' ',' ',' ') ;
#21=APPROVAL(#20,' ') ;
#20=APPROVAL_STATUS('not_yet_approved') ;
#19=APPROVAL_ROLE('APPROVER') ;
#13=DATE_AND_TIME(#11,#12) ;
#12=LOCAL_TIME(13,12,19.,#10) ;
#10=COORDINATED_UNIVERSAL_TIME_OFFSET(0,0,.AHEAD.) ;
#79=ORIENTED_EDGE('',*,*,#65,.F.) ;
#80=ORIENTED_EDGE('',*,*,#72,.T.) ;
#81=ORIENTED_EDGE('',*,*,#77,.F.) ;
#118=ORIENTED_EDGE('',*,*,#97,.T.) ;
#119=ORIENTED_EDGE('',*,*,#104,.F.) ;
#120=ORIENTED_EDGE('',*,*,#111,.F.) ;
#121=ORIENTED_EDGE('',*,*,#116,.T.) ;
#149=ORIENTED_EDGE('',*,*,#135,.T.) ;
#150=ORIENTED_EDGE('',*,*,#116,.F.) ;
#151=ORIENTED_EDGE('',*,*,#142,.F.) ;
#152=ORIENTED_EDGE('',*,*,#147,.T.) ;
#180=ORIENTED_EDGE('',*,*,#166,.T.) ;
#181=ORIENTED_EDGE('',*,*,#147,.F.) ;
#182=ORIENTED_EDGE('',*,*,#173,.F.) ;
#183=ORIENTED_EDGE('',*,*,#178,.T.) ;
#202=ORIENTED_EDGE('',*,*,#195,.T.) ;
#203=ORIENTED_EDGE('',*,*,#178,.F.) ;
#204=ORIENTED_EDGE('',*,*,#200,.F.) ;
#205=ORIENTED_EDGE('',*,*,#104,.T.) ;
#256=ORIENTED_EDGE('',*,*,#221,.F.) ;
#257=ORIENTED_EDGE('',*,*,#228,.T.) ;
#258=ORIENTED_EDGE('',*,*,#235,.T.) ;
#259=ORIENTED_EDGE('',*,*,#242,.F.) ;
#260=ORIENTED_EDGE('',*,*,#249,.F.) ;
#261=ORIENTED_EDGE('',*,*,#254,.F.) ;
#289=ORIENTED_EDGE('',*,*,#235,.F.) ;
#290=ORIENTED_EDGE('',*,*,#275,.T.) ;
#291=ORIENTED_EDGE('',*,*,#282,.T.) ;
#292=ORIENTED_EDGE('',*,*,#287,.F.) ;
#325=ORIENTED_EDGE('',*,*,#308,.F.) ;
#326=ORIENTED_EDGE('',*,*,#313,.F.) ;
#327=ORIENTED_EDGE('',*,*,#282,.F.) ;
#328=ORIENTED_EDGE('',*,*,#318,.T.) ;
#329=ORIENTED_EDGE('',*,*,#65,.T.) ;
#330=ORIENTED_EDGE('',*,*,#323,.T.) ;
#377=ORIENTED_EDGE('',*,*,#249,.T.) ;
#378=ORIENTED_EDGE('',*,*,#342,.T.) ;
#379=ORIENTED_EDGE('',*,*,#308,.T.) ;
#380=ORIENTED_EDGE('',*,*,#349,.F.) ;
#381=ORIENTED_EDGE('',*,*,#356,.T.) ;
#382=ORIENTED_EDGE('',*,*,#363,.T.) ;
#383=ORIENTED_EDGE('',*,*,#370,.T.) ;
#384=ORIENTED_EDGE('',*,*,#375,.F.) ;
#387=ORIENTED_EDGE('',*,*,#97,.F.) ;
#388=ORIENTED_EDGE('',*,*,#135,.F.) ;
#389=ORIENTED_EDGE('',*,*,#166,.F.) ;
#390=ORIENTED_EDGE('',*,*,#195,.F.) ;
#399=ORIENTED_EDGE('',*,*,#342,.F.) ;
#400=ORIENTED_EDGE('',*,*,#242,.T.) ;
#401=ORIENTED_EDGE('',*,*,#287,.T.) ;
#402=ORIENTED_EDGE('',*,*,#313,.T.) ;
#421=ORIENTED_EDGE('',*,*,#349,.T.) ;
#422=ORIENTED_EDGE('',*,*,#323,.F.) ;
#423=ORIENTED_EDGE('',*,*,#77,.T.) ;
#424=ORIENTED_EDGE('',*,*,#415,.T.) ;
#425=ORIENTED_EDGE('',*,*,#419,.F.) ;
#460=ORIENTED_EDGE('',*,*,#441,.T.) ;
#461=ORIENTED_EDGE('',*,*,#448,.F.) ;
#462=ORIENTED_EDGE('',*,*,#453,.T.) ;
#463=ORIENTED_EDGE('',*,*,#363,.F.) ;
#464=ORIENTED_EDGE('',*,*,#458,.F.) ;
#485=ORIENTED_EDGE('',*,*,#370,.F.) ;
#486=ORIENTED_EDGE('',*,*,#453,.F.) ;
#487=ORIENTED_EDGE('',*,*,#478,.T.) ;
#488=ORIENTED_EDGE('',*,*,#483,.F.) ;
#504=ORIENTED_EDGE('',*,*,#497,.T.) ;
#505=ORIENTED_EDGE('',*,*,#221,.T.) ;
#506=ORIENTED_EDGE('',*,*,#502,.T.) ;
#532=ORIENTED_EDGE('',*,*,#520,.F.) ;
#533=ORIENTED_EDGE('',*,*,#525,.F.) ;
#534=ORIENTED_EDGE('',*,*,#441,.F.) ;
#535=ORIENTED_EDGE('',*,*,#530,.F.) ;
#536=ORIENTED_EDGE('',*,*,#415,.F.) ;
#537=ORIENTED_EDGE('',*,*,#72,.F.) ;
#538=ORIENTED_EDGE('',*,*,#318,.F.) ;
#539=ORIENTED_EDGE('',*,*,#275,.F.) ;
#540=ORIENTED_EDGE('',*,*,#228,.F.) ;
#541=ORIENTED_EDGE('',*,*,#497,.F.) ;
#544=ORIENTED_EDGE('',*,*,#200,.T.) ;
#545=ORIENTED_EDGE('',*,*,#173,.T.) ;
#546=ORIENTED_EDGE('',*,*,#142,.T.) ;
#547=ORIENTED_EDGE('',*,*,#111,.T.) ;
#560=ORIENTED_EDGE('',*,*,#478,.F.) ;
#561=ORIENTED_EDGE('',*,*,#448,.T.) ;
#562=ORIENTED_EDGE('',*,*,#525,.T.) ;
#563=ORIENTED_EDGE('',*,*,#558,.F.) ;
#572=ORIENTED_EDGE('',*,*,#530,.T.) ;
#573=ORIENTED_EDGE('',*,*,#458,.T.) ;
#574=ORIENTED_EDGE('',*,*,#356,.F.) ;
#575=ORIENTED_EDGE('',*,*,#419,.T.) ;
#584=ORIENTED_EDGE('',*,*,#254,.T.) ;
#585=ORIENTED_EDGE('',*,*,#375,.T.) ;
#586=ORIENTED_EDGE('',*,*,#483,.T.) ;
#587=ORIENTED_EDGE('',*,*,#558,.T.) ;
#588=ORIENTED_EDGE('',*,*,#520,.T.) ;
#589=ORIENTED_EDGE('',*,*,#502,.F.) ;
#391=FACE_BOUND('',#386,.T.) ;
#548=FACE_BOUND('',#543,.T.) ;
#51=CLOSED_SHELL('Closed Shell',(#83,#123,#154,#185,#207,#263,#294,#332,#392,#404,#427,#466,#490,#508,#549,#565,#577,#591)) ;
#59=VECTOR('Line Direction',#58,1.) ;
#68=VECTOR('Line Direction',#67,1.) ;
#75=VECTOR('Line Direction',#74,1.) ;
#91=VECTOR('Line Direction',#90,1.) ;
#100=VECTOR('Line Direction',#99,1.) ;
#107=VECTOR('Line Direction',#106,1.) ;
#114=VECTOR('Line Direction',#113,1.) ;
#145=VECTOR('Line Direction',#144,1.) ;
#162=VECTOR('Line Direction',#161,1.) ;
#169=VECTOR('Line Direction',#168,1.) ;
#176=VECTOR('Line Direction',#175,1.) ;
#215=VECTOR('Line Direction',#214,1.) ;
#224=VECTOR('Line Direction',#223,1.) ;
#231=VECTOR('Line Direction',#230,1.) ;
#238=VECTOR('Line Direction',#237,1.) ;
#245=VECTOR('Line Direction',#244,1.) ;
#252=VECTOR('Line Direction',#251,1.) ;
#271=VECTOR('Line Direction',#270,1.) ;
#278=VECTOR('Line Direction',#277,1.) ;
#285=VECTOR('Line Direction',#284,1.) ;
#302=VECTOR('Line Direction',#301,1.) ;
#311=VECTOR('Line Direction',#310,1.) ;
#316=VECTOR('Line Direction',#315,1.) ;
#321=VECTOR('Line Direction',#320,1.) ;
#340=VECTOR('Line Direction',#339,1.) ;
#345=VECTOR('Line Direction',#344,1.) ;
#352=VECTOR('Line Direction',#351,1.) ;
#359=VECTOR('Line Direction',#358,1.) ;
#366=VECTOR('Line Direction',#365,1.) ;
#373=VECTOR('Line Direction',#372,1.) ;
#435=VECTOR('Line Direction',#434,1.) ;
#444=VECTOR('Line Direction',#443,1.) ;
#451=VECTOR('Line Direction',#450,1.) ;
#456=VECTOR('Line Direction',#455,1.) ;
#474=VECTOR('Line Direction',#473,1.) ;
#481=VECTOR('Line Direction',#480,1.) ;
#493=VECTOR('Line Direction',#492,1.) ;
#500=VECTOR('Line Direction',#499,1.) ;
#516=VECTOR('Line Direction',#515,1.) ;
#523=VECTOR('Line Direction',#522,1.) ;
#528=VECTOR('Line Direction',#527,1.) ;
#593=ADVANCED_BREP_SHAPE_REPRESENTATION('NONE',(#592),#46) ;
#49=SHAPE_REPRESENTATION(' ',(#48),#46) ;
#83=ADVANCED_FACE('Body.2',(#82),#56,.T.) ;
#123=ADVANCED_FACE('Body.2',(#122),#88,.T.) ;
#154=ADVANCED_FACE('Body.2',(#153),#128,.F.) ;
#185=ADVANCED_FACE('Body.2',(#184),#159,.T.) ;
#207=ADVANCED_FACE('Body.2',(#206),#190,.F.) ;
#263=ADVANCED_FACE('Body.2',(#262),#212,.T.) ;
#294=ADVANCED_FACE('Body.2',(#293),#268,.T.) ;
#332=ADVANCED_FACE('Body.2',(#331),#299,.T.) ;
#392=ADVANCED_FACE('Body.2',(#385,#391),#337,.T.) ;
#404=ADVANCED_FACE('Body.2',(#403),#397,.F.) ;
#427=ADVANCED_FACE('Body.2',(#426),#409,.T.) ;
#466=ADVANCED_FACE('Body.2',(#465),#432,.T.) ;
#490=ADVANCED_FACE('Body.2',(#489),#471,.T.) ;
#508=ADVANCED_FACE('Body.2',(#507),#56,.T.) ;
#549=ADVANCED_FACE('Body.2',(#542,#548),#513,.F.) ;
#565=ADVANCED_FACE('Body.2',(#564),#554,.T.) ;
#577=ADVANCED_FACE('Body.2',(#576),#570,.T.) ;
#591=ADVANCED_FACE('Body.2',(#590),#582,.T.) ;
#4=APPLICATION_PROTOCOL_DEFINITION('international standard','config_control_design',1994,#1) ;
#32=APPROVAL_DATE_TIME(#13,#21) ;
#410=B_SPLINE_CURVE_WITH_KNOTS('',1,(#411,#412),.UNSPECIFIED.,.F.,.U.,(2,2),(5.38292264341,18.0885231878),.UNSPECIFIED.) ;
#416=B_SPLINE_CURVE_WITH_KNOTS('',1,(#417,#418),.UNSPECIFIED.,.F.,.U.,(2,2),(-17.4416146469,17.4416146469),.UNSPECIFIED.) ;
#555=B_SPLINE_CURVE_WITH_KNOTS('',1,(#556,#557),.UNSPECIFIED.,.F.,.U.,(2,2),(-6.36790481228,6.36790481228),.UNSPECIFIED.) ;
#592=MANIFOLD_SOLID_BREP('Body.2',#51) ;
#11=CALENDAR_DATE(2020,6,10) ;
#30=CC_DESIGN_APPROVAL(#21,(#16,#6,#14)) ;
#18=CC_DESIGN_DATE_AND_TIME_ASSIGNMENT(#13,#17,(#16)) ;
#29=CC_DESIGN_DATE_AND_TIME_ASSIGNMENT(#13,#28,(#14)) ;
#17=DATE_TIME_ROLE('classification_date') ;
#28=DATE_TIME_ROLE('creation_date') ;
#27=CC_DESIGN_PERSON_AND_ORGANIZATION_ASSIGNMENT(#25,#26,(#16)) ;
#33=CC_DESIGN_PERSON_AND_ORGANIZATION_ASSIGNMENT(#25,#34,(#6)) ;
#35=CC_DESIGN_PERSON_AND_ORGANIZATION_ASSIGNMENT(#25,#36,(#6,#14)) ;
#37=CC_DESIGN_PERSON_AND_ORGANIZATION_ASSIGNMENT(#25,#38,(#5)) ;
#26=PERSON_AND_ORGANIZATION_ROLE('classification_officer') ;
#34=PERSON_AND_ORGANIZATION_ROLE('design_supplier') ;
#36=PERSON_AND_ORGANIZATION_ROLE('creator') ;
#38=PERSON_AND_ORGANIZATION_ROLE('design_owner') ;
#39=CC_DESIGN_SECURITY_CLASSIFICATION(#16,(#6)) ;
#132=CIRCLE('generated circle',#131,5.) ;
#139=CIRCLE('generated circle',#138,5.) ;
#194=CIRCLE('generated circle',#193,5.) ;
#199=CIRCLE('generated circle',#198,5.) ;
#594=SHAPE_REPRESENTATION_RELATIONSHIP(' ',' ',#49,#593) ;
#128=CYLINDRICAL_SURFACE('generated cylinder',#127,5.) ;
#190=CYLINDRICAL_SURFACE('generated cylinder',#189,5.) ;
#3=DESIGN_CONTEXT(' ',#1,'design') ;
#65=EDGE_CURVE('',#62,#64,#60,.T.) ;
#72=EDGE_CURVE('',#62,#71,#69,.T.) ;
#77=EDGE_CURVE('',#64,#71,#76,.T.) ;
#97=EDGE_CURVE('',#94,#96,#92,.F.) ;
#104=EDGE_CURVE('',#103,#96,#101,.T.) ;
#111=EDGE_CURVE('',#110,#103,#108,.F.) ;
#116=EDGE_CURVE('',#110,#94,#115,.T.) ;
#135=EDGE_CURVE('',#134,#94,#132,.T.) ;
#142=EDGE_CURVE('',#141,#110,#139,.T.) ;
#147=EDGE_CURVE('',#141,#134,#146,.T.) ;
#166=EDGE_CURVE('',#165,#134,#163,.F.) ;
#173=EDGE_CURVE('',#172,#141,#170,.F.) ;
#178=EDGE_CURVE('',#172,#165,#177,.T.) ;
#195=EDGE_CURVE('',#96,#165,#194,.T.) ;
#200=EDGE_CURVE('',#103,#172,#199,.T.) ;
#221=EDGE_CURVE('',#218,#220,#216,.T.) ;
#228=EDGE_CURVE('',#218,#227,#225,.T.) ;
#235=EDGE_CURVE('',#227,#234,#232,.T.) ;
#242=EDGE_CURVE('',#241,#234,#239,.T.) ;
#249=EDGE_CURVE('',#248,#241,#246,.T.) ;
#254=EDGE_CURVE('',#220,#248,#253,.T.) ;
#275=EDGE_CURVE('',#227,#274,#272,.T.) ;
#282=EDGE_CURVE('',#274,#281,#279,.T.) ;
#287=EDGE_CURVE('',#234,#281,#286,.T.) ;
#308=EDGE_CURVE('',#305,#307,#303,.T.) ;
#313=EDGE_CURVE('',#281,#305,#312,.T.) ;
#318=EDGE_CURVE('',#274,#62,#317,.T.) ;
#323=EDGE_CURVE('',#64,#307,#322,.T.) ;
#342=EDGE_CURVE('',#241,#305,#341,.T.) ;
#349=EDGE_CURVE('',#348,#307,#346,.F.) ;
#356=EDGE_CURVE('',#348,#355,#353,.T.) ;
#363=EDGE_CURVE('',#355,#362,#360,.T.) ;
#370=EDGE_CURVE('',#362,#369,#367,.T.) ;
#375=EDGE_CURVE('',#248,#369,#374,.T.) ;
#415=EDGE_CURVE('',#71,#414,#410,.T.) ;
#419=EDGE_CURVE('',#348,#414,#416,.T.) ;
#441=EDGE_CURVE('',#438,#440,#436,.F.) ;
#448=EDGE_CURVE('',#447,#440,#445,.T.) ;
#453=EDGE_CURVE('',#447,#362,#452,.T.) ;
#458=EDGE_CURVE('',#438,#355,#457,.T.) ;
#478=EDGE_CURVE('',#447,#477,#475,.T.) ;
#483=EDGE_CURVE('',#369,#477,#482,.T.) ;
#497=EDGE_CURVE('',#496,#218,#494,.T.) ;
#502=EDGE_CURVE('',#220,#496,#501,.T.) ;
#520=EDGE_CURVE('',#519,#496,#517,.T.) ;
#525=EDGE_CURVE('',#440,#519,#524,.T.) ;
#530=EDGE_CURVE('',#414,#438,#529,.T.) ;
#558=EDGE_CURVE('',#477,#519,#555,.T.) ;
#78=EDGE_LOOP('',(#79,#80,#81)) ;
#117=EDGE_LOOP('',(#118,#119,#120,#121)) ;
#148=EDGE_LOOP('',(#149,#150,#151,#152)) ;
#179=EDGE_LOOP('',(#180,#181,#182,#183)) ;
#201=EDGE_LOOP('',(#202,#203,#204,#205)) ;
#255=EDGE_LOOP('',(#256,#257,#258,#259,#260,#261)) ;
#288=EDGE_LOOP('',(#289,#290,#291,#292)) ;
#324=EDGE_LOOP('',(#325,#326,#327,#328,#329,#330)) ;
#376=EDGE_LOOP('',(#377,#378,#379,#380,#381,#382,#383,#384)) ;
#386=EDGE_LOOP('',(#387,#388,#389,#390)) ;
#398=EDGE_LOOP('',(#399,#400,#401,#402)) ;
#420=EDGE_LOOP('',(#421,#422,#423,#424,#425)) ;
#459=EDGE_LOOP('',(#460,#461,#462,#463,#464)) ;
#484=EDGE_LOOP('',(#485,#486,#487,#488)) ;
#503=EDGE_LOOP('',(#504,#505,#506)) ;
#531=EDGE_LOOP('',(#532,#533,#534,#535,#536,#537,#538,#539,#540,#541)) ;
#543=EDGE_LOOP('',(#544,#545,#546,#547)) ;
#559=EDGE_LOOP('',(#560,#561,#562,#563)) ;
#571=EDGE_LOOP('',(#572,#573,#574,#575)) ;
#583=EDGE_LOOP('',(#584,#585,#586,#587,#588,#589)) ;
#82=FACE_OUTER_BOUND('',#78,.T.) ;
#122=FACE_OUTER_BOUND('',#117,.T.) ;
#153=FACE_OUTER_BOUND('',#148,.T.) ;
#184=FACE_OUTER_BOUND('',#179,.T.) ;
#206=FACE_OUTER_BOUND('',#201,.T.) ;
#262=FACE_OUTER_BOUND('',#255,.T.) ;
#293=FACE_OUTER_BOUND('',#288,.T.) ;
#331=FACE_OUTER_BOUND('',#324,.T.) ;
#385=FACE_OUTER_BOUND('',#376,.T.) ;
#403=FACE_OUTER_BOUND('',#398,.T.) ;
#426=FACE_OUTER_BOUND('',#420,.T.) ;
#465=FACE_OUTER_BOUND('',#459,.T.) ;
#489=FACE_OUTER_BOUND('',#484,.T.) ;
#507=FACE_OUTER_BOUND('',#503,.T.) ;
#542=FACE_OUTER_BOUND('',#531,.T.) ;
#564=FACE_OUTER_BOUND('',#559,.T.) ;
#576=FACE_OUTER_BOUND('',#571,.T.) ;
#590=FACE_OUTER_BOUND('',#583,.T.) ;
#45=UNCERTAINTY_MEASURE_WITH_UNIT(LENGTH_MEASURE(0.005),#41,'distance_accuracy_value','CONFUSED CURVE UNCERTAINTY') ;
#60=LINE('Line',#57,#59) ;
#69=LINE('Line',#66,#68) ;
#76=LINE('Line',#73,#75) ;
#92=LINE('Line',#89,#91) ;
#101=LINE('Line',#98,#100) ;
#108=LINE('Line',#105,#107) ;
#115=LINE('Line',#112,#114) ;
#146=LINE('Line',#143,#145) ;
#163=LINE('Line',#160,#162) ;
#170=LINE('Line',#167,#169) ;
#177=LINE('Line',#174,#176) ;
#216=LINE('Line',#213,#215) ;
#225=LINE('Line',#222,#224) ;
#232=LINE('Line',#229,#231) ;
#239=LINE('Line',#236,#238) ;
#246=LINE('Line',#243,#245) ;
#253=LINE('Line',#250,#252) ;
#272=LINE('Line',#269,#271) ;
#279=LINE('Line',#276,#278) ;
#286=LINE('Line',#283,#285) ;
#303=LINE('Line',#300,#302) ;
#312=LINE('Line',#309,#311) ;
#317=LINE('Line',#314,#316) ;
#322=LINE('Line',#319,#321) ;
#341=LINE('Line',#338,#340) ;
#346=LINE('Line',#343,#345) ;
#353=LINE('Line',#350,#352) ;
#360=LINE('Line',#357,#359) ;
#367=LINE('Line',#364,#366) ;
#374=LINE('Line',#371,#373) ;
#436=LINE('Line',#433,#435) ;
#445=LINE('Line',#442,#444) ;
#452=LINE('Line',#449,#451) ;
#457=LINE('Line',#454,#456) ;
#475=LINE('Line',#472,#474) ;
#482=LINE('Line',#479,#481) ;
#494=LINE('Line',#491,#493) ;
#501=LINE('Line',#498,#500) ;
#517=LINE('Line',#514,#516) ;
#524=LINE('Line',#521,#523) ;
#529=LINE('Line',#526,#528) ;
#2=MECHANICAL_CONTEXT(' ',#1,'mechanical') ;
#24=PERSONAL_ADDRESS(' ',' ',' ',' ',' ',' ',' ',' ',' ',' ',' ',' ',(#22),' ') ;
#56=PLANE('',#55) ;
#88=PLANE('',#87) ;
#159=PLANE('',#158) ;
#212=PLANE('',#211) ;
#268=PLANE('',#267) ;
#299=PLANE('',#298) ;
#337=PLANE('',#336) ;
#397=PLANE('',#396) ;
#409=PLANE('',#408) ;
#432=PLANE('',#431) ;
#471=PLANE('',#470) ;
#513=PLANE('',#512) ;
#554=PLANE('',#553) ;
#570=PLANE('',#569) ;
#582=PLANE('',#581) ;
#43=PLANE_ANGLE_MEASURE_WITH_UNIT(PLANE_ANGLE_MEASURE(0.0174532925199),#42) ;
#7=PRODUCT_CATEGORY('part',$) ;
#9=PRODUCT_CATEGORY_RELATIONSHIP(' ',' ',#7,#8) ;
#6=PRODUCT_DEFINITION_FORMATION_WITH_SPECIFIED_SOURCE('',' ',#5,.NOT_KNOWN.) ;
#8=PRODUCT_RELATED_PRODUCT_CATEGORY('detail',$,(#5)) ;
#50=SHAPE_DEFINITION_REPRESENTATION(#40,#49) ;
#62=VERTEX_POINT('',#61) ;
#64=VERTEX_POINT('',#63) ;
#71=VERTEX_POINT('',#70) ;
#94=VERTEX_POINT('',#93) ;
#96=VERTEX_POINT('',#95) ;
#103=VERTEX_POINT('',#102) ;
#110=VERTEX_POINT('',#109) ;
#134=VERTEX_POINT('',#133) ;
#141=VERTEX_POINT('',#140) ;
#165=VERTEX_POINT('',#164) ;
#172=VERTEX_POINT('',#171) ;
#218=VERTEX_POINT('',#217) ;
#220=VERTEX_POINT('',#219) ;
#227=VERTEX_POINT('',#226) ;
#234=VERTEX_POINT('',#233) ;
#241=VERTEX_POINT('',#240) ;
#248=VERTEX_POINT('',#247) ;
#274=VERTEX_POINT('',#273) ;
#281=VERTEX_POINT('',#280) ;
#305=VERTEX_POINT('',#304) ;
#307=VERTEX_POINT('',#306) ;
#348=VERTEX_POINT('',#347) ;
#355=VERTEX_POINT('',#354) ;
#362=VERTEX_POINT('',#361) ;
#369=VERTEX_POINT('',#368) ;
#414=VERTEX_POINT('',#413) ;
#438=VERTEX_POINT('',#437) ;
#440=VERTEX_POINT('',#439) ;
#447=VERTEX_POINT('',#446) ;
#477=VERTEX_POINT('',#476) ;
#496=VERTEX_POINT('',#495) ;
#519=VERTEX_POINT('',#518) ;
#41=(LENGTH_UNIT()NAMED_UNIT(*)SI_UNIT(.MILLI.,.METRE.)) ;
#42=(NAMED_UNIT(*)PLANE_ANGLE_UNIT()SI_UNIT($,.RADIAN.)) ;
#44=(NAMED_UNIT(*)SI_UNIT($,.STERADIAN.)SOLID_ANGLE_UNIT()) ;
#46=(GEOMETRIC_REPRESENTATION_CONTEXT(3)GLOBAL_UNCERTAINTY_ASSIGNED_CONTEXT((#45))GLOBAL_UNIT_ASSIGNED_CONTEXT((#41,#42,#44))REPRESENTATION_CONTEXT(' ',' ')) ;
ENDSEC;
END-ISO-10303-21;
