ISO-10303-21;
HEADER;
/****************************************************************
 * Generated by software with PDE/Lib inside                    *
 * PDElib Version v51a, created Mon 03/22/2010                  *
 * International Technegroup Inc. (www.iti-oh.com)              *
 ****************************************************************/
FILE_DESCRIPTION((''),'2;1');
FILE_NAME('C:\\Users\\Mikes\\Desktop\\Part4.stp','2018-06-26T11:18:27',('Mikes'),(''),'Autodesk Inventor 2010','Autodesk Inventor 2010','');
FILE_SCHEMA(('AUTOMOTIVE_DESIGN { 1 0 10303 214 1 1 1 1 }'));
ENDSEC;
DATA;
#5=APPLICATION_CONTEXT('automotive design');
#6=APPLICATION_PROTOCOL_DEFINITION('International Standard','automotive_design',2001,#5);
#7=PRODUCT_CONTEXT('',#5,'mechanical');
#8=PRODUCT('Part4','Part4',$,(#7));
#9=PRODUCT_RELATED_PRODUCT_CATEGORY('part',$,(#8));
#10=PRODUCT_DEFINITION_FORMATION('',$,#8);
#11=PRODUCT_DEFINITION_CONTEXT('part definition',#5,'design');
#12=PRODUCT_DEFINITION('',$,#10,#11);
#18=(NAMED_UNIT(*)PLANE_ANGLE_UNIT()SI_UNIT($,.RADIAN.));
#19=DIMENSIONAL_EXPONENTS(0.0,0.0,0.0,0.0,0.0,0.0,0.0);
#20=PLANE_ANGLE_MEASURE_WITH_UNIT(PLANE_ANGLE_MEASURE(0.017453292500000),#18);
#24=(CONVERSION_BASED_UNIT('DEGREE',#20)NAMED_UNIT(#19)PLANE_ANGLE_UNIT());
#28=(NAMED_UNIT(*)SI_UNIT($,.STERADIAN.)SOLID_ANGLE_UNIT());
#32=(LENGTH_UNIT()NAMED_UNIT(*)SI_UNIT(.MILLI.,.METRE.));
#34=UNCERTAINTY_MEASURE_WITH_UNIT(LENGTH_MEASURE(0.010000000000000),#32,'DISTANCE_ACCURACY_VALUE','');
#36=(GEOMETRIC_REPRESENTATION_CONTEXT(3)GLOBAL_UNCERTAINTY_ASSIGNED_CONTEXT((#34))GLOBAL_UNIT_ASSIGNED_CONTEXT((#24,#28,#32))REPRESENTATION_CONTEXT('None','None'));
#37=AXIS2_PLACEMENT_3D('',#38,#39,#40);
#38=CARTESIAN_POINT('',(0.0,0.0,0.0));
#39=DIRECTION('',(0.0,0.0,1.0));
#40=DIRECTION('',(1.0,0.0,0.0));
#41=SHAPE_REPRESENTATION('',(#37),#36);
#42=PRODUCT_DEFINITION_SHAPE('','',#12);
#43=SHAPE_DEFINITION_REPRESENTATION(#42,#41);
#49=(NAMED_UNIT(*)PLANE_ANGLE_UNIT()SI_UNIT($,.RADIAN.));
#50=DIMENSIONAL_EXPONENTS(0.0,0.0,0.0,0.0,0.0,0.0,0.0);
#51=PLANE_ANGLE_MEASURE_WITH_UNIT(PLANE_ANGLE_MEASURE(0.017453292500000),#49);
#55=(CONVERSION_BASED_UNIT('DEGREE',#51)NAMED_UNIT(#50)PLANE_ANGLE_UNIT());
#59=(NAMED_UNIT(*)SI_UNIT($,.STERADIAN.)SOLID_ANGLE_UNIT());
#63=(LENGTH_UNIT()NAMED_UNIT(*)SI_UNIT(.MILLI.,.METRE.));
#65=UNCERTAINTY_MEASURE_WITH_UNIT(LENGTH_MEASURE(0.000001000000000),#63,'DISTANCE_ACCURACY_VALUE','');
#67=(GEOMETRIC_REPRESENTATION_CONTEXT(3)GLOBAL_UNCERTAINTY_ASSIGNED_CONTEXT((#65))GLOBAL_UNIT_ASSIGNED_CONTEXT((#55,#59,#63))REPRESENTATION_CONTEXT('','3D'));
#68=CARTESIAN_POINT('',(4896.843285977546700,300.000000000000110,0.0));
#69=CARTESIAN_POINT('',(4872.306618524904500,263.919083772060730,0.0));
#70=CARTESIAN_POINT('',(4823.291926487119800,191.843485047548030,0.0));
#71=CARTESIAN_POINT('',(4720.373042461802500,108.765539507579590,0.0));
#72=CARTESIAN_POINT('',(4601.421760800674700,49.384412657727488,0.0));
#73=CARTESIAN_POINT('',(4467.773053108986500,17.012335557972062,0.0));
#74=CARTESIAN_POINT('',(4322.207525017962300,11.803152070359783,0.0));
#75=CARTESIAN_POINT('',(4194.311243176507600,29.789216310270859,0.0));
#76=CARTESIAN_POINT('',(4084.895050614070400,56.815845711639092,0.0));
#77=CARTESIAN_POINT('',(3991.093555556038200,86.134116405367834,0.0));
#78=CARTESIAN_POINT('',(3914.638758190855700,114.296775689795230,0.0));
#79=CARTESIAN_POINT('',(3853.221808513695600,138.163751468683760,0.0));
#80=CARTESIAN_POINT('',(3814.629454310494100,153.443203538455290,0.0));
#81=CARTESIAN_POINT('',(3778.461834448494300,167.810379755720050,0.0));
#82=CARTESIAN_POINT('',(3730.312874538567500,186.764366637054820,0.0));
#83=CARTESIAN_POINT('',(3672.694775895302900,208.781197798504310,0.0));
#84=CARTESIAN_POINT('',(3586.235729552047400,237.984688831503720,0.0));
#85=CARTESIAN_POINT('',(3491.953212753351600,261.867382932259770,0.0));
#86=CARTESIAN_POINT('',(3383.198351687319200,271.081569779274790,0.0));
#87=CARTESIAN_POINT('',(3273.955311172648200,260.054734826207720,0.0));
#88=CARTESIAN_POINT('',(3178.483853877755800,234.619894147045100,0.0));
#89=CARTESIAN_POINT('',(3089.170429284094100,203.640928296000880,0.0));
#90=CARTESIAN_POINT('',(3027.290441918203200,179.618092688947710,0.0));
#91=CARTESIAN_POINT('',(2982.561899546757600,161.888166857145310,0.0));
#92=CARTESIAN_POINT('',(2956.858774980974900,151.687418999009340,0.0));
#93=CARTESIAN_POINT('',(2935.084255194262800,143.066063932299360,0.0));
#94=CARTESIAN_POINT('',(2897.374639602953700,128.266624600519830,0.0));
#95=CARTESIAN_POINT('',(2835.088486095582500,104.368142909797040,0.0));
#96=CARTESIAN_POINT('',(2748.891268428976200,74.140670712104082,0.0));
#97=CARTESIAN_POINT('',(2628.785837796627700,39.546356533044424,0.0));
#98=CARTESIAN_POINT('',(2491.396539060727300,14.270476435842923,0.0));
#99=CARTESIAN_POINT('',(2335.691023450163800,13.380539862969609,0.0));
#100=CARTESIAN_POINT('',(2193.077790988258100,42.464589257221235,0.0));
#101=CARTESIAN_POINT('',(2066.203328096356900,101.470344188129530,0.0));
#102=CARTESIAN_POINT('',(1956.586009769970600,186.836199407585330,0.0));
#103=CARTESIAN_POINT('',(1904.937939580895500,262.252743009803910,0.0));
#104=CARTESIAN_POINT('',(1879.087205970539800,300.000000000000110,0.0));
#105=CARTESIAN_POINT('',(4896.843285977546700,300.000000000000110,12.000000000000002));
#106=CARTESIAN_POINT('',(4872.306618524904500,263.919083772060730,12.000000000000002));
#107=CARTESIAN_POINT('',(4823.291926487119800,191.843485047548030,12.000000000000002));
#108=CARTESIAN_POINT('',(4720.373042461802500,108.765539507579590,12.000000000000002));
#109=CARTESIAN_POINT('',(4601.421760800674700,49.384412657727488,12.000000000000002));
#110=CARTESIAN_POINT('',(4467.773053108986500,17.012335557972062,12.000000000000002));
#111=CARTESIAN_POINT('',(4322.207525017962300,11.803152070359783,12.000000000000002));
#112=CARTESIAN_POINT('',(4194.311243176507600,29.789216310270859,12.000000000000002));
#113=CARTESIAN_POINT('',(4084.895050614070400,56.815845711639092,12.000000000000002));
#114=CARTESIAN_POINT('',(3991.093555556038200,86.134116405367834,12.000000000000002));
#115=CARTESIAN_POINT('',(3914.638758190855700,114.296775689795230,12.000000000000002));
#116=CARTESIAN_POINT('',(3853.221808513695600,138.163751468683760,12.000000000000002));
#117=CARTESIAN_POINT('',(3814.629454310494100,153.443203538455290,12.000000000000002));
#118=CARTESIAN_POINT('',(3778.461834448494300,167.810379755720050,12.000000000000002));
#119=CARTESIAN_POINT('',(3730.312874538567500,186.764366637054820,12.000000000000002));
#120=CARTESIAN_POINT('',(3672.694775895302900,208.781197798504310,12.000000000000002));
#121=CARTESIAN_POINT('',(3586.235729552047400,237.984688831503720,12.000000000000002));
#122=CARTESIAN_POINT('',(3491.953212753351600,261.867382932259770,12.000000000000002));
#123=CARTESIAN_POINT('',(3383.198351687319200,271.081569779274790,12.000000000000002));
#124=CARTESIAN_POINT('',(3273.955311172648200,260.054734826207720,12.000000000000002));
#125=CARTESIAN_POINT('',(3178.483853877755800,234.619894147045100,12.000000000000002));
#126=CARTESIAN_POINT('',(3089.170429284094100,203.640928296000880,12.000000000000002));
#127=CARTESIAN_POINT('',(3027.290441918203200,179.618092688947710,12.000000000000002));
#128=CARTESIAN_POINT('',(2982.561899546757600,161.888166857145310,12.000000000000002));
#129=CARTESIAN_POINT('',(2956.858774980974900,151.687418999009340,12.000000000000002));
#130=CARTESIAN_POINT('',(2935.084255194262800,143.066063932299360,12.000000000000002));
#131=CARTESIAN_POINT('',(2897.374639602953700,128.266624600519830,12.000000000000002));
#132=CARTESIAN_POINT('',(2835.088486095582500,104.368142909797040,12.000000000000002));
#133=CARTESIAN_POINT('',(2748.891268428976200,74.140670712104082,12.000000000000002));
#134=CARTESIAN_POINT('',(2628.785837796627700,39.546356533044424,12.000000000000002));
#135=CARTESIAN_POINT('',(2491.396539060727300,14.270476435842923,12.000000000000002));
#136=CARTESIAN_POINT('',(2335.691023450163800,13.380539862969609,12.000000000000002));
#137=CARTESIAN_POINT('',(2193.077790988258100,42.464589257221235,12.000000000000002));
#138=CARTESIAN_POINT('',(2066.203328096356900,101.470344188129530,12.000000000000002));
#139=CARTESIAN_POINT('',(1956.586009769970600,186.836199407585330,12.000000000000002));
#140=CARTESIAN_POINT('',(1904.937939580895500,262.252743009803910,12.000000000000002));
#141=CARTESIAN_POINT('',(1879.087205970539800,300.000000000000110,12.000000000000002));
#142=B_SPLINE_SURFACE_WITH_KNOTS('',3,1,((#68,#105),(#69,#106),(#70,#107),(#71,#108),(#72,#109),(#73,#110),(#74,#111),(#75,#112),(#76,#113),(#77,#114),(#78,#115),(#79,#116),(#80,#117),(#81,#118),(#82,#119),(#83,#120),(#84,#121),(#85,#122),(#86,#123),(#87,#124),(#88,#125),(#89,#126),(#90,#127),(#91,#128),(#92,#129),(#93,#130),(#94,#131),(#95,#132),(#96,#133),(#97,#134),(#98,#135),(#99,#136),(#100,#137),(#101,#138),(#102,#139),(#103,#140),(#104,#141)),.UNSPECIFIED.,.F.,.F.,.U.,(4,1,1,1,1,1,1,1,1,1,1,1,1,1,1,1,1,1,1,1,1,1,1,1,1,1,1,1,1,1,1,1,1,1,4),(2,2),(0.0,13.030730550976557,26.030317532573122,39.144309722158141,52.649694713353654,66.945530594756178,82.594028784966298,91.225765057533238,100.743044457532760,112.059649178232380,115.662278606658110,120.510640000666200,124.511667776958430,127.337233551489020,136.034546467517290,143.011576514573960,154.712789125851570,165.119503660052460,175.582603227888370,187.482890958005530,194.672382614773710,203.941601641491080,207.392640129226380,209.107057089007410,212.237563995489610,214.418402096869900,221.259916714875660,232.251821086624720,241.807739051241750,258.744074936709750,273.981689526005710,288.247674721090450,302.026183933615930,315.654761125219520,329.311547646310770),(0.0,1.200000000000000),.UNSPECIFIED.);
#143=CARTESIAN_POINT('',(1879.087205970539800,300.000000000000110,12.000000000000002));
#144=VERTEX_POINT('',#143);
#145=CARTESIAN_POINT('',(4896.843285977546700,300.000000000000110,12.000000000000002));
#146=VERTEX_POINT('',#145);
#147=CARTESIAN_POINT('',(1879.087205970539800,300.000000000000110,12.000000000000002));
#148=CARTESIAN_POINT('',(1904.937939580895500,262.252743009803910,12.000000000000002));
#149=CARTESIAN_POINT('',(1956.586009769970600,186.836199407585330,12.000000000000002));
#150=CARTESIAN_POINT('',(2066.203328096356900,101.470344188129530,12.000000000000002));
#151=CARTESIAN_POINT('',(2193.077790988258100,42.464589257221235,12.000000000000002));
#152=CARTESIAN_POINT('',(2335.691023450163800,13.380539862969609,12.000000000000002));
#153=CARTESIAN_POINT('',(2491.396539060727300,14.270476435842923,12.000000000000002));
#154=CARTESIAN_POINT('',(2628.785837796627700,39.546356533044424,12.000000000000002));
#155=CARTESIAN_POINT('',(2748.891268428976200,74.140670712104082,12.000000000000002));
#156=CARTESIAN_POINT('',(2835.088486095582500,104.368142909797040,12.000000000000002));
#157=CARTESIAN_POINT('',(2897.374639602953700,128.266624600519830,12.000000000000002));
#158=CARTESIAN_POINT('',(2935.084255194262800,143.066063932299360,12.000000000000002));
#159=CARTESIAN_POINT('',(2956.858774980974900,151.687418999009340,12.000000000000002));
#160=CARTESIAN_POINT('',(2982.561899546757600,161.888166857145310,12.000000000000002));
#161=CARTESIAN_POINT('',(3027.290441918203200,179.618092688947710,12.000000000000002));
#162=CARTESIAN_POINT('',(3089.170429284094100,203.640928296000880,12.000000000000002));
#163=CARTESIAN_POINT('',(3178.483853877755800,234.619894147045100,12.000000000000002));
#164=CARTESIAN_POINT('',(3273.955311172648200,260.054734826207720,12.000000000000002));
#165=CARTESIAN_POINT('',(3383.198351687319200,271.081569779274790,12.000000000000002));
#166=CARTESIAN_POINT('',(3491.953212753351600,261.867382932259770,12.000000000000002));
#167=CARTESIAN_POINT('',(3586.235729552047400,237.984688831503720,12.000000000000002));
#168=CARTESIAN_POINT('',(3672.694775895302900,208.781197798504310,12.000000000000002));
#169=CARTESIAN_POINT('',(3730.312874538567500,186.764366637054820,12.000000000000002));
#170=CARTESIAN_POINT('',(3778.461834448494300,167.810379755720050,12.000000000000002));
#171=CARTESIAN_POINT('',(3814.629454310494100,153.443203538455290,12.000000000000002));
#172=CARTESIAN_POINT('',(3853.221808513695600,138.163751468683760,12.000000000000002));
#173=CARTESIAN_POINT('',(3914.638758190855700,114.296775689795230,12.000000000000002));
#174=CARTESIAN_POINT('',(3991.093555556038200,86.134116405367834,12.000000000000002));
#175=CARTESIAN_POINT('',(4084.895050614070400,56.815845711639092,12.000000000000002));
#176=CARTESIAN_POINT('',(4194.311243176507600,29.789216310270859,12.000000000000002));
#177=CARTESIAN_POINT('',(4322.207525017962300,11.803152070359783,12.000000000000002));
#178=CARTESIAN_POINT('',(4467.773053108986500,17.012335557972062,12.000000000000002));
#179=CARTESIAN_POINT('',(4601.421760800674700,49.384412657727488,12.000000000000002));
#180=CARTESIAN_POINT('',(4720.373042461802500,108.765539507579590,12.000000000000002));
#181=CARTESIAN_POINT('',(4823.291926487119800,191.843485047548030,12.000000000000002));
#182=CARTESIAN_POINT('',(4872.306618524904500,263.919083772060730,12.000000000000002));
#183=CARTESIAN_POINT('',(4896.843285977546700,300.000000000000110,12.000000000000002));
#184=B_SPLINE_CURVE_WITH_KNOTS('',3,(#147,#148,#149,#150,#151,#152,#153,#154,#155,#156,#157,#158,#159,#160,#161,#162,#163,#164,#165,#166,#167,#168,#169,#170,#171,#172,#173,#174,#175,#176,#177,#178,#179,#180,#181,#182,#183),.UNSPECIFIED.,.F.,.U.,(4,1,1,1,1,1,1,1,1,1,1,1,1,1,1,1,1,1,1,1,1,1,1,1,1,1,1,1,1,1,1,1,1,1,4),(0.0,13.656786521091249,27.285363712694846,41.063872925220323,55.329858120305062,70.567472709601020,87.503808595069017,97.059726559686055,108.051630931435110,114.893145549440870,117.073983650821160,120.204490557303360,121.918907517084390,125.369946004819700,134.639165031537060,141.828656688305240,153.728944418422400,164.192043986258310,174.598758520459200,186.299971131736810,193.277001178793480,201.974314094821750,204.799879869352340,208.800907645644570,213.649269039652670,217.251898468078390,228.568503188778010,238.085782588777530,246.717518861344470,262.366017051554590,276.661852932957120,290.167237924152630,303.281230113737650,316.280817095334210,329.311547646310770),.UNSPECIFIED.);
#185=EDGE_CURVE('',#144,#146,#184,.T.);
#186=ORIENTED_EDGE('',*,*,#185,.T.);
#187=CARTESIAN_POINT('',(4896.843285977546700,300.000000000000110,0.0));
#188=VERTEX_POINT('',#187);
#189=CARTESIAN_POINT('',(4896.843285977546700,300.000000000000110,0.0));
#190=DIRECTION('',(0.0,0.0,1.0));
#191=VECTOR('',#190,12.000000000000002);
#192=LINE('',#189,#191);
#193=EDGE_CURVE('',#188,#146,#192,.T.);
#194=ORIENTED_EDGE('',*,*,#193,.F.);
#195=CARTESIAN_POINT('',(1879.087205970539800,300.000000000000110,0.0));
#196=VERTEX_POINT('',#195);
#197=CARTESIAN_POINT('',(4896.843285977546700,300.000000000000110,0.0));
#198=CARTESIAN_POINT('',(4872.306618524904500,263.919083772060730,0.0));
#199=CARTESIAN_POINT('',(4823.291926487119800,191.843485047548030,0.0));
#200=CARTESIAN_POINT('',(4720.373042461802500,108.765539507579590,0.0));
#201=CARTESIAN_POINT('',(4601.421760800674700,49.384412657727488,0.0));
#202=CARTESIAN_POINT('',(4467.773053108986500,17.012335557972062,0.0));
#203=CARTESIAN_POINT('',(4322.207525017962300,11.803152070359783,0.0));
#204=CARTESIAN_POINT('',(4194.311243176507600,29.789216310270859,0.0));
#205=CARTESIAN_POINT('',(4084.895050614070400,56.815845711639092,0.0));
#206=CARTESIAN_POINT('',(3991.093555556038200,86.134116405367834,0.0));
#207=CARTESIAN_POINT('',(3914.638758190855700,114.296775689795230,0.0));
#208=CARTESIAN_POINT('',(3853.221808513695600,138.163751468683760,0.0));
#209=CARTESIAN_POINT('',(3814.629454310494100,153.443203538455290,0.0));
#210=CARTESIAN_POINT('',(3778.461834448494300,167.810379755720050,0.0));
#211=CARTESIAN_POINT('',(3730.312874538567500,186.764366637054820,0.0));
#212=CARTESIAN_POINT('',(3672.694775895302900,208.781197798504310,0.0));
#213=CARTESIAN_POINT('',(3586.235729552047400,237.984688831503720,0.0));
#214=CARTESIAN_POINT('',(3491.953212753351600,261.867382932259770,0.0));
#215=CARTESIAN_POINT('',(3383.198351687319200,271.081569779274790,0.0));
#216=CARTESIAN_POINT('',(3273.955311172648200,260.054734826207720,0.0));
#217=CARTESIAN_POINT('',(3178.483853877755800,234.619894147045100,0.0));
#218=CARTESIAN_POINT('',(3089.170429284094100,203.640928296000880,0.0));
#219=CARTESIAN_POINT('',(3027.290441918203200,179.618092688947710,0.0));
#220=CARTESIAN_POINT('',(2982.561899546757600,161.888166857145310,0.0));
#221=CARTESIAN_POINT('',(2956.858774980974900,151.687418999009340,0.0));
#222=CARTESIAN_POINT('',(2935.084255194262800,143.066063932299360,0.0));
#223=CARTESIAN_POINT('',(2897.374639602953700,128.266624600519830,0.0));
#224=CARTESIAN_POINT('',(2835.088486095582500,104.368142909797040,0.0));
#225=CARTESIAN_POINT('',(2748.891268428976200,74.140670712104082,0.0));
#226=CARTESIAN_POINT('',(2628.785837796627700,39.546356533044424,0.0));
#227=CARTESIAN_POINT('',(2491.396539060727300,14.270476435842923,0.0));
#228=CARTESIAN_POINT('',(2335.691023450163800,13.380539862969609,0.0));
#229=CARTESIAN_POINT('',(2193.077790988258100,42.464589257221235,0.0));
#230=CARTESIAN_POINT('',(2066.203328096356900,101.470344188129530,0.0));
#231=CARTESIAN_POINT('',(1956.586009769970600,186.836199407585330,0.0));
#232=CARTESIAN_POINT('',(1904.937939580895500,262.252743009803910,0.0));
#233=CARTESIAN_POINT('',(1879.087205970539800,300.000000000000110,0.0));
#234=B_SPLINE_CURVE_WITH_KNOTS('',3,(#197,#198,#199,#200,#201,#202,#203,#204,#205,#206,#207,#208,#209,#210,#211,#212,#213,#214,#215,#216,#217,#218,#219,#220,#221,#222,#223,#224,#225,#226,#227,#228,#229,#230,#231,#232,#233),.UNSPECIFIED.,.F.,.U.,(4,1,1,1,1,1,1,1,1,1,1,1,1,1,1,1,1,1,1,1,1,1,1,1,1,1,1,1,1,1,1,1,1,1,4),(0.0,13.030730550976557,26.030317532573122,39.144309722158141,52.649694713353654,66.945530594756178,82.594028784966298,91.225765057533238,100.743044457532760,112.059649178232380,115.662278606658110,120.510640000666200,124.511667776958430,127.337233551489020,136.034546467517290,143.011576514573960,154.712789125851570,165.119503660052460,175.582603227888370,187.482890958005530,194.672382614773710,203.941601641491080,207.392640129226380,209.107057089007410,212.237563995489610,214.418402096869900,221.259916714875660,232.251821086624720,241.807739051241750,258.744074936709750,273.981689526005710,288.247674721090450,302.026183933615930,315.654761125219520,329.311547646310770),.UNSPECIFIED.);
#235=EDGE_CURVE('',#188,#196,#234,.T.);
#236=ORIENTED_EDGE('',*,*,#235,.T.);
#237=CARTESIAN_POINT('',(1879.087205970539800,300.000000000000110,0.0));
#238=DIRECTION('',(0.0,0.0,1.0));
#239=VECTOR('',#238,12.000000000000002);
#240=LINE('',#237,#239);
#241=EDGE_CURVE('',#196,#144,#240,.T.);
#242=ORIENTED_EDGE('',*,*,#241,.T.);
#243=EDGE_LOOP('',(#186,#194,#236,#242));
#244=FACE_OUTER_BOUND('',#243,.T.);
#245=ADVANCED_FACE('',(#244),#142,.T.);
#246=CARTESIAN_POINT('',(6775.930491948079200,300.000000000000170,0.0));
#247=CARTESIAN_POINT('',(6630.262675810483400,299.999999999999940,0.0));
#248=CARTESIAN_POINT('',(6409.334894388125600,299.999999999999720,0.0));
#249=CARTESIAN_POINT('',(6110.820277430430000,300.000000000000230,0.0));
#250=CARTESIAN_POINT('',(5878.072482580839300,300.000000000000230,0.0));
#251=CARTESIAN_POINT('',(5638.791045409092500,299.999999999999600,0.0));
#252=CARTESIAN_POINT('',(5310.943260376614500,300.000000000000510,0.0));
#253=CARTESIAN_POINT('',(5062.996469373623800,300.000000000000280,0.0));
#254=CARTESIAN_POINT('',(4896.843285977546700,300.000000000000110,0.0));
#255=CARTESIAN_POINT('',(6775.930491948079200,300.000000000000170,12.000000000000002));
#256=CARTESIAN_POINT('',(6630.262675810483400,299.999999999999940,12.000000000000002));
#257=CARTESIAN_POINT('',(6409.334894388125600,299.999999999999720,12.000000000000002));
#258=CARTESIAN_POINT('',(6110.820277430430000,300.000000000000230,12.000000000000002));
#259=CARTESIAN_POINT('',(5878.072482580839300,300.000000000000230,12.000000000000002));
#260=CARTESIAN_POINT('',(5638.791045409092500,299.999999999999600,12.000000000000002));
#261=CARTESIAN_POINT('',(5310.943260376614500,300.000000000000510,12.000000000000002));
#262=CARTESIAN_POINT('',(5062.996469373623800,300.000000000000280,12.000000000000002));
#263=CARTESIAN_POINT('',(4896.843285977546700,300.000000000000110,12.000000000000002));
#264=B_SPLINE_SURFACE_WITH_KNOTS('',3,1,((#246,#255),(#247,#256),(#248,#257),(#249,#258),(#250,#259),(#251,#260),(#252,#261),(#253,#262),(#254,#263)),.UNSPECIFIED.,.F.,.F.,.U.,(4,1,1,1,1,1,4),(2,2),(0.0,43.700344841278593,66.278334426707829,89.554385087307992,113.524683296156700,138.062765578230600,187.908720597053280),(0.0,1.200000000000000),.UNSPECIFIED.);
#265=CARTESIAN_POINT('',(6775.930491948079200,300.000000000000170,12.000000000000002));
#266=VERTEX_POINT('',#265);
#267=CARTESIAN_POINT('',(4896.843285977546700,300.000000000000110,12.000000000000002));
#268=CARTESIAN_POINT('',(5062.996469373623800,300.000000000000280,12.000000000000002));
#269=CARTESIAN_POINT('',(5310.943260376614500,300.000000000000510,12.000000000000002));
#270=CARTESIAN_POINT('',(5638.791045409092500,299.999999999999600,12.000000000000002));
#271=CARTESIAN_POINT('',(5878.072482580839300,300.000000000000230,12.000000000000002));
#272=CARTESIAN_POINT('',(6110.820277430430000,300.000000000000230,12.000000000000002));
#273=CARTESIAN_POINT('',(6409.334894388125600,299.999999999999720,12.000000000000002));
#274=CARTESIAN_POINT('',(6630.262675810483400,299.999999999999940,12.000000000000002));
#275=CARTESIAN_POINT('',(6775.930491948079200,300.000000000000170,12.000000000000002));
#276=B_SPLINE_CURVE_WITH_KNOTS('',3,(#267,#268,#269,#270,#271,#272,#273,#274,#275),.UNSPECIFIED.,.F.,.U.,(4,1,1,1,1,1,4),(0.0,49.845955018822679,74.384037300896580,98.354335509745283,121.630386170345450,144.208375755774680,187.908720597053280),.UNSPECIFIED.);
#277=EDGE_CURVE('',#146,#266,#276,.T.);
#278=ORIENTED_EDGE('',*,*,#277,.T.);
#279=CARTESIAN_POINT('',(6775.930491948079200,300.000000000000170,0.0));
#280=VERTEX_POINT('',#279);
#281=CARTESIAN_POINT('',(6775.930491948079200,300.000000000000170,0.0));
#282=DIRECTION('',(0.0,0.0,1.0));
#283=VECTOR('',#282,12.000000000000002);
#284=LINE('',#281,#283);
#285=EDGE_CURVE('',#280,#266,#284,.T.);
#286=ORIENTED_EDGE('',*,*,#285,.F.);
#287=CARTESIAN_POINT('',(6775.930491948079200,300.000000000000170,0.0));
#288=CARTESIAN_POINT('',(6630.262675810483400,299.999999999999940,0.0));
#289=CARTESIAN_POINT('',(6409.334894388125600,299.999999999999720,0.0));
#290=CARTESIAN_POINT('',(6110.820277430430000,300.000000000000230,0.0));
#291=CARTESIAN_POINT('',(5878.072482580839300,300.000000000000230,0.0));
#292=CARTESIAN_POINT('',(5638.791045409092500,299.999999999999600,0.0));
#293=CARTESIAN_POINT('',(5310.943260376614500,300.000000000000510,0.0));
#294=CARTESIAN_POINT('',(5062.996469373623800,300.000000000000280,0.0));
#295=CARTESIAN_POINT('',(4896.843285977546700,300.000000000000110,0.0));
#296=B_SPLINE_CURVE_WITH_KNOTS('',3,(#287,#288,#289,#290,#291,#292,#293,#294,#295),.UNSPECIFIED.,.F.,.U.,(4,1,1,1,1,1,4),(0.0,43.700344841278593,66.278334426707829,89.554385087307992,113.524683296156700,138.062765578230600,187.908720597053280),.UNSPECIFIED.);
#297=EDGE_CURVE('',#280,#188,#296,.T.);
#298=ORIENTED_EDGE('',*,*,#297,.T.);
#299=ORIENTED_EDGE('',*,*,#193,.T.);
#300=EDGE_LOOP('',(#278,#286,#298,#299));
#301=FACE_OUTER_BOUND('',#300,.T.);
#302=ADVANCED_FACE('',(#301),#264,.T.);
#303=CARTESIAN_POINT('',(6775.930491948079200,300.000000000000170,0.0));
#304=DIRECTION('',(1.0,0.0,0.0));
#305=DIRECTION('',(0.0,0.0,-1.0));
#306=AXIS2_PLACEMENT_3D('',#303,#304,#305);
#307=PLANE('',#306);
#308=CARTESIAN_POINT('',(6775.930491948091900,0.0,12.000000000000002));
#309=VERTEX_POINT('',#308);
#310=CARTESIAN_POINT('',(6775.930491948079200,300.000000000000170,12.000000000000002));
#311=DIRECTION('',(0.0,-1.0,0.0));
#312=VECTOR('',#311,300.000000000000170);
#313=LINE('',#310,#312);
#314=EDGE_CURVE('',#266,#309,#313,.T.);
#315=ORIENTED_EDGE('',*,*,#314,.T.);
#316=CARTESIAN_POINT('',(6775.930491948091900,0.0,0.0));
#317=VERTEX_POINT('',#316);
#318=CARTESIAN_POINT('',(6775.930491948091900,0.0,0.0));
#319=DIRECTION('',(0.0,0.0,1.0));
#320=VECTOR('',#319,12.000000000000002);
#321=LINE('',#318,#320);
#322=EDGE_CURVE('',#317,#309,#321,.T.);
#323=ORIENTED_EDGE('',*,*,#322,.F.);
#324=CARTESIAN_POINT('',(6775.930491948091900,0.0,0.0));
#325=DIRECTION('',(0.0,1.0,0.0));
#326=VECTOR('',#325,300.000000000000170);
#327=LINE('',#324,#326);
#328=EDGE_CURVE('',#317,#280,#327,.T.);
#329=ORIENTED_EDGE('',*,*,#328,.T.);
#330=ORIENTED_EDGE('',*,*,#285,.T.);
#331=EDGE_LOOP('',(#315,#323,#329,#330));
#332=FACE_OUTER_BOUND('',#331,.T.);
#333=ADVANCED_FACE('',(#332),#307,.T.);
#334=CARTESIAN_POINT('',(6775.930491948091900,0.0,0.0));
#335=DIRECTION('',(0.0,-1.0,0.0));
#336=DIRECTION('',(0.0,0.0,-1.0));
#337=AXIS2_PLACEMENT_3D('',#334,#335,#336);
#338=PLANE('',#337);
#339=CARTESIAN_POINT('',(0.0,0.0,12.000000000000002));
#340=VERTEX_POINT('',#339);
#341=CARTESIAN_POINT('',(6775.930491948091900,0.0,12.000000000000002));
#342=DIRECTION('',(-1.0,0.0,0.0));
#343=VECTOR('',#342,6775.930491948091900);
#344=LINE('',#341,#343);
#345=EDGE_CURVE('',#309,#340,#344,.T.);
#346=ORIENTED_EDGE('',*,*,#345,.T.);
#347=CARTESIAN_POINT('',(0.0,0.0,0.0));
#348=VERTEX_POINT('',#347);
#349=CARTESIAN_POINT('',(0.0,0.0,0.0));
#350=DIRECTION('',(0.0,0.0,1.0));
#351=VECTOR('',#350,12.000000000000002);
#352=LINE('',#349,#351);
#353=EDGE_CURVE('',#348,#340,#352,.T.);
#354=ORIENTED_EDGE('',*,*,#353,.F.);
#355=CARTESIAN_POINT('',(0.0,0.0,0.0));
#356=DIRECTION('',(1.0,0.0,0.0));
#357=VECTOR('',#356,6775.930491948091900);
#358=LINE('',#355,#357);
#359=EDGE_CURVE('',#348,#317,#358,.T.);
#360=ORIENTED_EDGE('',*,*,#359,.T.);
#361=ORIENTED_EDGE('',*,*,#322,.T.);
#362=EDGE_LOOP('',(#346,#354,#360,#361));
#363=FACE_OUTER_BOUND('',#362,.T.);
#364=ADVANCED_FACE('',(#363),#338,.T.);
#365=CARTESIAN_POINT('',(0.0,0.0,0.0));
#366=DIRECTION('',(-1.0,0.0,0.0));
#367=DIRECTION('',(0.0,0.0,1.0));
#368=AXIS2_PLACEMENT_3D('',#365,#366,#367);
#369=PLANE('',#368);
#370=CARTESIAN_POINT('',(0.0,300.000000000000170,12.000000000000002));
#371=VERTEX_POINT('',#370);
#372=CARTESIAN_POINT('',(0.0,0.0,12.000000000000002));
#373=DIRECTION('',(0.0,1.0,0.0));
#374=VECTOR('',#373,300.000000000000170);
#375=LINE('',#372,#374);
#376=EDGE_CURVE('',#340,#371,#375,.T.);
#377=ORIENTED_EDGE('',*,*,#376,.T.);
#378=CARTESIAN_POINT('',(0.0,300.000000000000170,0.0));
#379=VERTEX_POINT('',#378);
#380=CARTESIAN_POINT('',(0.0,300.000000000000170,0.0));
#381=DIRECTION('',(0.0,0.0,1.0));
#382=VECTOR('',#381,12.000000000000002);
#383=LINE('',#380,#382);
#384=EDGE_CURVE('',#379,#371,#383,.T.);
#385=ORIENTED_EDGE('',*,*,#384,.F.);
#386=CARTESIAN_POINT('',(0.0,300.000000000000170,0.0));
#387=DIRECTION('',(0.0,-1.0,0.0));
#388=VECTOR('',#387,300.000000000000170);
#389=LINE('',#386,#388);
#390=EDGE_CURVE('',#379,#348,#389,.T.);
#391=ORIENTED_EDGE('',*,*,#390,.T.);
#392=ORIENTED_EDGE('',*,*,#353,.T.);
#393=EDGE_LOOP('',(#377,#385,#391,#392));
#394=FACE_OUTER_BOUND('',#393,.T.);
#395=ADVANCED_FACE('',(#394),#369,.T.);
#396=CARTESIAN_POINT('',(0.0,300.000000000000170,0.0));
#397=DIRECTION('',(0.0,1.0,0.0));
#398=DIRECTION('',(0.0,0.0,1.0));
#399=AXIS2_PLACEMENT_3D('',#396,#397,#398);
#400=PLANE('',#399);
#401=CARTESIAN_POINT('',(0.0,300.000000000000170,12.000000000000002));
#402=DIRECTION('',(1.0,0.0,0.0));
#403=VECTOR('',#402,1879.087205970539800);
#404=LINE('',#401,#403);
#405=EDGE_CURVE('',#371,#144,#404,.T.);
#406=ORIENTED_EDGE('',*,*,#405,.T.);
#407=ORIENTED_EDGE('',*,*,#241,.F.);
#408=CARTESIAN_POINT('',(1879.087205970539800,300.000000000000110,0.0));
#409=DIRECTION('',(-1.0,0.0,0.0));
#410=VECTOR('',#409,1879.087205970539800);
#411=LINE('',#408,#410);
#412=EDGE_CURVE('',#196,#379,#411,.T.);
#413=ORIENTED_EDGE('',*,*,#412,.T.);
#414=ORIENTED_EDGE('',*,*,#384,.T.);
#415=EDGE_LOOP('',(#406,#407,#413,#414));
#416=FACE_OUTER_BOUND('',#415,.T.);
#417=ADVANCED_FACE('',(#416),#400,.T.);
#418=CARTESIAN_POINT('',(3387.978557522650600,117.706882269649640,0.0));
#419=DIRECTION('',(0.0,0.0,1.0));
#420=DIRECTION('',(1.0,0.0,0.0));
#421=AXIS2_PLACEMENT_3D('',#418,#419,#420);
#422=PLANE('',#421);
#423=ORIENTED_EDGE('',*,*,#412,.F.);
#424=ORIENTED_EDGE('',*,*,#235,.F.);
#425=ORIENTED_EDGE('',*,*,#297,.F.);
#426=ORIENTED_EDGE('',*,*,#328,.F.);
#427=ORIENTED_EDGE('',*,*,#359,.F.);
#428=ORIENTED_EDGE('',*,*,#390,.F.);
#429=EDGE_LOOP('',(#423,#424,#425,#426,#427,#428));
#430=FACE_OUTER_BOUND('',#429,.T.);
#431=ADVANCED_FACE('',(#430),#422,.F.);
#432=CARTESIAN_POINT('',(3387.978557522651000,117.706882269649640,12.000000000000002));
#433=DIRECTION('',(0.0,0.0,1.0));
#434=DIRECTION('',(1.0,0.0,0.0));
#435=AXIS2_PLACEMENT_3D('',#432,#433,#434);
#436=PLANE('',#435);
#437=ORIENTED_EDGE('',*,*,#185,.F.);
#438=ORIENTED_EDGE('',*,*,#405,.F.);
#439=ORIENTED_EDGE('',*,*,#376,.F.);
#440=ORIENTED_EDGE('',*,*,#345,.F.);
#441=ORIENTED_EDGE('',*,*,#314,.F.);
#442=ORIENTED_EDGE('',*,*,#277,.F.);
#443=EDGE_LOOP('',(#437,#438,#439,#440,#441,#442));
#444=FACE_OUTER_BOUND('',#443,.T.);
#445=ADVANCED_FACE('',(#444),#436,.T.);
#446=CLOSED_SHELL('',(#245,#302,#333,#364,#395,#417,#431,#445));
#447=MANIFOLD_SOLID_BREP('Solid1',#446);
#448=COLOUR_RGB('Default',0.752941012382507,0.752941012382507,0.752941012382507);
#449=FILL_AREA_STYLE_COLOUR('Default',#448);
#450=FILL_AREA_STYLE('Default',(#449));
#451=SURFACE_STYLE_FILL_AREA(#450);
#452=SURFACE_SIDE_STYLE('Default',(#451));
#453=SURFACE_STYLE_USAGE(.BOTH.,#452);
#454=PRESENTATION_STYLE_ASSIGNMENT((#453));
#455=STYLED_ITEM('',(#454),#447);
#456=MECHANICAL_DESIGN_GEOMETRIC_PRESENTATION_REPRESENTATION('',(#455),#36);
#457=ADVANCED_BREP_SHAPE_REPRESENTATION('ABSR',(#447),#36);
#458=SHAPE_REPRESENTATION_RELATIONSHIP('SRR','None',#457,#41);
#459=GROUP('Sketch1',$);
#460=APPLIED_GROUP_ASSIGNMENT(#459,());
ENDSEC;
END-ISO-10303-21;
