ISO-10303-21;
HEADER;
/****************************************************************
 * Generated by software with PDE/Lib inside                    *
 * PDElib Version v51a, created Mon 03/22/2010                  *
 * International Technegroup Inc. (www.iti-oh.com)              *
 ****************************************************************/
FILE_DESCRIPTION((''),'2;1');
FILE_NAME('C:\\Users\\Mikes\\Desktop\\Wire Die.stp','2017-12-29T09:36:28',('Mikes'),(''),'Autodesk Inventor 2010','Autodesk Inventor 2010','');
FILE_SCHEMA(('AUTOMOTIVE_DESIGN { 1 0 10303 214 1 1 1 1 }'));
ENDSEC;
DATA;
#5=APPLICATION_CONTEXT('automotive design');
#6=APPLICATION_PROTOCOL_DEFINITION('International Standard','automotive_design',2001,#5);
#7=PRODUCT_CONTEXT('',#5,'mechanical');
#8=PRODUCT('Wire Die','Wire Die',$,(#7));
#9=PRODUCT_RELATED_PRODUCT_CATEGORY('part',$,(#8));
#10=PRODUCT_DEFINITION_FORMATION('',$,#8);
#11=PRODUCT_DEFINITION_CONTEXT('part definition',#5,'design');
#12=PRODUCT_DEFINITION('',$,#10,#11);
#18=(NAMED_UNIT(*)PLANE_ANGLE_UNIT()SI_UNIT($,.RADIAN.));
#19=DIMENSIONAL_EXPONENTS(0.0,0.0,0.0,0.0,0.0,0.0,0.0);
#20=PLANE_ANGLE_MEASURE_WITH_UNIT(PLANE_ANGLE_MEASURE(0.017453292500000),#18);
#24=(CONVERSION_BASED_UNIT('DEGREE',#20)NAMED_UNIT(#19)PLANE_ANGLE_UNIT());
#28=(NAMED_UNIT(*)SI_UNIT($,.STERADIAN.)SOLID_ANGLE_UNIT());
#32=(LENGTH_UNIT()NAMED_UNIT(*)SI_UNIT(.MILLI.,.METRE.));
#34=UNCERTAINTY_MEASURE_WITH_UNIT(LENGTH_MEASURE(0.010000000000000),#32,'DISTANCE_ACCURACY_VALUE','');
#36=(GEOMETRIC_REPRESENTATION_CONTEXT(3)GLOBAL_UNCERTAINTY_ASSIGNED_CONTEXT((#34))GLOBAL_UNIT_ASSIGNED_CONTEXT((#24,#28,#32))REPRESENTATION_CONTEXT('None','None'));
#37=AXIS2_PLACEMENT_3D('',#38,#39,#40);
#38=CARTESIAN_POINT('',(0.0,0.0,0.0));
#39=DIRECTION('',(0.0,0.0,1.0));
#40=DIRECTION('',(1.0,0.0,0.0));
#41=SHAPE_REPRESENTATION('',(#37),#36);
#42=PRODUCT_DEFINITION_SHAPE('','',#12);
#43=SHAPE_DEFINITION_REPRESENTATION(#42,#41);
#49=(NAMED_UNIT(*)PLANE_ANGLE_UNIT()SI_UNIT($,.RADIAN.));
#50=DIMENSIONAL_EXPONENTS(0.0,0.0,0.0,0.0,0.0,0.0,0.0);
#51=PLANE_ANGLE_MEASURE_WITH_UNIT(PLANE_ANGLE_MEASURE(0.017453292500000),#49);
#55=(CONVERSION_BASED_UNIT('DEGREE',#51)NAMED_UNIT(#50)PLANE_ANGLE_UNIT());
#59=(NAMED_UNIT(*)SI_UNIT($,.STERADIAN.)SOLID_ANGLE_UNIT());
#63=(LENGTH_UNIT()NAMED_UNIT(*)SI_UNIT(.MILLI.,.METRE.));
#65=UNCERTAINTY_MEASURE_WITH_UNIT(LENGTH_MEASURE(0.000001000000000),#63,'DISTANCE_ACCURACY_VALUE','');
#67=(GEOMETRIC_REPRESENTATION_CONTEXT(3)GLOBAL_UNCERTAINTY_ASSIGNED_CONTEXT((#65))GLOBAL_UNIT_ASSIGNED_CONTEXT((#55,#59,#63))REPRESENTATION_CONTEXT('','3D'));
#68=CARTESIAN_POINT('',(8.186615307097920,245.145594535678530,-5.767318E-015));
#69=CARTESIAN_POINT('',(8.015268838328518,241.568737000114570,-5.646608E-015));
#70=CARTESIAN_POINT('',(11.346534863538659,240.254988123288740,-7.993423E-015));
#71=CARTESIAN_POINT('',(8.186615307097924,245.145594535678550,8.186615307098032));
#72=CARTESIAN_POINT('',(8.015268838328522,241.568737000114570,8.015268838328629));
#73=CARTESIAN_POINT('',(11.346534863538668,240.254988123288740,11.346534863538768));
#74=CARTESIAN_POINT('',(-1.136102E-013,245.145594535678530,8.186615307098039));
#75=CARTESIAN_POINT('',(-1.119904E-013,241.568737000114570,8.015268838328636));
#76=CARTESIAN_POINT('',(-1.090043E-013,240.254988123288740,11.346534863538777));
#77=CARTESIAN_POINT('',(-8.186615307098151,245.145594535678550,8.186615307098043));
#78=CARTESIAN_POINT('',(-8.015268838328746,241.568737000114570,8.015268838328639));
#79=CARTESIAN_POINT('',(-11.346534863538883,240.254988123288740,11.346534863538784));
#80=CARTESIAN_POINT('',(-8.186615307098158,245.145594535678530,5.767318E-015));
#81=CARTESIAN_POINT('',(-8.015268838328753,241.568737000114570,5.646608E-015));
#82=CARTESIAN_POINT('',(-11.346534863538894,240.254988123288740,7.993423E-015));
#83=CARTESIAN_POINT('',(-8.186615307098162,245.145594535678550,-8.186615307098032));
#84=CARTESIAN_POINT('',(-8.015268838328757,241.568737000114570,-8.015268838328629));
#85=CARTESIAN_POINT('',(-11.346534863538899,240.254988123288740,-11.346534863538768));
#86=CARTESIAN_POINT('',(-1.251448E-013,245.145594535678530,-8.186615307098039));
#87=CARTESIAN_POINT('',(-1.232836E-013,241.568737000114570,-8.015268838328636));
#88=CARTESIAN_POINT('',(-1.249911E-013,240.254988123288740,-11.346534863538777));
#89=CARTESIAN_POINT('',(8.186615307097913,245.145594535678550,-8.186615307098043));
#90=CARTESIAN_POINT('',(8.015268838328511,241.568737000114570,-8.015268838328639));
#91=CARTESIAN_POINT('',(11.346534863538650,240.254988123288740,-11.346534863538784));
#92=CARTESIAN_POINT('',(8.186615307097920,245.145594535678530,-5.767318E-015));
#93=CARTESIAN_POINT('',(8.015268838328518,241.568737000114570,-5.646608E-015));
#94=CARTESIAN_POINT('',(11.346534863538659,240.254988123288740,-7.993423E-015));
#102=(BOUNDED_SURFACE()B_SPLINE_SURFACE(2,2,((#68,#71,#74,#77,#80,#83,#86,#89,#92),(#69,#72,#75,#78,#81,#84,#87,#90,#93),(#70,#73,#76,#79,#82,#85,#88,#91,#94)),.UNSPECIFIED.,.F.,.T.,.U.)B_SPLINE_SURFACE_WITH_KNOTS((3,3),(3,2,2,2,3),(3.093725055299184,4.336746104824072),(0.0,1.570796326794897,3.141592653589793,4.712388980384690,6.283185307179586),.UNSPECIFIED.)GEOMETRIC_REPRESENTATION_ITEM()RATIONAL_B_SPLINE_SURFACE(((1.0,0.707106781186548,1.0,0.707106781186548,1.0,0.707106781186548,1.0,0.707106781186548,1.0),(0.812999860491466,0.574877714457233,0.812999860491466,0.574877714457233,0.812999860491466,0.574877714457233,0.812999860491466,0.574877714457233,0.812999860491466),(1.0,0.707106781186548,1.0,0.707106781186548,1.0,0.707106781186548,1.0,0.707106781186548,1.0)))REPRESENTATION_ITEM('')SURFACE());
#103=CARTESIAN_POINT('',(8.186615307097920,245.145594535678530,-7.772461E-015));
#104=VERTEX_POINT('',#103);
#105=CARTESIAN_POINT('',(-1.193775E-013,245.145594535678530,0.0));
#106=DIRECTION('',(0.0,1.0,0.0));
#107=DIRECTION('',(-1.0,0.0,0.0));
#108=AXIS2_PLACEMENT_3D('',#105,#106,#107);
#109=CIRCLE('',#108,8.186615307098039);
#110=EDGE_CURVE('',#104,#104,#109,.T.);
#111=ORIENTED_EDGE('',*,*,#110,.T.);
#112=EDGE_LOOP('',(#111));
#113=FACE_OUTER_BOUND('',#112,.T.);
#114=CARTESIAN_POINT('',(11.346534863538659,240.254988123288740,-7.993423E-015));
#115=VERTEX_POINT('',#114);
#116=CARTESIAN_POINT('',(-1.169977E-013,240.254988123288740,0.0));
#117=DIRECTION('',(0.0,-1.0,0.0));
#118=DIRECTION('',(-1.0,0.0,0.0));
#119=AXIS2_PLACEMENT_3D('',#116,#117,#118);
#120=CIRCLE('',#119,11.346534863538778);
#121=EDGE_CURVE('',#115,#115,#120,.T.);
#122=ORIENTED_EDGE('',*,*,#121,.T.);
#123=EDGE_LOOP('',(#122));
#124=FACE_BOUND('',#123,.T.);
#125=ADVANCED_FACE('',(#113,#124),#102,.T.);
#126=CARTESIAN_POINT('',(-1.154925E-013,231.818608758198620,-21.230916733237624));
#127=CARTESIAN_POINT('',(-1.179435E-013,237.734499668446380,-17.737724005285258));
#128=CARTESIAN_POINT('',(-1.183873E-013,240.254988123288740,-11.346534863538782));
#129=CARTESIAN_POINT('',(-21.230916733237738,231.818608758198620,-21.230916733237617));
#130=CARTESIAN_POINT('',(-17.737724005285376,237.734499668446400,-17.737724005285251));
#131=CARTESIAN_POINT('',(-11.346534863538899,240.254988123288740,-11.346534863538778));
#132=CARTESIAN_POINT('',(-21.230916733237738,231.818608758198620,2.600037E-015));
#133=CARTESIAN_POINT('',(-17.737724005285376,237.734499668446380,2.172245E-015));
#134=CARTESIAN_POINT('',(-11.346534863538899,240.254988123288740,1.389550E-015));
#135=CARTESIAN_POINT('',(-21.230916733237731,231.818608758198620,21.230916733237624));
#136=CARTESIAN_POINT('',(-17.737724005285369,237.734499668446400,17.737724005285258));
#137=CARTESIAN_POINT('',(-11.346534863538896,240.254988123288740,11.346534863538784));
#138=CARTESIAN_POINT('',(-1.102924E-013,231.818608758198620,21.230916733237624));
#139=CARTESIAN_POINT('',(-1.135990E-013,237.734499668446380,17.737724005285258));
#140=CARTESIAN_POINT('',(-1.156082E-013,240.254988123288740,11.346534863538782));
#141=CARTESIAN_POINT('',(21.230916733237510,231.818608758198620,21.230916733237617));
#142=CARTESIAN_POINT('',(17.737724005285141,237.734499668446400,17.737724005285251));
#143=CARTESIAN_POINT('',(11.346534863538665,240.254988123288740,11.346534863538778));
#144=CARTESIAN_POINT('',(21.230916733237510,231.818608758198620,-2.600037E-015));
#145=CARTESIAN_POINT('',(17.737724005285141,237.734499668446380,-2.172245E-015));
#146=CARTESIAN_POINT('',(11.346534863538665,240.254988123288740,-1.389550E-015));
#147=CARTESIAN_POINT('',(21.230916733237503,231.818608758198620,-21.230916733237624));
#148=CARTESIAN_POINT('',(17.737724005285134,237.734499668446400,-17.737724005285258));
#149=CARTESIAN_POINT('',(11.346534863538659,240.254988123288740,-11.346534863538784));
#150=CARTESIAN_POINT('',(-1.154925E-013,231.818608758198620,-21.230916733237624));
#151=CARTESIAN_POINT('',(-1.179435E-013,237.734499668446380,-17.737724005285258));
#152=CARTESIAN_POINT('',(-1.183873E-013,240.254988123288740,-11.346534863538782));
#160=(BOUNDED_SURFACE()B_SPLINE_SURFACE(2,2,((#126,#129,#132,#135,#138,#141,#144,#147,#150),(#127,#130,#133,#136,#139,#142,#145,#148,#151),(#128,#131,#134,#137,#140,#143,#146,#149,#152)),.UNSPECIFIED.,.F.,.T.,.U.)B_SPLINE_SURFACE_WITH_KNOTS((3,3),(3,2,2,2,3),(0.533387267387973,1.195153451234279),(0.0,1.570796326794897,3.141592653589793,4.712388980384690,6.283185307179586),.UNSPECIFIED.)GEOMETRIC_REPRESENTATION_ITEM()RATIONAL_B_SPLINE_SURFACE(((1.0,0.707106781186548,1.0,0.707106781186548,1.0,0.707106781186548,1.0,0.707106781186548,1.0),(0.945755814898283,0.668750350061185,0.945755814898283,0.668750350061185,0.945755814898283,0.668750350061185,0.945755814898283,0.668750350061185,0.945755814898283),(1.0,0.707106781186548,1.0,0.707106781186548,1.0,0.707106781186548,1.0,0.707106781186548,1.0)))REPRESENTATION_ITEM('')SURFACE());
#161=CARTESIAN_POINT('',(-21.230916733237713,231.818608758198620,-5.200075E-015));
#162=VERTEX_POINT('',#161);
#163=CARTESIAN_POINT('',(-1.199041E-013,231.818608758198650,-2.600037E-015));
#164=DIRECTION('',(0.0,-1.0,0.0));
#165=DIRECTION('',(1.0,0.0,0.0));
#166=AXIS2_PLACEMENT_3D('',#163,#164,#165);
#167=CIRCLE('',#166,21.230916733237596);
#168=EDGE_CURVE('',#162,#162,#167,.T.);
#169=ORIENTED_EDGE('',*,*,#168,.T.);
#170=EDGE_LOOP('',(#169));
#171=FACE_OUTER_BOUND('',#170,.T.);
#172=ORIENTED_EDGE('',*,*,#121,.F.);
#173=EDGE_LOOP('',(#172));
#174=FACE_BOUND('',#173,.T.);
#175=ADVANCED_FACE('',(#171,#174),#160,.T.);
#176=CARTESIAN_POINT('',(-1.275528E-013,262.124999999995790,0.0));
#177=DIRECTION('',(-4.866105E-016,1.0,0.0));
#178=DIRECTION('',(-1.0,0.0,0.0));
#179=AXIS2_PLACEMENT_3D('',#176,#177,#178);
#180=CONICAL_SURFACE('',#179,8.999999999998879,2.742611357479631);
#181=CARTESIAN_POINT('',(1.530782070183020,279.192267822900590,-9.697517810590941));
#182=VERTEX_POINT('',#181);
#183=CARTESIAN_POINT('',(-1.399598E-013,279.192267822900590,0.0));
#184=DIRECTION('',(1.102030E-017,-1.0,-6.981371E-017));
#185=DIRECTION('',(-0.155922329027276,-7.067815E-017,0.987769318874964));
#186=AXIS2_PLACEMENT_3D('',#183,#184,#185);
#187=CIRCLE('',#186,9.817593668161397);
#188=EDGE_CURVE('',#182,#182,#187,.T.);
#189=ORIENTED_EDGE('',*,*,#188,.F.);
#190=EDGE_LOOP('',(#189));
#191=FACE_OUTER_BOUND('',#190,.T.);
#192=ORIENTED_EDGE('',*,*,#110,.F.);
#193=EDGE_LOOP('',(#192));
#194=FACE_BOUND('',#193,.T.);
#195=ADVANCED_FACE('',(#191,#194),#180,.F.);
#196=CARTESIAN_POINT('',(-1.016012E-013,208.793668594591960,0.0));
#197=DIRECTION('',(4.866105E-016,-1.0,0.0));
#198=DIRECTION('',(-1.0,0.0,0.0));
#199=AXIS2_PLACEMENT_3D('',#196,#197,#198);
#200=CONICAL_SURFACE('',#199,34.826595686972993,30.560839267346960);
#201=CARTESIAN_POINT('',(-49.572697766548330,183.820431201738440,-9.860761E-031));
#202=VERTEX_POINT('',#201);
#203=CARTESIAN_POINT('',(-1.065814E-013,183.820431201738470,-6.070905E-015));
#204=DIRECTION('',(0.0,1.0,0.0));
#205=DIRECTION('',(1.0,0.0,0.0));
#206=AXIS2_PLACEMENT_3D('',#203,#204,#205);
#207=CIRCLE('',#206,49.572697766548224);
#208=EDGE_CURVE('',#202,#202,#207,.T.);
#209=ORIENTED_EDGE('',*,*,#208,.F.);
#210=EDGE_LOOP('',(#209));
#211=FACE_OUTER_BOUND('',#210,.T.);
#212=ORIENTED_EDGE('',*,*,#168,.F.);
#213=EDGE_LOOP('',(#212));
#214=FACE_BOUND('',#213,.T.);
#215=ADVANCED_FACE('',(#211,#214),#200,.F.);
#216=CARTESIAN_POINT('',(-8.994379E-014,184.837337189203050,0.0));
#217=DIRECTION('',(-4.866105E-016,1.0,0.0));
#218=DIRECTION('',(0.0,0.0,1.0));
#219=AXIS2_PLACEMENT_3D('',#216,#217,#218);
#220=TOROIDAL_SURFACE('',#219,51.294877261449585,2.0);
#221=ORIENTED_EDGE('',*,*,#208,.T.);
#222=EDGE_LOOP('',(#221));
#223=FACE_OUTER_BOUND('',#222,.T.);
#224=CARTESIAN_POINT('',(-51.294877261449670,182.837337189203030,-1.256362E-014));
#225=VERTEX_POINT('',#224);
#226=CARTESIAN_POINT('',(-8.897057E-014,182.837337189203050,0.0));
#227=DIRECTION('',(0.0,-1.0,0.0));
#228=DIRECTION('',(1.0,0.0,0.0));
#229=AXIS2_PLACEMENT_3D('',#226,#227,#228);
#230=CIRCLE('',#229,51.294877261449585);
#231=EDGE_CURVE('',#225,#225,#230,.T.);
#232=ORIENTED_EDGE('',*,*,#231,.T.);
#233=EDGE_LOOP('',(#232));
#234=FACE_BOUND('',#233,.T.);
#235=ADVANCED_FACE('',(#223,#234),#220,.T.);
#236=CARTESIAN_POINT('',(-71.326595686968034,182.837337189203030,0.0));
#237=DIRECTION('',(0.0,-1.0,0.0));
#238=DIRECTION('',(0.0,0.0,-1.0));
#239=AXIS2_PLACEMENT_3D('',#236,#237,#238);
#240=PLANE('',#239);
#241=CARTESIAN_POINT('',(-90.499999999986414,182.837337189203030,0.0));
#242=VERTEX_POINT('',#241);
#243=CARTESIAN_POINT('',(-8.897057E-014,182.837337189203050,0.0));
#244=DIRECTION('',(0.0,1.0,0.0));
#245=DIRECTION('',(1.0,0.0,0.0));
#246=AXIS2_PLACEMENT_3D('',#243,#244,#245);
#247=CIRCLE('',#246,90.499999999986329);
#248=EDGE_CURVE('',#242,#242,#247,.T.);
#249=ORIENTED_EDGE('',*,*,#248,.F.);
#250=EDGE_LOOP('',(#249));
#251=FACE_OUTER_BOUND('',#250,.T.);
#252=ORIENTED_EDGE('',*,*,#231,.F.);
#253=EDGE_LOOP('',(#252));
#254=FACE_BOUND('',#253,.T.);
#255=ADVANCED_FACE('',(#251,#254),#240,.T.);
#256=CARTESIAN_POINT('',(-8.994379E-014,184.837337189203050,0.0));
#257=DIRECTION('',(-4.866105E-016,1.0,0.0));
#258=DIRECTION('',(0.0,0.0,1.0));
#259=AXIS2_PLACEMENT_3D('',#256,#257,#258);
#260=TOROIDAL_SURFACE('',#259,90.499999999986329,2.0);
#261=ORIENTED_EDGE('',*,*,#248,.T.);
#262=EDGE_LOOP('',(#261));
#263=FACE_OUTER_BOUND('',#262,.T.);
#264=CARTESIAN_POINT('',(-92.499999999986414,184.837337189203030,-2.265597E-014));
#265=VERTEX_POINT('',#264);
#266=CARTESIAN_POINT('',(-8.994379E-014,184.837337189203050,0.0));
#267=DIRECTION('',(0.0,-1.0,0.0));
#268=DIRECTION('',(1.0,0.0,0.0));
#269=AXIS2_PLACEMENT_3D('',#266,#267,#268);
#270=CIRCLE('',#269,92.499999999986329);
#271=EDGE_CURVE('',#265,#265,#270,.T.);
#272=ORIENTED_EDGE('',*,*,#271,.T.);
#273=EDGE_LOOP('',(#272));
#274=FACE_BOUND('',#273,.T.);
#275=ADVANCED_FACE('',(#263,#274),#260,.T.);
#276=CARTESIAN_POINT('',(-1.198491E-013,246.293668594601660,0.0));
#277=DIRECTION('',(-4.866105E-016,1.0,0.0));
#278=DIRECTION('',(-1.0,0.0,0.0));
#279=AXIS2_PLACEMENT_3D('',#276,#277,#278);
#280=CYLINDRICAL_SURFACE('',#279,92.499999999986329);
#281=CARTESIAN_POINT('',(-92.499999999986471,307.750000000000230,0.0));
#282=VERTEX_POINT('',#281);
#283=CARTESIAN_POINT('',(-1.497544E-013,307.750000000000280,0.0));
#284=DIRECTION('',(0.0,1.0,0.0));
#285=DIRECTION('',(1.0,0.0,0.0));
#286=AXIS2_PLACEMENT_3D('',#283,#284,#285);
#287=CIRCLE('',#286,92.499999999986329);
#288=EDGE_CURVE('',#282,#282,#287,.T.);
#289=ORIENTED_EDGE('',*,*,#288,.F.);
#290=EDGE_LOOP('',(#289));
#291=FACE_OUTER_BOUND('',#290,.T.);
#292=ORIENTED_EDGE('',*,*,#271,.F.);
#293=EDGE_LOOP('',(#292));
#294=FACE_BOUND('',#293,.T.);
#295=ADVANCED_FACE('',(#291,#294),#280,.T.);
#296=CARTESIAN_POINT('',(-1.497544E-013,307.750000000000280,0.0));
#297=DIRECTION('',(-4.866105E-016,1.0,0.0));
#298=DIRECTION('',(0.0,0.0,1.0));
#299=AXIS2_PLACEMENT_3D('',#296,#297,#298);
#300=TOROIDAL_SURFACE('',#299,90.499999999986329,2.0);
#301=ORIENTED_EDGE('',*,*,#288,.T.);
#302=EDGE_LOOP('',(#301));
#303=FACE_OUTER_BOUND('',#302,.T.);
#304=CARTESIAN_POINT('',(-90.499999999986471,309.750000000000230,-2.216611E-014));
#305=VERTEX_POINT('',#304);
#306=CARTESIAN_POINT('',(-1.507276E-013,309.750000000000280,0.0));
#307=DIRECTION('',(0.0,-1.0,0.0));
#308=DIRECTION('',(1.0,0.0,0.0));
#309=AXIS2_PLACEMENT_3D('',#306,#307,#308);
#310=CIRCLE('',#309,90.499999999986329);
#311=EDGE_CURVE('',#305,#305,#310,.T.);
#312=ORIENTED_EDGE('',*,*,#311,.T.);
#313=EDGE_LOOP('',(#312));
#314=FACE_BOUND('',#313,.T.);
#315=ADVANCED_FACE('',(#303,#314),#300,.T.);
#316=CARTESIAN_POINT('',(-67.709081941608900,309.750000000000230,0.0));
#317=DIRECTION('',(0.0,1.0,0.0));
#318=DIRECTION('',(0.0,0.0,1.0));
#319=AXIS2_PLACEMENT_3D('',#316,#317,#318);
#320=PLANE('',#319);
#321=ORIENTED_EDGE('',*,*,#311,.F.);
#322=EDGE_LOOP('',(#321));
#323=FACE_OUTER_BOUND('',#322,.T.);
#324=CARTESIAN_POINT('',(-44.918163883233071,309.750000000000230,0.0));
#325=VERTEX_POINT('',#324);
#326=CARTESIAN_POINT('',(-1.507276E-013,309.750000000000280,0.0));
#327=DIRECTION('',(0.0,1.0,0.0));
#328=DIRECTION('',(1.0,0.0,0.0));
#329=AXIS2_PLACEMENT_3D('',#326,#327,#328);
#330=CIRCLE('',#329,44.918163883232921);
#331=EDGE_CURVE('',#325,#325,#330,.T.);
#332=ORIENTED_EDGE('',*,*,#331,.F.);
#333=EDGE_LOOP('',(#332));
#334=FACE_BOUND('',#333,.T.);
#335=ADVANCED_FACE('',(#323,#334),#320,.T.);
#336=CARTESIAN_POINT('',(-1.497544E-013,307.750000000000280,0.0));
#337=DIRECTION('',(-4.866105E-016,1.0,0.0));
#338=DIRECTION('',(0.0,0.0,1.0));
#339=AXIS2_PLACEMENT_3D('',#336,#337,#338);
#340=TOROIDAL_SURFACE('',#339,44.918163883232921,2.0);
#341=ORIENTED_EDGE('',*,*,#331,.T.);
#342=EDGE_LOOP('',(#341));
#343=FACE_OUTER_BOUND('',#342,.T.);
#344=CARTESIAN_POINT('',(-42.918163883233063,307.750000000000230,-1.051192E-014));
#345=VERTEX_POINT('',#344);
#346=CARTESIAN_POINT('',(-1.497544E-013,307.750000000000280,0.0));
#347=DIRECTION('',(0.0,-1.0,0.0));
#348=DIRECTION('',(1.0,0.0,0.0));
#349=AXIS2_PLACEMENT_3D('',#346,#347,#348);
#350=CIRCLE('',#349,42.918163883232914);
#351=EDGE_CURVE('',#345,#345,#350,.T.);
#352=ORIENTED_EDGE('',*,*,#351,.T.);
#353=EDGE_LOOP('',(#352));
#354=FACE_BOUND('',#353,.T.);
#355=ADVANCED_FACE('',(#343,#354),#340,.T.);
#356=CARTESIAN_POINT('',(-1.492682E-013,306.750920996671600,0.0));
#357=DIRECTION('',(-4.866105E-016,1.0,0.0));
#358=DIRECTION('',(-1.0,0.0,0.0));
#359=AXIS2_PLACEMENT_3D('',#356,#357,#358);
#360=CYLINDRICAL_SURFACE('',#359,42.918163883232914);
#361=CARTESIAN_POINT('',(-42.918163883234769,303.751841993342850,0.0));
#362=VERTEX_POINT('',#361);
#363=CARTESIAN_POINT('',(-1.478088E-013,303.751841993342910,0.0));
#364=DIRECTION('',(0.0,1.0,0.0));
#365=DIRECTION('',(-1.0,0.0,0.0));
#366=AXIS2_PLACEMENT_3D('',#363,#364,#365);
#367=CIRCLE('',#366,42.918163883234620);
#368=EDGE_CURVE('',#362,#362,#367,.T.);
#369=ORIENTED_EDGE('',*,*,#368,.F.);
#370=EDGE_LOOP('',(#369));
#371=FACE_OUTER_BOUND('',#370,.T.);
#372=ORIENTED_EDGE('',*,*,#351,.F.);
#373=EDGE_LOOP('',(#372));
#374=FACE_BOUND('',#373,.T.);
#375=ADVANCED_FACE('',(#371,#374),#360,.F.);
#376=CARTESIAN_POINT('',(1.530782070183018,279.192267822900590,-9.697517810590940));
#377=CARTESIAN_POINT('',(1.563674305292559,283.595905276212990,-9.905890407852141));
#378=CARTESIAN_POINT('',(1.954936842520273,287.220780963017150,-12.384542005155463));
#379=CARTESIAN_POINT('',(-8.166735740407921,279.192267822900590,-11.228299880774095));
#380=CARTESIAN_POINT('',(-8.342216102559581,283.595905276212990,-11.469564713144839));
#381=CARTESIAN_POINT('',(-10.429605162635188,287.220780963017150,-14.339478847675876));
#382=CARTESIAN_POINT('',(-9.697517810591080,279.192267822900590,-1.530782070183157));
#383=CARTESIAN_POINT('',(-9.905890407852283,283.595905276212990,-1.563674305292701));
#384=CARTESIAN_POINT('',(-12.384542005155607,287.220780963017150,-1.954936842520417));
#385=CARTESIAN_POINT('',(-11.228299880774236,279.192267822900590,8.166735740407781));
#386=CARTESIAN_POINT('',(-11.469564713144981,283.595905276212990,8.342216102559439));
#387=CARTESIAN_POINT('',(-14.339478847676020,287.220780963017150,10.429605162635044));
#388=CARTESIAN_POINT('',(-1.530782070183297,279.192267822900590,9.697517810590940));
#389=CARTESIAN_POINT('',(-1.563674305292843,283.595905276212990,9.905890407852141));
#390=CARTESIAN_POINT('',(-1.954936842520561,287.220780963017150,12.384542005155463));
#391=CARTESIAN_POINT('',(8.166735740407640,279.192267822900590,11.228299880774095));
#392=CARTESIAN_POINT('',(8.342216102559297,283.595905276212990,11.469564713144839));
#393=CARTESIAN_POINT('',(10.429605162634900,287.220780963017150,14.339478847675876));
#394=CARTESIAN_POINT('',(9.697517810590799,279.192267822900590,1.530782070183157));
#395=CARTESIAN_POINT('',(9.905890407851999,283.595905276212990,1.563674305292701));
#396=CARTESIAN_POINT('',(12.384542005155319,287.220780963017150,1.954936842520417));
#397=CARTESIAN_POINT('',(11.228299880773955,279.192267822900590,-8.166735740407781));
#398=CARTESIAN_POINT('',(11.469564713144697,283.595905276212990,-8.342216102559439));
#399=CARTESIAN_POINT('',(14.339478847675734,287.220780963017150,-10.429605162635044));
#400=CARTESIAN_POINT('',(1.530782070183018,279.192267822900590,-9.697517810590940));
#401=CARTESIAN_POINT('',(1.563674305292559,283.595905276212990,-9.905890407852141));
#402=CARTESIAN_POINT('',(1.954936842520273,287.220780963017150,-12.384542005155463));
#410=(BOUNDED_SURFACE()B_SPLINE_SURFACE(2,2,((#376,#379,#382,#385,#388,#391,#394,#397,#400),(#377,#380,#383,#386,#389,#392,#395,#398,#401),(#378,#381,#384,#387,#390,#393,#396,#399,#402)),.UNSPECIFIED.,.F.,.T.,.U.)B_SPLINE_SURFACE_WITH_KNOTS((3,3),(3,2,2,2,3),(-3.093725055299183,-2.536082818713077),(0.0,1.570796326794897,3.141592653589793,4.712388980384690,6.283185307179586),.UNSPECIFIED.)GEOMETRIC_REPRESENTATION_ITEM()RATIONAL_B_SPLINE_SURFACE(((1.0,0.707106781186548,1.0,0.707106781186548,1.0,0.707106781186548,1.0,0.707106781186548,1.0),(0.961380561034932,0.679798714008728,0.961380561034932,0.679798714008728,0.961380561034932,0.679798714008728,0.961380561034932,0.679798714008728,0.961380561034932),(1.0,0.707106781186548,1.0,0.707106781186548,1.0,0.707106781186548,1.0,0.707106781186548,1.0)))REPRESENTATION_ITEM('')SURFACE());
#411=ORIENTED_EDGE('',*,*,#188,.T.);
#412=EDGE_LOOP('',(#411));
#413=FACE_OUTER_BOUND('',#412,.T.);
#414=CARTESIAN_POINT('',(1.954936842520272,287.220780963017210,-12.384542005155460));
#415=VERTEX_POINT('',#414);
#416=CARTESIAN_POINT('',(-1.438666E-013,287.220780963017210,0.0));
#417=DIRECTION('',(-1.380683E-017,1.0,8.746642E-017));
#418=DIRECTION('',(-0.155922329027276,-8.854944E-017,0.987769318874964));
#419=AXIS2_PLACEMENT_3D('',#416,#417,#418);
#420=CIRCLE('',#419,12.537888926597798);
#421=EDGE_CURVE('',#415,#415,#420,.T.);
#422=ORIENTED_EDGE('',*,*,#421,.T.);
#423=EDGE_LOOP('',(#422));
#424=FACE_BOUND('',#423,.T.);
#425=ADVANCED_FACE('',(#413,#424),#410,.T.);
#426=CARTESIAN_POINT('',(-1.332268E-013,265.355586853970640,0.0));
#427=DIRECTION('',(-4.866105E-016,1.0,0.0));
#428=DIRECTION('',(0.0,0.0,1.0));
#429=AXIS2_PLACEMENT_3D('',#426,#427,#428);
#430=TOROIDAL_SURFACE('',#429,44.123297624904538,38.415163100855807);
#431=ORIENTED_EDGE('',*,*,#368,.T.);
#432=EDGE_LOOP('',(#431));
#433=FACE_OUTER_BOUND('',#432,.T.);
#434=ORIENTED_EDGE('',*,*,#421,.F.);
#435=EDGE_LOOP('',(#434));
#436=FACE_BOUND('',#435,.T.);
#437=ADVANCED_FACE('',(#433,#436),#430,.T.);
#438=CLOSED_SHELL('',(#125,#175,#195,#215,#235,#255,#275,#295,#315,#335,#355,#375,#425,#437));
#439=MANIFOLD_SOLID_BREP('Solid1',#438);
#440=COLOUR_RGB('Black Chrome',0.752941012382507,0.752941012382507,0.752941012382507);
#441=FILL_AREA_STYLE_COLOUR('Black Chrome',#440);
#442=FILL_AREA_STYLE('Black Chrome',(#441));
#443=SURFACE_STYLE_FILL_AREA(#442);
#444=SURFACE_SIDE_STYLE('Black Chrome',(#443));
#445=SURFACE_STYLE_USAGE(.BOTH.,#444);
#446=PRESENTATION_STYLE_ASSIGNMENT((#445));
#447=STYLED_ITEM('',(#446),#439);
#448=MECHANICAL_DESIGN_GEOMETRIC_PRESENTATION_REPRESENTATION('',(#447),#36);
#449=ADVANCED_BREP_SHAPE_REPRESENTATION('ABSR',(#439),#36);
#450=SHAPE_REPRESENTATION_RELATIONSHIP('SRR','None',#449,#41);
ENDSEC;
END-ISO-10303-21;
