  0
SECTION
  2
HEADER
  9
$ACADVER
  1
AC1015
  9
$ACADMAINTVER
 70
     6
  9
$DWGCODEPAGE
  3
ANSI_1252
  9
$INSBASE
 10
0.0
 20
0.0
 30
0.0
  9
$EXTMIN
 10
-0.9953941665
 20
-0.9992433798
 30
0.0
  9
$EXTMAX
 10
1.0005275497
 20
0.9992433798
 30
0.0
  9
$LIMMIN
 10
0.0
 20
0.0
  9
$LIMMAX
 10
12.0
 20
9.0
  9
$ORTHOMODE
 70
     0
  9
$REGENMODE
 70
     1
  9
$FILLMODE
 70
     1
  9
$QTEXTMODE
 70
     0
  9
$MIRRTEXT
 70
     1
  9
$LTSCALE
 40
1.0
  9
$ATTMODE
 70
     1
  9
$TEXTSIZE
 40
0.125
  9
$TRACEWID
 40
0.05
  9
$TEXTSTYLE
  7
Standard
  9
$CLAYER
  8
0
  9
$CELTYPE
  6
ByLayer
  9
$CECOLOR
 62
   256
  9
$CELTSCALE
 40
1.0
  9
$DISPSILH
 70
     0
  9
$DIMSCALE
 40
1.0
  9
$DIMASZ
 40
0.13
  9
$DIMEXO
 40
0.05
  9
$DIMDLI
 40
0.38
  9
$DIMRND
 40
0.0
  9
$DIMDLE
 40
0.0
  9
$DIMEXE
 40
0.125
  9
$DIMTP
 40
0.0
  9
$DIMTM
 40
0.0
  9
$DIMTXT
 40
0.125
  9
$DIMCEN
 40
0.09
  9
$DIMTSZ
 40
0.0
  9
$DIMTOL
 70
     0
  9
$DIMLIM
 70
     0
  9
$DIMTIH
 70
     1
  9
$DIMTOH
 70
     1
  9
$DIMSE1
 70
     0
  9
$DIMSE2
 70
     0
  9
$DIMTAD
 70
     0
  9
$DIMZIN
 70
     0
  9
$DIMBLK
  1

  9
$DIMASO
 70
     1
  9
$DIMSHO
 70
     1
  9
$DIMPOST
  1

  9
$DIMAPOST
  1

  9
$DIMALT
 70
     0
  9
$DIMALTD
 70
     2
  9
$DIMALTF
 40
25.4
  9
$DIMLFAC
 40
1.0
  9
$DIMTOFL
 70
     0
  9
$DIMTVP
 40
0.0
  9
$DIMTIX
 70
     0
  9
$DIMSOXD
 70
     0
  9
$DIMSAH
 70
     0
  9
$DIMBLK1
  1

  9
$DIMBLK2
  1

  9
$DIMSTYLE
  2
Standard
  9
$DIMCLRD
 70
     0
  9
$DIMCLRE
 70
     0
  9
$DIMCLRT
 70
     0
  9
$DIMTFAC
 40
1.0
  9
$DIMGAP
 40
0.06
  9
$DIMJUST
 70
     0
  9
$DIMSD1
 70
     0
  9
$DIMSD2
 70
     0
  9
$DIMTOLJ
 70
     1
  9
$DIMTZIN
 70
     0
  9
$DIMALTZ
 70
     0
  9
$DIMALTTZ
 70
     0
  9
$DIMUPT
 70
     0
  9
$DIMDEC
 70
     4
  9
$DIMTDEC
 70
     4
  9
$DIMALTU
 70
     2
  9
$DIMALTTD
 70
     2
  9
$DIMTXSTY
  7
Standard
  9
$DIMAUNIT
 70
     0
  9
$DIMADEC
 70
     2
  9
$DIMALTRND
 40
0.0
  9
$DIMAZIN
 70
     0
  9
$DIMDSEP
 70
    46
  9
$DIMATFIT
 70
     3
  9
$DIMFRAC
 70
     0
  9
$DIMLDRBLK
  1

  9
$DIMLUNIT
 70
     2
  9
$DIMLWD
 70
    -2
  9
$DIMLWE
 70
    -2
  9
$DIMTMOVE
 70
     0
  9
$LUNITS
 70
     2
  9
$LUPREC
 70
     4
  9
$SKETCHINC
 40
0.1
  9
$FILLETRAD
 40
0.5
  9
$AUNITS
 70
     0
  9
$AUPREC
 70
     2
  9
$MENU
  1
.
  9
$ELEVATION
 40
0.0
  9
$PELEVATION
 40
0.0
  9
$THICKNESS
 40
0.0
  9
$LIMCHECK
 70
     0
  9
$CHAMFERA
 40
0.0
  9
$CHAMFERB
 40
0.0
  9
$CHAMFERC
 40
0.0
  9
$CHAMFERD
 40
0.0
  9
$SKPOLY
 70
     0
  9
$TDCREATE
 40
2457914.423727141
  9
$TDUCREATE
 40
2457914.590393808
  9
$TDUPDATE
 40
2457914.423752489
  9
$TDUUPDATE
 40
2457914.590419155
  9
$TDINDWG
 40
0.0000000116
  9
$TDUSRTIMER
 40
0.0000000116
  9
$USRTIMER
 70
     1
  9
$ANGBASE
 50
0.0
  9
$ANGDIR
 70
     0
  9
$PDMODE
 70
     0
  9
$PDSIZE
 40
-1.0
  9
$PLINEWID
 40
0.0
  9
$SPLFRAME
 70
     0
  9
$SPLINETYPE
 70
     6
  9
$SPLINESEGS
 70
     8
  9
$HANDSEED
  5
662
  9
$SURFTAB1
 70
     6
  9
$SURFTAB2
 70
     6
  9
$SURFTYPE
 70
     6
  9
$SURFU
 70
     6
  9
$SURFV
 70
     6
  9
$UCSBASE
  2

  9
$UCSNAME
  2

  9
$UCSORG
 10
0.0
 20
0.0
 30
0.0
  9
$UCSXDIR
 10
1.0
 20
0.0
 30
0.0
  9
$UCSYDIR
 10
0.0
 20
1.0
 30
0.0
  9
$UCSORTHOREF
  2

  9
$UCSORTHOVIEW
 70
     0
  9
$UCSORGTOP
 10
0.0
 20
0.0
 30
0.0
  9
$UCSORGBOTTOM
 10
0.0
 20
0.0
 30
0.0
  9
$UCSORGLEFT
 10
0.0
 20
0.0
 30
0.0
  9
$UCSORGRIGHT
 10
0.0
 20
0.0
 30
0.0
  9
$UCSORGFRONT
 10
0.0
 20
0.0
 30
0.0
  9
$UCSORGBACK
 10
0.0
 20
0.0
 30
0.0
  9
$PUCSBASE
  2

  9
$PUCSNAME
  2

  9
$PUCSORG
 10
0.0
 20
0.0
 30
0.0
  9
$PUCSXDIR
 10
1.0
 20
0.0
 30
0.0
  9
$PUCSYDIR
 10
0.0
 20
1.0
 30
0.0
  9
$PUCSORTHOREF
  2

  9
$PUCSORTHOVIEW
 70
     0
  9
$PUCSORGTOP
 10
0.0
 20
0.0
 30
0.0
  9
$PUCSORGBOTTOM
 10
0.0
 20
0.0
 30
0.0
  9
$PUCSORGLEFT
 10
0.0
 20
0.0
 30
0.0
  9
$PUCSORGRIGHT
 10
0.0
 20
0.0
 30
0.0
  9
$PUCSORGFRONT
 10
0.0
 20
0.0
 30
0.0
  9
$PUCSORGBACK
 10
0.0
 20
0.0
 30
0.0
  9
$USERI1
 70
     0
  9
$USERI2
 70
     0
  9
$USERI3
 70
     0
  9
$USERI4
 70
     0
  9
$USERI5
 70
     0
  9
$USERR1
 40
0.0
  9
$USERR2
 40
0.0
  9
$USERR3
 40
0.0
  9
$USERR4
 40
0.0
  9
$USERR5
 40
0.0
  9
$WORLDVIEW
 70
     1
  9
$SHADEDGE
 70
     3
  9
$SHADEDIF
 70
    70
  9
$TILEMODE
 70
     1
  9
$MAXACTVP
 70
    64
  9
$PINSBASE
 10
0.0
 20
0.0
 30
0.0
  9
$PLIMCHECK
 70
     0
  9
$PEXTMIN
 10
1.0000000000E+20
 20
1.0000000000E+20
 30
1.0000000000E+20
  9
$PEXTMAX
 10
-1.0000000000E+20
 20
-1.0000000000E+20
 30
-1.0000000000E+20
  9
$PLIMMIN
 10
0.0
 20
0.0
  9
$PLIMMAX
 10
12.0
 20
9.0
  9
$UNITMODE
 70
     0
  9
$VISRETAIN
 70
     1
  9
$PLINEGEN
 70
     0
  9
$PSLTSCALE
 70
     1
  9
$TREEDEPTH
 70
  3020
  9
$CMLSTYLE
  2
Standard
  9
$CMLJUST
 70
     0
  9
$CMLSCALE
 40
1.0
  9
$PROXYGRAPHICS
 70
     1
  9
$MEASUREMENT
 70
     0
  9
$CELWEIGHT
370
    -1
  9
$ENDCAPS
280
     0
  9
$JOINSTYLE
280
     0
  9
$LWDISPLAY
290
     1
  9
$INSUNITS
 70
     1
  9
$HYPERLINKBASE
  1

  9
$STYLESHEET
  1

  9
$XEDIT
290
     1
  9
$CEPSNTYPE
380
     0
  9
$PSTYLEMODE
290
     1
  9
$FINGERPRINTGUID
  2
{A0BD5078-12C1-462E-B04C-9D552BE9D592}
  9
$VERSIONGUID
  2
{FAEB1C32-E019-11D5-929B-00C0DF256EC4}
  9
$EXTNAMES
290
     1
  9
$PSVPSCALE
 40
0.0
  9
$OLESTARTUP
290
     0
  0
ENDSEC
  0
SECTION
  2
CLASSES
  0
CLASS
  1
ACDBDICTIONARYWDFLT
  2
AcDbDictionaryWithDefault
  3
ObjectDBX Classes
 90
        0
280
     0
281
     0
  0
CLASS
  1
VISUALSTYLE
  2
AcDbVisualStyle
  3
ObjectDBX Classes
 90
     4095
280
     0
281
     0
  0
CLASS
  1
MATERIAL
  2
AcDbMaterial
  3
ObjectDBX Classes
 90
     1153
280
     0
281
     0
  0
CLASS
  1
SCALE
  2
AcDbScale
  3
ObjectDBX Classes
 90
     1153
280
     0
281
     0
  0
CLASS
  1
TABLESTYLE
  2
AcDbTableStyle
  3
ObjectDBX Classes
 90
     4095
280
     0
281
     0
  0
CLASS
  1
MLEADERSTYLE
  2
AcDbMLeaderStyle
  3
ACDB_MLEADERSTYLE_CLASS
 90
     4095
280
     0
281
     0
  0
CLASS
  1
SUN
  2
AcDbSun
  3
SCENEOE
 90
     1153
280
     0
281
     0
  0
CLASS
  1
ACDBPLACEHOLDER
  2
AcDbPlaceHolder
  3
ObjectDBX Classes
 90
        0
280
     0
281
     0
  0
CLASS
  1
LAYOUT
  2
AcDbLayout
  3
ObjectDBX Classes
 90
        0
280
     0
281
     0
  0
ENDSEC
  0
SECTION
  2
TABLES
  0
TABLE
  2
VPORT
  5
8
330
0
100
AcDbSymbolTable
 70
     1
  0
VPORT
  5
29
330
8
100
AcDbSymbolTableRecord
100
AcDbViewportTableRecord
  2
*Active
 70
     0
 10
0.0
 20
0.0
 11
1.0
 21
1.0
 12
0.0025666916
 22
0.0
 13
0.0
 23
0.0
 14
0.5
 24
0.5
 15
0.5
 25
0.5
 16
0.0
 26
0.0
 36
1.0
 17
0.0
 27
0.0
 37
0.0
 40
2.0384564948
 41
0.9987165072
 42
50.0
 43
0.0
 44
0.0
 50
0.0
 51
0.0
 71
     0
 72
   100
 73
     1
 74
     3
 75
     0
 76
     0
 77
     0
 78
     0
281
     0
 65
     1
110
0.0
120
0.0
130
0.0
111
1.0
121
0.0
131
0.0
112
0.0
122
1.0
132
0.0
 79
     0
146
0.0
  0
ENDTAB
  0
TABLE
  2
LTYPE
  5
5
330
0
100
AcDbSymbolTable
 70
     6
  0
LTYPE
  5
14
330
5
100
AcDbSymbolTableRecord
100
AcDbLinetypeTableRecord
  2
ByBlock
 70
     0
  3

 72
    65
 73
     0
 40
0.0
  0
LTYPE
  5
15
330
5
100
AcDbSymbolTableRecord
100
AcDbLinetypeTableRecord
  2
ByLayer
 70
     0
  3

 72
    65
 73
     0
 40
0.0
  0
LTYPE
  5
16
330
5
100
AcDbSymbolTableRecord
100
AcDbLinetypeTableRecord
  2
Continuous
 70
     0
  3
Solid line
 72
    65
 73
     0
 40
0.0
  0
LTYPE
  5
6E
330
5
100
AcDbSymbolTableRecord
100
AcDbLinetypeTableRecord
  2
HIDDEN
 70
     0
  3
Hidden __ __ __ __ __ __ __ __ __ __ __ __ __ __
 72
    65
 73
     2
 40
0.075
 49
0.05
 74
     0
 49
-0.025
 74
     0
  0
LTYPE
  5
6F
330
5
100
AcDbSymbolTableRecord
100
AcDbLinetypeTableRecord
  2
PHANTOM
 70
     0
  3
Phantom ______  __  __  ______  __  __  ______
 72
    65
 73
     6
 40
0.5
 49
0.25
 74
     0
 49
-0.05
 74
     0
 49
0.05
 74
     0
 49
-0.05
 74
     0
 49
0.05
 74
     0
 49
-0.05
 74
     0
  0
LTYPE
  5
70
330
5
100
AcDbSymbolTableRecord
100
AcDbLinetypeTableRecord
  2
CENTER
 70
     0
  3
Center ____ _ ____ _ ____ _ ____ _ ____ _ ____
 72
    65
 73
     4
 40
0.4
 49
0.25
 74
     0
 49
-0.05
 74
     0
 49
0.05
 74
     0
 49
-0.05
 74
     0
  0
LTYPE
  5
71
330
5
100
AcDbSymbolTableRecord
100
AcDbLinetypeTableRecord
  2
CENTERX2
 70
     0
  3
Center (2x) ________  __  ________  __  _____
 72
    65
 73
     4
 40
0.8
 49
0.5
 74
     0
 49
-0.1
 74
     0
 49
0.1
 74
     0
 49
-0.1
 74
     0
  0
LTYPE
  5
72
330
5
100
AcDbSymbolTableRecord
100
AcDbLinetypeTableRecord
  2
DOT2
 70
     0
  3
Dot (.5x) ........................................
 72
    65
 73
     2
 40
0.025
 49
0.0
 74
     0
 49
-0.025
 74
     0
  0
ENDTAB
  0
TABLE
  2
LAYER
  5
2
330
0
100
AcDbSymbolTable
 70
     1
  0
LAYER
  5
10
330
2
100
AcDbSymbolTableRecord
100
AcDbLayerTableRecord
  2
0
 70
     0
 62
     7
  6
Continuous
370
    -3
390
F
  0
ENDTAB
  0
TABLE
  2
STYLE
  5
3
330
0
100
AcDbSymbolTable
 70
     1
  0
STYLE
  5
11
330
3
100
AcDbSymbolTableRecord
100
AcDbTextStyleTableRecord
  2
Standard
 70
     0
 40
0.0
 41
1.0
 50
0.0
 71
     0
 42
0.125
  3
txt
  4

  0
ENDTAB
  0
TABLE
  2
VIEW
  5
6
330
0
100
AcDbSymbolTable
 70
     0
  0
ENDTAB
  0
TABLE
  2
UCS
  5
7
330
0
100
AcDbSymbolTable
 70
     0
  0
ENDTAB
  0
TABLE
  2
APPID
  5
9
330
0
100
AcDbSymbolTable
 70
     1
  0
APPID
  5
12
330
9
100
AcDbSymbolTableRecord
100
AcDbRegAppTableRecord
  2
ACAD
 70
     0
  0
ENDTAB
  0
TABLE
  2
DIMSTYLE
  5
A
330
0
100
AcDbSymbolTable
 70
     1
100
AcDbDimStyleTable
  0
DIMSTYLE
105
27
330
A
100
AcDbSymbolTableRecord
100
AcDbDimStyleTableRecord
  2
Standard
 70
     0
178
     0
340
11
  0
ENDTAB
  0
TABLE
  2
BLOCK_RECORD
  5
1
330
0
100
AcDbSymbolTable
 70
     1
  0
BLOCK_RECORD
  5
1F
330
1
100
AcDbSymbolTableRecord
100
AcDbBlockTableRecord
  2
*Model_Space
340
22
  0
BLOCK_RECORD
  5
1B
330
1
100
AcDbSymbolTableRecord
100
AcDbBlockTableRecord
  2
*Paper_Space
340
1E
  0
BLOCK_RECORD
  5
23
330
1
100
AcDbSymbolTableRecord
100
AcDbBlockTableRecord
  2
*Paper_Space0
340
26
  0
ENDTAB
  0
ENDSEC
  0
SECTION
  2
BLOCKS
  0
BLOCK
  5
20
330
1F
100
AcDbEntity
  8
0
100
AcDbBlockBegin
  2
*Model_Space
 70
     0
 10
0.0
 20
0.0
 30
0.0
  3
*Model_Space
  1

  0
ENDBLK
  5
21
330
1F
100
AcDbEntity
  8
0
100
AcDbBlockEnd
  0
BLOCK
  5
1C
330
1B
100
AcDbEntity
 67
     1
  8
0
100
AcDbBlockBegin
  2
*Paper_Space
 70
     0
 10
0.0
 20
0.0
 30
0.0
  3
*Paper_Space
  1

  0
ENDBLK
  5
1D
330
1B
100
AcDbEntity
 67
     1
  8
0
100
AcDbBlockEnd
  0
BLOCK
  5
24
330
23
100
AcDbEntity
  8
0
100
AcDbBlockBegin
  2
*Paper_Space0
 70
     0
 10
0.0
 20
0.0
 30
0.0
  3
*Paper_Space0
  1

  0
ENDBLK
  5
25
330
23
100
AcDbEntity
  8
0
100
AcDbBlockEnd
  0
ENDSEC
  0
SECTION
  2
ENTITIES
  0
LINE
  5
73
330
1F
100
AcDbEntity
  8
0
  6
Continuous
 62
     7
100
AcDbLine
 10
0.9753492219
 20
-0.2163766349
 30
0.0
 11
0.980046692
 21
-0.2014047151
 31
0.0
  0
LINE
  5
74
330
1F
100
AcDbEntity
  8
0
  6
Continuous
 62
     7
100
AcDbLine
 10
0.980046692
 20
-0.2014047151
 30
0.0
 11
0.9816341794
 21
-0.1857936775
 31
0.0
  0
LINE
  5
75
330
1F
100
AcDbEntity
  8
0
  6
Continuous
 62
     7
100
AcDbLine
 10
0.9816341794
 20
-0.1857936775
 30
0.0
 11
0.9815086123
 21
-0.1856724848
 31
0.0
  0
LINE
  5
76
330
1F
100
AcDbEntity
  8
0
  6
Continuous
 62
     7
100
AcDbLine
 10
0.9815086123
 20
-0.1856724848
 30
0.0
 11
0.9736147501
 21
-0.1783567705
 31
0.0
  0
LINE
  5
77
330
1F
100
AcDbEntity
  8
0
  6
Continuous
 62
     7
100
AcDbLine
 10
0.9736147501
 20
-0.1783567705
 30
0.0
 11
0.9658322547
 21
-0.1714321159
 31
0.0
  0
LINE
  5
78
330
1F
100
AcDbEntity
  8
0
  6
Continuous
 62
     7
100
AcDbLine
 10
0.9658322547
 20
-0.1714321159
 30
0.0
 11
0.9581736284
 21
-0.1648909074
 31
0.0
  0
LINE
  5
79
330
1F
100
AcDbEntity
  8
0
  6
Continuous
 62
     7
100
AcDbLine
 10
0.9581736284
 20
-0.1648909074
 30
0.0
 11
0.9506511089
 21
-0.1587251874
 31
0.0
  0
LINE
  5
7A
330
1F
100
AcDbEntity
  8
0
  6
Continuous
 62
     7
100
AcDbLine
 10
0.9506511089
 20
-0.1587251874
 30
0.0
 11
0.9432766605
 21
-0.1529266619
 31
0.0
  0
LINE
  5
7B
330
1F
100
AcDbEntity
  8
0
  6
Continuous
 62
     7
100
AcDbLine
 10
0.9432766605
 20
-0.1529266619
 30
0.0
 11
0.9360619653
 21
-0.1474867084
 31
0.0
  0
LINE
  5
7C
330
1F
100
AcDbEntity
  8
0
  6
Continuous
 62
     7
100
AcDbLine
 10
0.9360619653
 20
-0.1474867084
 30
0.0
 11
0.9290184149
 21
-0.1423963843
 31
0.0
  0
LINE
  5
7D
330
1F
100
AcDbEntity
  8
0
  6
Continuous
 62
     7
100
AcDbLine
 10
0.9290184149
 20
-0.1423963843
 30
0.0
 11
0.9221571025
 21
-0.1376464345
 31
0.0
  0
LINE
  5
7E
330
1F
100
AcDbEntity
  8
0
  6
Continuous
 62
     7
100
AcDbLine
 10
0.9221571025
 20
-0.1376464345
 30
0.0
 11
0.9154888146
 21
-0.1332273004
 31
0.0
  0
LINE
  5
7F
330
1F
100
AcDbEntity
  8
0
  6
Continuous
 62
     7
100
AcDbLine
 10
0.9154888146
 20
-0.1332273004
 30
0.0
 11
0.9090240238
 21
-0.1291291283
 31
0.0
  0
LINE
  5
80
330
1F
100
AcDbEntity
  8
0
  6
Continuous
 62
     7
100
AcDbLine
 10
0.9090240238
 20
-0.1291291283
 30
0.0
 11
0.9027728808
 21
-0.1253417785
 31
0.0
  0
LINE
  5
81
330
1F
100
AcDbEntity
  8
0
  6
Continuous
 62
     7
100
AcDbLine
 10
0.9027728808
 20
-0.1253417785
 30
0.0
 11
0.8967452073
 21
-0.1218548339
 31
0.0
  0
LINE
  5
82
330
1F
100
AcDbEntity
  8
0
  6
Continuous
 62
     7
100
AcDbLine
 10
0.8967452073
 20
-0.1218548339
 30
0.0
 11
0.8909511713
 21
-0.118657968
 31
0.0
  0
LINE
  5
83
330
1F
100
AcDbEntity
  8
0
  6
Continuous
 62
     7
100
AcDbLine
 10
0.8909511713
 20
-0.118657968
 30
0.0
 11
0.8853980451
 21
-0.1157392496
 31
0.0
  0
LINE
  5
84
330
1F
100
AcDbEntity
  8
0
  6
Continuous
 62
     7
100
AcDbLine
 10
0.8853980451
 20
-0.1157392496
 30
0.0
 11
0.8790609831
 21
-0.1125707186
 31
0.0
  0
LINE
  5
85
330
1F
100
AcDbEntity
  8
0
  6
Continuous
 62
     7
100
AcDbLine
 10
0.8790609831
 20
-0.1125707186
 30
0.0
 11
0.8769850524
 21
-0.1113173877
 31
0.0
  0
LINE
  5
86
330
1F
100
AcDbEntity
  8
0
  6
Continuous
 62
     7
100
AcDbLine
 10
0.8769850524
 20
-0.1113173877
 30
0.0
 11
0.8753208946
 21
-0.1100339453
 31
0.0
  0
LINE
  5
87
330
1F
100
AcDbEntity
  8
0
  6
Continuous
 62
     7
100
AcDbLine
 10
0.8753208946
 20
-0.1100339453
 30
0.0
 11
0.8740686478
 21
-0.1087366868
 31
0.0
  0
LINE
  5
88
330
1F
100
AcDbEntity
  8
0
  6
Continuous
 62
     7
100
AcDbLine
 10
0.8740686478
 20
-0.1087366868
 30
0.0
 11
0.8732281127
 21
-0.1074416326
 31
0.0
  0
LINE
  5
89
330
1F
100
AcDbEntity
  8
0
  6
Continuous
 62
     7
100
AcDbLine
 10
0.8732281127
 20
-0.1074416326
 30
0.0
 11
0.8727984975
 21
-0.1061649761
 31
0.0
  0
LINE
  5
8A
330
1F
100
AcDbEntity
  8
0
  6
Continuous
 62
     7
100
AcDbLine
 10
0.8727984975
 20
-0.1061649761
 30
0.0
 11
0.8727785531
 21
-0.1049228273
 31
0.0
  0
LINE
  5
8B
330
1F
100
AcDbEntity
  8
0
  6
Continuous
 62
     7
100
AcDbLine
 10
0.8727785531
 20
-0.1049228273
 30
0.0
 11
0.8736495112
 21
-0.0977962744
 31
0.0
  0
LINE
  5
8C
330
1F
100
AcDbEntity
  8
0
  6
Continuous
 62
     7
100
AcDbLine
 10
0.8736495112
 20
-0.0977962744
 30
0.0
 11
0.8754520997
 21
-0.0800699748
 31
0.0
  0
LINE
  5
8D
330
1F
100
AcDbEntity
  8
0
  6
Continuous
 62
     7
100
AcDbLine
 10
0.8754520997
 20
-0.0800699748
 30
0.0
 11
0.8760335347
 21
-0.0729139803
 31
0.0
  0
LINE
  5
8E
330
1F
100
AcDbEntity
  8
0
  6
Continuous
 62
     7
100
AcDbLine
 10
0.8760335347
 20
-0.0729139803
 30
0.0
 11
0.8763031135
 21
-0.071701273
 31
0.0
  0
LINE
  5
8F
330
1F
100
AcDbEntity
  8
0
  6
Continuous
 62
     7
100
AcDbLine
 10
0.8763031135
 20
-0.071701273
 30
0.0
 11
0.8769809236
 21
-0.0705372307
 31
0.0
  0
LINE
  5
90
330
1F
100
AcDbEntity
  8
0
  6
Continuous
 62
     7
100
AcDbLine
 10
0.8769809236
 20
-0.0705372307
 30
0.0
 11
0.8780649453
 21
-0.0694378848
 31
0.0
  0
LINE
  5
91
330
1F
100
AcDbEntity
  8
0
  6
Continuous
 62
     7
100
AcDbLine
 10
0.8780649453
 20
-0.0694378848
 30
0.0
 11
0.8795526777
 21
-0.0684192016
 31
0.0
  0
LINE
  5
92
330
1F
100
AcDbEntity
  8
0
  6
Continuous
 62
     7
100
AcDbLine
 10
0.8795526777
 20
-0.0684192016
 30
0.0
 11
0.8814411395
 21
-0.0674970693
 31
0.0
  0
LINE
  5
93
330
1F
100
AcDbEntity
  8
0
  6
Continuous
 62
     7
100
AcDbLine
 10
0.8814411395
 20
-0.0674970693
 30
0.0
 11
0.8837268722
 21
-0.0666872856
 31
0.0
  0
LINE
  5
94
330
1F
100
AcDbEntity
  8
0
  6
Continuous
 62
     7
100
AcDbLine
 10
0.8837268722
 20
-0.0666872856
 30
0.0
 11
0.8905718454
 21
-0.0648593064
 31
0.0
  0
LINE
  5
95
330
1F
100
AcDbEntity
  8
0
  6
Continuous
 62
     7
100
AcDbLine
 10
0.8905718454
 20
-0.0648593064
 30
0.0
 11
0.8965982816
 21
-0.0631183337
 31
0.0
  0
LINE
  5
96
330
1F
100
AcDbEntity
  8
0
  6
Continuous
 62
     7
100
AcDbLine
 10
0.8965982816
 20
-0.0631183337
 30
0.0
 11
0.9029179779
 21
-0.0611530249
 31
0.0
  0
LINE
  5
97
330
1F
100
AcDbEntity
  8
0
  6
Continuous
 62
     7
100
AcDbLine
 10
0.9029179779
 20
-0.0611530249
 30
0.0
 11
0.9095241814
 21
-0.05895082
 31
0.0
  0
LINE
  5
98
330
1F
100
AcDbEntity
  8
0
  6
Continuous
 62
     7
100
AcDbLine
 10
0.9095241814
 20
-0.05895082
 30
0.0
 11
0.9164097511
 21
-0.0564993432
 31
0.0
  0
LINE
  5
99
330
1F
100
AcDbEntity
  8
0
  6
Continuous
 62
     7
100
AcDbLine
 10
0.9164097511
 20
-0.0564993432
 30
0.0
 11
0.9235671632
 21
-0.0537864138
 31
0.0
  0
LINE
  5
9A
330
1F
100
AcDbEntity
  8
0
  6
Continuous
 62
     7
100
AcDbLine
 10
0.9235671632
 20
-0.0537864138
 30
0.0
 11
0.930988516
 21
-0.0508000562
 31
0.0
  0
LINE
  5
9B
330
1F
100
AcDbEntity
  8
0
  6
Continuous
 62
     7
100
AcDbLine
 10
0.930988516
 20
-0.0508000562
 30
0.0
 11
0.938665534
 21
-0.0475285105
 31
0.0
  0
LINE
  5
9C
330
1F
100
AcDbEntity
  8
0
  6
Continuous
 62
     7
100
AcDbLine
 10
0.938665534
 20
-0.0475285105
 30
0.0
 11
0.946589578
 21
-0.0439602415
 31
0.0
  0
LINE
  5
9D
330
1F
100
AcDbEntity
  8
0
  6
Continuous
 62
     7
100
AcDbLine
 10
0.946589578
 20
-0.0439602415
 30
0.0
 11
0.9547516426
 21
-0.0400839517
 31
0.0
  0
LINE
  5
9E
330
1F
100
AcDbEntity
  8
0
  6
Continuous
 62
     7
100
AcDbLine
 10
0.9547516426
 20
-0.0400839517
 30
0.0
 11
0.9631423702
 21
-0.0358885879
 31
0.0
  0
LINE
  5
9F
330
1F
100
AcDbEntity
  8
0
  6
Continuous
 62
     7
100
AcDbLine
 10
0.9631423702
 20
-0.0358885879
 30
0.0
 11
0.9717520536
 21
-0.0313633525
 31
0.0
  0
LINE
  5
A0
330
1F
100
AcDbEntity
  8
0
  6
Continuous
 62
     7
100
AcDbLine
 10
0.9717520536
 20
-0.0313633525
 30
0.0
 11
0.9805706429
 21
-0.0264977131
 31
0.0
  0
LINE
  5
A1
330
1F
100
AcDbEntity
  8
0
  6
Continuous
 62
     7
100
AcDbLine
 10
0.9805706429
 20
-0.0264977131
 30
0.0
 11
0.989587753
 21
-0.0212814114
 31
0.0
  0
LINE
  5
A2
330
1F
100
AcDbEntity
  8
0
  6
Continuous
 62
     7
100
AcDbLine
 10
0.989587753
 20
-0.0212814114
 30
0.0
 11
0.9987926698
 21
-0.0157044729
 31
0.0
  0
LINE
  5
A3
330
1F
100
AcDbEntity
  8
0
  6
Continuous
 62
     7
100
AcDbLine
 10
0.9987926698
 20
-0.0157044729
 30
0.0
 11
0.9989400624
 21
-0.0156110375
 31
0.0
  0
LINE
  5
A4
330
1F
100
AcDbEntity
  8
0
  6
Continuous
 62
     7
100
AcDbLine
 10
0.9989400624
 20
-0.0156110375
 30
0.0
 11
1.0005275497
 21
0.0
 31
0.0
  0
LINE
  5
A5
330
1F
100
AcDbEntity
  8
0
  6
Continuous
 62
     7
100
AcDbLine
 10
1.0005275497
 20
0.0
 30
0.0
 11
0.9989400624
 21
0.0156110375
 31
0.0
  0
LINE
  5
A6
330
1F
100
AcDbEntity
  8
0
  6
Continuous
 62
     7
100
AcDbLine
 10
0.9989400624
 20
0.0156110375
 30
0.0
 11
0.9987926698
 21
0.0157044729
 31
0.0
  0
LINE
  5
A7
330
1F
100
AcDbEntity
  8
0
  6
Continuous
 62
     7
100
AcDbLine
 10
0.9987926698
 20
0.0157044729
 30
0.0
 11
0.989587753
 21
0.0212814114
 31
0.0
  0
LINE
  5
A8
330
1F
100
AcDbEntity
  8
0
  6
Continuous
 62
     7
100
AcDbLine
 10
0.989587753
 20
0.0212814114
 30
0.0
 11
0.9805706429
 21
0.0264977131
 31
0.0
  0
LINE
  5
A9
330
1F
100
AcDbEntity
  8
0
  6
Continuous
 62
     7
100
AcDbLine
 10
0.9805706429
 20
0.0264977131
 30
0.0
 11
0.9717520536
 21
0.0313633525
 31
0.0
  0
LINE
  5
AA
330
1F
100
AcDbEntity
  8
0
  6
Continuous
 62
     7
100
AcDbLine
 10
0.9717520536
 20
0.0313633525
 30
0.0
 11
0.9631423702
 21
0.0358885879
 31
0.0
  0
LINE
  5
AB
330
1F
100
AcDbEntity
  8
0
  6
Continuous
 62
     7
100
AcDbLine
 10
0.9631423702
 20
0.0358885879
 30
0.0
 11
0.9547516426
 21
0.0400839517
 31
0.0
  0
LINE
  5
AC
330
1F
100
AcDbEntity
  8
0
  6
Continuous
 62
     7
100
AcDbLine
 10
0.9547516426
 20
0.0400839517
 30
0.0
 11
0.946589578
 21
0.0439602415
 31
0.0
  0
LINE
  5
AD
330
1F
100
AcDbEntity
  8
0
  6
Continuous
 62
     7
100
AcDbLine
 10
0.946589578
 20
0.0439602415
 30
0.0
 11
0.9386655348
 21
0.0475285101
 31
0.0
  0
LINE
  5
AE
330
1F
100
AcDbEntity
  8
0
  6
Continuous
 62
     7
100
AcDbLine
 10
0.9386655348
 20
0.0475285101
 30
0.0
 11
0.930988516
 21
0.0508000561
 31
0.0
  0
LINE
  5
AF
330
1F
100
AcDbEntity
  8
0
  6
Continuous
 62
     7
100
AcDbLine
 10
0.930988516
 20
0.0508000561
 30
0.0
 11
0.9235671632
 21
0.0537864138
 31
0.0
  0
LINE
  5
B0
330
1F
100
AcDbEntity
  8
0
  6
Continuous
 62
     7
100
AcDbLine
 10
0.9235671632
 20
0.0537864138
 30
0.0
 11
0.9164097511
 21
0.0564993432
 31
0.0
  0
LINE
  5
B1
330
1F
100
AcDbEntity
  8
0
  6
Continuous
 62
     7
100
AcDbLine
 10
0.9164097511
 20
0.0564993432
 30
0.0
 11
0.9095241814
 21
0.05895082
 31
0.0
  0
LINE
  5
B2
330
1F
100
AcDbEntity
  8
0
  6
Continuous
 62
     7
100
AcDbLine
 10
0.9095241814
 20
0.05895082
 30
0.0
 11
0.9029179779
 21
0.0611530249
 31
0.0
  0
LINE
  5
B3
330
1F
100
AcDbEntity
  8
0
  6
Continuous
 62
     7
100
AcDbLine
 10
0.9029179779
 20
0.0611530249
 30
0.0
 11
0.8965990218
 21
0.0631181198
 31
0.0
  0
LINE
  5
B4
330
1F
100
AcDbEntity
  8
0
  6
Continuous
 62
     7
100
AcDbLine
 10
0.8965990218
 20
0.0631181198
 30
0.0
 11
0.8905720347
 21
0.0648592558
 31
0.0
  0
LINE
  5
B5
330
1F
100
AcDbEntity
  8
0
  6
Continuous
 62
     7
100
AcDbLine
 10
0.8905720347
 20
0.0648592558
 30
0.0
 11
0.8837268722
 21
0.0666872856
 31
0.0
  0
LINE
  5
B6
330
1F
100
AcDbEntity
  8
0
  6
Continuous
 62
     7
100
AcDbLine
 10
0.8837268722
 20
0.0666872856
 30
0.0
 11
0.8814411423
 21
0.0674970789
 31
0.0
  0
LINE
  5
B7
330
1F
100
AcDbEntity
  8
0
  6
Continuous
 62
     7
100
AcDbLine
 10
0.8814411423
 20
0.0674970789
 30
0.0
 11
0.8795526948
 21
0.0684192567
 31
0.0
  0
LINE
  5
B8
330
1F
100
AcDbEntity
  8
0
  6
Continuous
 62
     7
100
AcDbLine
 10
0.8795526948
 20
0.0684192567
 30
0.0
 11
0.8780649453
 21
0.0694378848
 31
0.0
  0
LINE
  5
B9
330
1F
100
AcDbEntity
  8
0
  6
Continuous
 62
     7
100
AcDbLine
 10
0.8780649453
 20
0.0694378848
 30
0.0
 11
0.8769809236
 21
0.0705372307
 31
0.0
  0
LINE
  5
BA
330
1F
100
AcDbEntity
  8
0
  6
Continuous
 62
     7
100
AcDbLine
 10
0.8769809236
 20
0.0705372307
 30
0.0
 11
0.8763031135
 21
0.071701273
 31
0.0
  0
LINE
  5
BB
330
1F
100
AcDbEntity
  8
0
  6
Continuous
 62
     7
100
AcDbLine
 10
0.8763031135
 20
0.071701273
 30
0.0
 11
0.8760335347
 21
0.0729139803
 31
0.0
  0
LINE
  5
BC
330
1F
100
AcDbEntity
  8
0
  6
Continuous
 62
     7
100
AcDbLine
 10
0.8760335347
 20
0.0729139803
 30
0.0
 11
0.8754520997
 21
0.0800699748
 31
0.0
  0
LINE
  5
BD
330
1F
100
AcDbEntity
  8
0
  6
Continuous
 62
     7
100
AcDbLine
 10
0.8754520997
 20
0.0800699748
 30
0.0
 11
0.8736495112
 21
0.0977962744
 31
0.0
  0
LINE
  5
BE
330
1F
100
AcDbEntity
  8
0
  6
Continuous
 62
     7
100
AcDbLine
 10
0.8736495112
 20
0.0977962744
 30
0.0
 11
0.8727785531
 21
0.1049228273
 31
0.0
  0
LINE
  5
BF
330
1F
100
AcDbEntity
  8
0
  6
Continuous
 62
     7
100
AcDbLine
 10
0.8727785531
 20
0.1049228273
 30
0.0
 11
0.8727984975
 21
0.1061649761
 31
0.0
  0
LINE
  5
C0
330
1F
100
AcDbEntity
  8
0
  6
Continuous
 62
     7
100
AcDbLine
 10
0.8727984975
 20
0.1061649761
 30
0.0
 11
0.8732281127
 21
0.1074416326
 31
0.0
  0
LINE
  5
C1
330
1F
100
AcDbEntity
  8
0
  6
Continuous
 62
     7
100
AcDbLine
 10
0.8732281127
 20
0.1074416326
 30
0.0
 11
0.8740686478
 21
0.1087366868
 31
0.0
  0
LINE
  5
C2
330
1F
100
AcDbEntity
  8
0
  6
Continuous
 62
     7
100
AcDbLine
 10
0.8740686478
 20
0.1087366868
 30
0.0
 11
0.8753208667
 21
0.1100339959
 31
0.0
  0
LINE
  5
C3
330
1F
100
AcDbEntity
  8
0
  6
Continuous
 62
     7
100
AcDbLine
 10
0.8753208667
 20
0.1100339959
 30
0.0
 11
0.8769850478
 21
0.1113173966
 31
0.0
  0
LINE
  5
C4
330
1F
100
AcDbEntity
  8
0
  6
Continuous
 62
     7
100
AcDbLine
 10
0.8769850478
 20
0.1113173966
 30
0.0
 11
0.8790609831
 21
0.1125707186
 31
0.0
  0
LINE
  5
C5
330
1F
100
AcDbEntity
  8
0
  6
Continuous
 62
     7
100
AcDbLine
 10
0.8790609831
 20
0.1125707186
 30
0.0
 11
0.8853978698
 21
0.1157391619
 31
0.0
  0
LINE
  5
C6
330
1F
100
AcDbEntity
  8
0
  6
Continuous
 62
     7
100
AcDbLine
 10
0.8853978698
 20
0.1157391619
 30
0.0
 11
0.8909504893
 21
0.1186576095
 31
0.0
  0
LINE
  5
C7
330
1F
100
AcDbEntity
  8
0
  6
Continuous
 62
     7
100
AcDbLine
 10
0.8909504893
 20
0.1186576095
 30
0.0
 11
0.8967452073
 21
0.1218548339
 31
0.0
  0
LINE
  5
C8
330
1F
100
AcDbEntity
  8
0
  6
Continuous
 62
     7
100
AcDbLine
 10
0.8967452073
 20
0.1218548339
 30
0.0
 11
0.9027728808
 21
0.1253417785
 31
0.0
  0
LINE
  5
C9
330
1F
100
AcDbEntity
  8
0
  6
Continuous
 62
     7
100
AcDbLine
 10
0.9027728808
 20
0.1253417785
 30
0.0
 11
0.9090240238
 21
0.1291291283
 31
0.0
  0
LINE
  5
CA
330
1F
100
AcDbEntity
  8
0
  6
Continuous
 62
     7
100
AcDbLine
 10
0.9090240238
 20
0.1291291283
 30
0.0
 11
0.9154888146
 21
0.1332273004
 31
0.0
  0
LINE
  5
CB
330
1F
100
AcDbEntity
  8
0
  6
Continuous
 62
     7
100
AcDbLine
 10
0.9154888146
 20
0.1332273004
 30
0.0
 11
0.9221571025
 21
0.1376464344
 31
0.0
  0
LINE
  5
CC
330
1F
100
AcDbEntity
  8
0
  6
Continuous
 62
     7
100
AcDbLine
 10
0.9221571025
 20
0.1376464344
 30
0.0
 11
0.9290184142
 21
0.1423963838
 31
0.0
  0
LINE
  5
CD
330
1F
100
AcDbEntity
  8
0
  6
Continuous
 62
     7
100
AcDbLine
 10
0.9290184142
 20
0.1423963838
 30
0.0
 11
0.9360619653
 21
0.1474867084
 31
0.0
  0
LINE
  5
CE
330
1F
100
AcDbEntity
  8
0
  6
Continuous
 62
     7
100
AcDbLine
 10
0.9360619653
 20
0.1474867084
 30
0.0
 11
0.9432766605
 21
0.1529266619
 31
0.0
  0
LINE
  5
CF
330
1F
100
AcDbEntity
  8
0
  6
Continuous
 62
     7
100
AcDbLine
 10
0.9432766605
 20
0.1529266619
 30
0.0
 11
0.9506511089
 21
0.1587251874
 31
0.0
  0
LINE
  5
D0
330
1F
100
AcDbEntity
  8
0
  6
Continuous
 62
     7
100
AcDbLine
 10
0.9506511089
 20
0.1587251874
 30
0.0
 11
0.9581736284
 21
0.1648909074
 31
0.0
  0
LINE
  5
D1
330
1F
100
AcDbEntity
  8
0
  6
Continuous
 62
     7
100
AcDbLine
 10
0.9581736284
 20
0.1648909074
 30
0.0
 11
0.9658322547
 21
0.1714321159
 31
0.0
  0
LINE
  5
D2
330
1F
100
AcDbEntity
  8
0
  6
Continuous
 62
     7
100
AcDbLine
 10
0.9658322547
 20
0.1714321159
 30
0.0
 11
0.9736147501
 21
0.1783567705
 31
0.0
  0
LINE
  5
D3
330
1F
100
AcDbEntity
  8
0
  6
Continuous
 62
     7
100
AcDbLine
 10
0.9736147501
 20
0.1783567705
 30
0.0
 11
0.9815086123
 21
0.1856724848
 31
0.0
  0
LINE
  5
D4
330
1F
100
AcDbEntity
  8
0
  6
Continuous
 62
     7
100
AcDbLine
 10
0.9815086123
 20
0.1856724848
 30
0.0
 11
0.9816341794
 21
0.1857936775
 31
0.0
  0
LINE
  5
D5
330
1F
100
AcDbEntity
  8
0
  6
Continuous
 62
     7
100
AcDbLine
 10
0.9816341794
 20
0.1857936775
 30
0.0
 11
0.980046692
 21
0.2014047151
 31
0.0
  0
LINE
  5
D6
330
1F
100
AcDbEntity
  8
0
  6
Continuous
 62
     7
100
AcDbLine
 10
0.980046692
 20
0.2014047151
 30
0.0
 11
0.9753492219
 21
0.2163766349
 31
0.0
  0
LINE
  5
D7
330
1F
100
AcDbEntity
  8
0
  6
Continuous
 62
     7
100
AcDbLine
 10
0.9753492219
 20
0.2163766349
 30
0.0
 11
0.975186038
 21
0.2164384878
 31
0.0
  0
LINE
  5
D8
330
1F
100
AcDbEntity
  8
0
  6
Continuous
 62
     7
100
AcDbLine
 10
0.975186038
 20
0.2164384878
 30
0.0
 11
0.9650469169
 21
0.2200483299
 31
0.0
  0
LINE
  5
D9
330
1F
100
AcDbEntity
  8
0
  6
Continuous
 62
     7
100
AcDbLine
 10
0.9650469169
 20
0.2200483299
 30
0.0
 11
0.9551643538
 21
0.2233427226
 31
0.0
  0
LINE
  5
DA
330
1F
100
AcDbEntity
  8
0
  6
Continuous
 62
     7
100
AcDbLine
 10
0.9551643538
 20
0.2233427226
 30
0.0
 11
0.9455468355
 21
0.2263335931
 31
0.0
  0
LINE
  5
DB
330
1F
100
AcDbEntity
  8
0
  6
Continuous
 62
     7
100
AcDbLine
 10
0.9455468355
 20
0.2263335931
 30
0.0
 11
0.9362024697
 21
0.2290330801
 31
0.0
  0
LINE
  5
DC
330
1F
100
AcDbEntity
  8
0
  6
Continuous
 62
     7
100
AcDbLine
 10
0.9362024697
 20
0.2290330801
 30
0.0
 11
0.9271389802
 21
0.2314535236
 31
0.0
  0
LINE
  5
DD
330
1F
100
AcDbEntity
  8
0
  6
Continuous
 62
     7
100
AcDbLine
 10
0.9271389802
 20
0.2314535236
 30
0.0
 11
0.9183637022
 21
0.2336074539
 31
0.0
  0
LINE
  5
DE
330
1F
100
AcDbEntity
  8
0
  6
Continuous
 62
     7
100
AcDbLine
 10
0.9183637022
 20
0.2336074539
 30
0.0
 11
0.9098835774
 21
0.2355075817
 31
0.0
  0
LINE
  5
DF
330
1F
100
AcDbEntity
  8
0
  6
Continuous
 62
     7
100
AcDbLine
 10
0.9098835774
 20
0.2355075817
 30
0.0
 11
0.9017051502
 21
0.2371667865
 31
0.0
  0
LINE
  5
E0
330
1F
100
AcDbEntity
  8
0
  6
Continuous
 62
     7
100
AcDbLine
 10
0.9017051502
 20
0.2371667865
 30
0.0
 11
0.8938345636
 21
0.2385981059
 31
0.0
  0
LINE
  5
E1
330
1F
100
AcDbEntity
  8
0
  6
Continuous
 62
     7
100
AcDbLine
 10
0.8938345636
 20
0.2385981059
 30
0.0
 11
0.8862775555
 21
0.239814725
 31
0.0
  0
LINE
  5
E2
330
1F
100
AcDbEntity
  8
0
  6
Continuous
 62
     7
100
AcDbLine
 10
0.8862775555
 20
0.239814725
 30
0.0
 11
0.8790394551
 21
0.2408299649
 31
0.0
  0
LINE
  5
E3
330
1F
100
AcDbEntity
  8
0
  6
Continuous
 62
     7
100
AcDbLine
 10
0.8790394551
 20
0.2408299649
 30
0.0
 11
0.8721251805
 21
0.2416572716
 31
0.0
  0
LINE
  5
E4
330
1F
100
AcDbEntity
  8
0
  6
Continuous
 62
     7
100
AcDbLine
 10
0.8721251805
 20
0.2416572716
 30
0.0
 11
0.8655400031
 21
0.2423101444
 31
0.0
  0
LINE
  5
E5
330
1F
100
AcDbEntity
  8
0
  6
Continuous
 62
     7
100
AcDbLine
 10
0.8655400031
 20
0.2423101444
 30
0.0
 11
0.8592859007
 21
0.2428024157
 31
0.0
  0
LINE
  5
E6
330
1F
100
AcDbEntity
  8
0
  6
Continuous
 62
     7
100
AcDbLine
 10
0.8592859007
 20
0.2428024157
 30
0.0
 11
0.8522128793
 21
0.2432151045
 31
0.0
  0
LINE
  5
E7
330
1F
100
AcDbEntity
  8
0
  6
Continuous
 62
     7
100
AcDbLine
 10
0.8522128793
 20
0.2432151045
 30
0.0
 11
0.8498109282
 21
0.2435482073
 31
0.0
  0
LINE
  5
E8
330
1F
100
AcDbEntity
  8
0
  6
Continuous
 62
     7
100
AcDbLine
 10
0.8498109282
 20
0.2435482073
 30
0.0
 11
0.8477755044
 21
0.2440713663
 31
0.0
  0
LINE
  5
E9
330
1F
100
AcDbEntity
  8
0
  6
Continuous
 62
     7
100
AcDbLine
 10
0.8477755044
 20
0.2440713663
 30
0.0
 11
0.8461131609
 21
0.2447696613
 31
0.0
  0
LINE
  5
EA
330
1F
100
AcDbEntity
  8
0
  6
Continuous
 62
     7
100
AcDbLine
 10
0.8461131609
 20
0.2447696613
 30
0.0
 11
0.8448300324
 21
0.2456282915
 31
0.0
  0
LINE
  5
EB
330
1F
100
AcDbEntity
  8
0
  6
Continuous
 62
     7
100
AcDbLine
 10
0.8448300324
 20
0.2456282915
 30
0.0
 11
0.8439317772
 21
0.2466320637
 31
0.0
  0
LINE
  5
EC
330
1F
100
AcDbEntity
  8
0
  6
Continuous
 62
     7
100
AcDbLine
 10
0.8439317772
 20
0.2466320637
 30
0.0
 11
0.8434236005
 21
0.2477656809
 31
0.0
  0
LINE
  5
ED
330
1F
100
AcDbEntity
  8
0
  6
Continuous
 62
     7
100
AcDbLine
 10
0.8434236005
 20
0.2477656809
 30
0.0
 11
0.8414135764
 21
0.2546581498
 31
0.0
  0
LINE
  5
EE
330
1F
100
AcDbEntity
  8
0
  6
Continuous
 62
     7
100
AcDbLine
 10
0.8414135764
 20
0.2546581498
 30
0.0
 11
0.8360796091
 21
0.2716587326
 31
0.0
  0
LINE
  5
EF
330
1F
100
AcDbEntity
  8
0
  6
Continuous
 62
     7
100
AcDbLine
 10
0.8360796091
 20
0.2716587326
 30
0.0
 11
0.833791915
 21
0.278464082
 31
0.0
  0
LINE
  5
F0
330
1F
100
AcDbEntity
  8
0
  6
Continuous
 62
     7
100
AcDbLine
 10
0.833791915
 20
0.278464082
 30
0.0
 11
0.8335614084
 21
0.2796848187
 31
0.0
  0
LINE
  5
F1
330
1F
100
AcDbEntity
  8
0
  6
Continuous
 62
     7
100
AcDbLine
 10
0.8335614084
 20
0.2796848187
 30
0.0
 11
0.8337252403
 21
0.2810218228
 31
0.0
  0
LINE
  5
F2
330
1F
100
AcDbEntity
  8
0
  6
Continuous
 62
     7
100
AcDbLine
 10
0.8337252403
 20
0.2810218228
 30
0.0
 11
0.8342878771
 21
0.2824595657
 31
0.0
  0
LINE
  5
F3
330
1F
100
AcDbEntity
  8
0
  6
Continuous
 62
     7
100
AcDbLine
 10
0.8342878771
 20
0.2824595657
 30
0.0
 11
0.8352533166
 21
0.2839823886
 31
0.0
  0
LINE
  5
F4
330
1F
100
AcDbEntity
  8
0
  6
Continuous
 62
     7
100
AcDbLine
 10
0.8352533166
 20
0.2839823886
 30
0.0
 11
0.8366250852
 21
0.2855745152
 31
0.0
  0
LINE
  5
F5
330
1F
100
AcDbEntity
  8
0
  6
Continuous
 62
     7
100
AcDbLine
 10
0.8366250852
 20
0.2855745152
 30
0.0
 11
0.8384062341
 21
0.2872200643
 31
0.0
  0
LINE
  5
F6
330
1F
100
AcDbEntity
  8
0
  6
Continuous
 62
     7
100
AcDbLine
 10
0.8384062341
 20
0.2872200643
 30
0.0
 11
0.8439756014
 21
0.2915992554
 31
0.0
  0
LINE
  5
F7
330
1F
100
AcDbEntity
  8
0
  6
Continuous
 62
     7
100
AcDbLine
 10
0.8439756014
 20
0.2915992554
 30
0.0
 11
0.8488270792
 21
0.2955756962
 31
0.0
  0
LINE
  5
F8
330
1F
100
AcDbEntity
  8
0
  6
Continuous
 62
     7
100
AcDbLine
 10
0.8488270792
 20
0.2955756962
 30
0.0
 11
0.8538595825
 21
0.2998739414
 31
0.0
  0
LINE
  5
F9
330
1F
100
AcDbEntity
  8
0
  6
Continuous
 62
     7
100
AcDbLine
 10
0.8538595825
 20
0.2998739414
 30
0.0
 11
0.8590619523
 21
0.3045028698
 31
0.0
  0
LINE
  5
FA
330
1F
100
AcDbEntity
  8
0
  6
Continuous
 62
     7
100
AcDbLine
 10
0.8590619523
 20
0.3045028698
 30
0.0
 11
0.8644227462
 21
0.3094710382
 31
0.0
  0
LINE
  5
FB
330
1F
100
AcDbEntity
  8
0
  6
Continuous
 62
     7
100
AcDbLine
 10
0.8644227462
 20
0.3094710382
 30
0.0
 11
0.8699302464
 21
0.3147866733
 31
0.0
  0
LINE
  5
FC
330
1F
100
AcDbEntity
  8
0
  6
Continuous
 62
     7
100
AcDbLine
 10
0.8699302464
 20
0.3147866733
 30
0.0
 11
0.8755724689
 21
0.3204576638
 31
0.0
  0
LINE
  5
FD
330
1F
100
AcDbEntity
  8
0
  6
Continuous
 62
     7
100
AcDbLine
 10
0.8755724689
 20
0.3204576638
 30
0.0
 11
0.8813371713
 21
0.3264915534
 31
0.0
  0
LINE
  5
FE
330
1F
100
AcDbEntity
  8
0
  6
Continuous
 62
     7
100
AcDbLine
 10
0.8813371713
 20
0.3264915534
 30
0.0
 11
0.8872118657
 21
0.3328955352
 31
0.0
  0
LINE
  5
FF
330
1F
100
AcDbEntity
  8
0
  6
Continuous
 62
     7
100
AcDbLine
 10
0.8872118657
 20
0.3328955352
 30
0.0
 11
0.8931838212
 21
0.3396764399
 31
0.0
  0
LINE
  5
100
330
1F
100
AcDbEntity
  8
0
  6
Continuous
 62
     7
100
AcDbLine
 10
0.8931838212
 20
0.3396764399
 30
0.0
 11
0.8992400796
 21
0.3468407348
 31
0.0
  0
LINE
  5
101
330
1F
100
AcDbEntity
  8
0
  6
Continuous
 62
     7
100
AcDbLine
 10
0.8992400796
 20
0.3468407348
 30
0.0
 11
0.9053674623
 21
0.3543945142
 31
0.0
  0
LINE
  5
102
330
1F
100
AcDbEntity
  8
0
  6
Continuous
 62
     7
100
AcDbLine
 10
0.9053674623
 20
0.3543945142
 30
0.0
 11
0.9115525805
 21
0.3623434939
 31
0.0
  0
LINE
  5
103
330
1F
100
AcDbEntity
  8
0
  6
Continuous
 62
     7
100
AcDbLine
 10
0.9115525805
 20
0.3623434939
 30
0.0
 11
0.9177818451
 21
0.3706930053
 31
0.0
  0
LINE
  5
104
330
1F
100
AcDbEntity
  8
0
  6
Continuous
 62
     7
100
AcDbLine
 10
0.9177818451
 20
0.3706930053
 30
0.0
 11
0.9240414769
 21
0.3794479893
 31
0.0
  0
LINE
  5
105
330
1F
100
AcDbEntity
  8
0
  6
Continuous
 62
     7
100
AcDbLine
 10
0.9240414769
 20
0.3794479893
 30
0.0
 11
0.9241400777
 21
0.3795919776
 31
0.0
  0
LINE
  5
106
330
1F
100
AcDbEntity
  8
0
  6
Continuous
 62
     7
100
AcDbLine
 10
0.9241400777
 20
0.3795919776
 30
0.0
 11
0.9194426076
 21
0.3945638974
 31
0.0
  0
LINE
  5
107
330
1F
100
AcDbEntity
  8
0
  6
Continuous
 62
     7
100
AcDbLine
 10
0.9194426076
 20
0.3945638974
 30
0.0
 11
0.9118274696
 21
0.4082837474
 31
0.0
  0
LINE
  5
108
330
1F
100
AcDbEntity
  8
0
  6
Continuous
 62
     7
100
AcDbLine
 10
0.9118274696
 20
0.4082837474
 30
0.0
 11
0.9116551752
 21
0.4083114855
 31
0.0
  0
LINE
  5
109
330
1F
100
AcDbEntity
  8
0
  6
Continuous
 62
     7
100
AcDbLine
 10
0.9116551752
 20
0.4083114855
 30
0.0
 11
0.9009969467
 21
0.4098064438
 31
0.0
  0
LINE
  5
10A
330
1F
100
AcDbEntity
  8
0
  6
Continuous
 62
     7
100
AcDbLine
 10
0.9009969467
 20
0.4098064438
 30
0.0
 11
0.8906535238
 21
0.4110440548
 31
0.0
  0
LINE
  5
10B
330
1F
100
AcDbEntity
  8
0
  6
Continuous
 62
     7
100
AcDbLine
 10
0.8906535238
 20
0.4110440548
 30
0.0
 11
0.8806308189
 21
0.4120377099
 31
0.0
  0
LINE
  5
10C
330
1F
100
AcDbEntity
  8
0
  6
Continuous
 62
     7
100
AcDbLine
 10
0.8806308189
 20
0.4120377099
 30
0.0
 11
0.87093433
 21
0.4128009312
 31
0.0
  0
LINE
  5
10D
330
1F
100
AcDbEntity
  8
0
  6
Continuous
 62
     7
100
AcDbLine
 10
0.87093433
 20
0.4128009312
 30
0.0
 11
0.8615691391
 21
0.413347361
 31
0.0
  0
LINE
  5
10E
330
1F
100
AcDbEntity
  8
0
  6
Continuous
 62
     7
100
AcDbLine
 10
0.8615691391
 20
0.413347361
 30
0.0
 11
0.8525399085
 21
0.4136907498
 31
0.0
  0
LINE
  5
10F
330
1F
100
AcDbEntity
  8
0
  6
Continuous
 62
     7
100
AcDbLine
 10
0.8525399085
 20
0.4136907498
 30
0.0
 11
0.8438508794
 21
0.4138449453
 31
0.0
  0
LINE
  5
110
330
1F
100
AcDbEntity
  8
0
  6
Continuous
 62
     7
100
AcDbLine
 10
0.8438508794
 20
0.4138449453
 30
0.0
 11
0.8355058697
 21
0.4138238807
 31
0.0
  0
LINE
  5
111
330
1F
100
AcDbEntity
  8
0
  6
Continuous
 62
     7
100
AcDbLine
 10
0.8355058697
 20
0.4138238807
 30
0.0
 11
0.827508272
 21
0.4136415635
 31
0.0
  0
LINE
  5
112
330
1F
100
AcDbEntity
  8
0
  6
Continuous
 62
     7
100
AcDbLine
 10
0.827508272
 20
0.4136415635
 30
0.0
 11
0.8198610526
 21
0.4133120638
 31
0.0
  0
LINE
  5
113
330
1F
100
AcDbEntity
  8
0
  6
Continuous
 62
     7
100
AcDbLine
 10
0.8198610526
 20
0.4133120638
 30
0.0
 11
0.8125667503
 21
0.4128495028
 31
0.0
  0
LINE
  5
114
330
1F
100
AcDbEntity
  8
0
  6
Continuous
 62
     7
100
AcDbLine
 10
0.8125667503
 20
0.4128495028
 30
0.0
 11
0.8056274757
 21
0.4122680412
 31
0.0
  0
LINE
  5
115
330
1F
100
AcDbEntity
  8
0
  6
Continuous
 62
     7
100
AcDbLine
 10
0.8056274757
 20
0.4122680412
 30
0.0
 11
0.7990456749
 21
0.4115819632
 31
0.0
  0
LINE
  5
116
330
1F
100
AcDbEntity
  8
0
  6
Continuous
 62
     7
100
AcDbLine
 10
0.7990456749
 20
0.4115819632
 30
0.0
 11
0.7928205008
 21
0.4108052161
 31
0.0
  0
LINE
  5
117
330
1F
100
AcDbEntity
  8
0
  6
Continuous
 62
     7
100
AcDbLine
 10
0.7928205008
 20
0.4108052161
 30
0.0
 11
0.785809191
 21
0.4097856684
 31
0.0
  0
LINE
  5
118
330
1F
100
AcDbEntity
  8
0
  6
Continuous
 62
     7
100
AcDbLine
 10
0.785809191
 20
0.4097856684
 30
0.0
 11
0.7833893549
 21
0.4096284434
 31
0.0
  0
LINE
  5
119
330
1F
100
AcDbEntity
  8
0
  6
Continuous
 62
     7
100
AcDbLine
 10
0.7833893549
 20
0.4096284434
 30
0.0
 11
0.7812902852
 21
0.4097311655
 31
0.0
  0
LINE
  5
11A
330
1F
100
AcDbEntity
  8
0
  6
Continuous
 62
     7
100
AcDbLine
 10
0.7812902852
 20
0.4097311655
 30
0.0
 11
0.7795214042
 21
0.4100805391
 31
0.0
  0
LINE
  5
11B
330
1F
100
AcDbEntity
  8
0
  6
Continuous
 62
     7
100
AcDbLine
 10
0.7795214042
 20
0.4100805391
 30
0.0
 11
0.7780917004
 21
0.4106633012
 31
0.0
  0
LINE
  5
11C
330
1F
100
AcDbEntity
  8
0
  6
Continuous
 62
     7
100
AcDbLine
 10
0.7780917004
 20
0.4106633012
 30
0.0
 11
0.7770097747
 21
0.4114657086
 31
0.0
  0
LINE
  5
11D
330
1F
100
AcDbEntity
  8
0
  6
Continuous
 62
     7
100
AcDbLine
 10
0.7770097747
 20
0.4114657086
 30
0.0
 11
0.7762838049
 21
0.4124738254
 31
0.0
  0
LINE
  5
11E
330
1F
100
AcDbEntity
  8
0
  6
Continuous
 62
     7
100
AcDbLine
 10
0.7762838049
 20
0.4124738254
 30
0.0
 11
0.7729274824
 21
0.4188205902
 31
0.0
  0
LINE
  5
11F
330
1F
100
AcDbEntity
  8
0
  6
Continuous
 62
     7
100
AcDbLine
 10
0.7729274824
 20
0.4188205902
 30
0.0
 11
0.7642805096
 21
0.4343994504
 31
0.0
  0
LINE
  5
120
330
1F
100
AcDbEntity
  8
0
  6
Continuous
 62
     7
100
AcDbLine
 10
0.7642805096
 20
0.4343994504
 30
0.0
 11
0.7606697379
 21
0.4406049844
 31
0.0
  0
LINE
  5
121
330
1F
100
AcDbEntity
  8
0
  6
Continuous
 62
     7
100
AcDbLine
 10
0.7606697379
 20
0.4406049844
 30
0.0
 11
0.7601982173
 21
0.441754332
 31
0.0
  0
LINE
  5
122
330
1F
100
AcDbEntity
  8
0
  6
Continuous
 62
     7
100
AcDbLine
 10
0.7601982173
 20
0.441754332
 30
0.0
 11
0.7600895586
 21
0.4430969466
 31
0.0
  0
LINE
  5
123
330
1F
100
AcDbEntity
  8
0
  6
Continuous
 62
     7
100
AcDbLine
 10
0.7600895586
 20
0.4430969466
 30
0.0
 11
0.7603512627
 21
0.4446185168
 31
0.0
  0
LINE
  5
124
330
1F
100
AcDbEntity
  8
0
  6
Continuous
 62
     7
100
AcDbLine
 10
0.7603512627
 20
0.4446185168
 30
0.0
 11
0.7609903976
 21
0.4463045089
 31
0.0
  0
LINE
  5
125
330
1F
100
AcDbEntity
  8
0
  6
Continuous
 62
     7
100
AcDbLine
 10
0.7609903976
 20
0.4463045089
 30
0.0
 11
0.7620135932
 21
0.4481401796
 31
0.0
  0
LINE
  5
126
330
1F
100
AcDbEntity
  8
0
  6
Continuous
 62
     7
100
AcDbLine
 10
0.7620135932
 20
0.4481401796
 30
0.0
 11
0.7634270353
 21
0.4501105869
 31
0.0
  0
LINE
  5
127
330
1F
100
AcDbEntity
  8
0
  6
Continuous
 62
     7
100
AcDbLine
 10
0.7634270353
 20
0.4501105869
 30
0.0
 11
0.7680008727
 21
0.455521241
 31
0.0
  0
LINE
  5
128
330
1F
100
AcDbEntity
  8
0
  6
Continuous
 62
     7
100
AcDbLine
 10
0.7680008727
 20
0.455521241
 30
0.0
 11
0.7719525888
 21
0.4603928792
 31
0.0
  0
LINE
  5
129
330
1F
100
AcDbEntity
  8
0
  6
Continuous
 62
     7
100
AcDbLine
 10
0.7719525888
 20
0.4603928792
 30
0.0
 11
0.7760168461
 21
0.4656161745
 31
0.0
  0
LINE
  5
12A
330
1F
100
AcDbEntity
  8
0
  6
Continuous
 62
     7
100
AcDbLine
 10
0.7760168461
 20
0.4656161745
 30
0.0
 11
0.7801809267
 21
0.4711975778
 31
0.0
  0
LINE
  5
12B
330
1F
100
AcDbEntity
  8
0
  6
Continuous
 62
     7
100
AcDbLine
 10
0.7801809267
 20
0.4711975778
 30
0.0
 11
0.7844318998
 21
0.4771431674
 31
0.0
  0
LINE
  5
12C
330
1F
100
AcDbEntity
  8
0
  6
Continuous
 62
     7
100
AcDbLine
 10
0.7844318998
 20
0.4771431674
 30
0.0
 11
0.7887566317
 21
0.4834586428
 31
0.0
  0
LINE
  5
12D
330
1F
100
AcDbEntity
  8
0
  6
Continuous
 62
     7
100
AcDbLine
 10
0.7887566317
 20
0.4834586428
 30
0.0
 11
0.7931417956
 21
0.4901493189
 31
0.0
  0
LINE
  5
12E
330
1F
100
AcDbEntity
  8
0
  6
Continuous
 62
     7
100
AcDbLine
 10
0.7931417956
 20
0.4901493189
 30
0.0
 11
0.7975738812
 21
0.4972201204
 31
0.0
  0
LINE
  5
12F
330
1F
100
AcDbEntity
  8
0
  6
Continuous
 62
     7
100
AcDbLine
 10
0.7975738812
 20
0.4972201204
 30
0.0
 11
0.8020392081
 21
0.5046755796
 31
0.0
  0
LINE
  5
130
330
1F
100
AcDbEntity
  8
0
  6
Continuous
 62
     7
100
AcDbLine
 10
0.8020392081
 20
0.5046755796
 30
0.0
 11
0.8065239312
 21
0.5125198246
 31
0.0
  0
LINE
  5
131
330
1F
100
AcDbEntity
  8
0
  6
Continuous
 62
     7
100
AcDbLine
 10
0.8065239312
 20
0.5125198246
 30
0.0
 11
0.8110140557
 21
0.5207565818
 31
0.0
  0
LINE
  5
132
330
1F
100
AcDbEntity
  8
0
  6
Continuous
 62
     7
100
AcDbLine
 10
0.8110140557
 20
0.5207565818
 30
0.0
 11
0.8154954459
 21
0.529389168
 31
0.0
  0
LINE
  5
133
330
1F
100
AcDbEntity
  8
0
  6
Continuous
 62
     7
100
AcDbLine
 10
0.8154954459
 20
0.529389168
 30
0.0
 11
0.8199538365
 21
0.5384204868
 31
0.0
  0
LINE
  5
134
330
1F
100
AcDbEntity
  8
0
  6
Continuous
 62
     7
100
AcDbLine
 10
0.8199538365
 20
0.5384204868
 30
0.0
 11
0.8243748434
 21
0.5478530248
 31
0.0
  0
LINE
  5
135
330
1F
100
AcDbEntity
  8
0
  6
Continuous
 62
     7
100
AcDbLine
 10
0.8243748434
 20
0.5478530248
 30
0.0
 11
0.8287439749
 21
0.5576888484
 31
0.0
  0
LINE
  5
136
330
1F
100
AcDbEntity
  8
0
  6
Continuous
 62
     7
100
AcDbLine
 10
0.8287439749
 20
0.5576888484
 30
0.0
 11
0.8288115727
 21
0.5578497375
 31
0.0
  0
LINE
  5
137
330
1F
100
AcDbEntity
  8
0
  6
Continuous
 62
     7
100
AcDbLine
 10
0.8288115727
 20
0.5578497375
 30
0.0
 11
0.8211964348
 21
0.5715695875
 31
0.0
  0
LINE
  5
138
330
1F
100
AcDbEntity
  8
0
  6
Continuous
 62
     7
100
AcDbLine
 10
0.8211964348
 20
0.5715695875
 30
0.0
 11
0.8109753936
 21
0.5834756753
 31
0.0
  0
LINE
  5
139
330
1F
100
AcDbEntity
  8
0
  6
Continuous
 62
     7
100
AcDbLine
 10
0.8109753936
 20
0.5834756753
 30
0.0
 11
0.8108010425
 21
0.583468163
 31
0.0
  0
LINE
  5
13A
330
1F
100
AcDbEntity
  8
0
  6
Continuous
 62
     7
100
AcDbLine
 10
0.8108010425
 20
0.583468163
 30
0.0
 11
0.8000600556
 21
0.5827870338
 31
0.0
  0
LINE
  5
13B
330
1F
100
AcDbEntity
  8
0
  6
Continuous
 62
     7
100
AcDbLine
 10
0.8000600556
 20
0.5827870338
 30
0.0
 11
0.789679234
 21
0.5819171952
 31
0.0
  0
LINE
  5
13C
330
1F
100
AcDbEntity
  8
0
  6
Continuous
 62
     7
100
AcDbLine
 10
0.789679234
 20
0.5819171952
 30
0.0
 11
0.779661673
 21
0.5808729543
 31
0.0
  0
LINE
  5
13D
330
1F
100
AcDbEntity
  8
0
  6
Continuous
 62
     7
100
AcDbLine
 10
0.779661673
 20
0.5808729543
 30
0.0
 11
0.7700100366
 21
0.5796686636
 31
0.0
  0
LINE
  5
13E
330
1F
100
AcDbEntity
  8
0
  6
Continuous
 62
     7
100
AcDbLine
 10
0.7700100366
 20
0.5796686636
 30
0.0
 11
0.7607265561
 21
0.5783187088
 31
0.0
  0
LINE
  5
13F
330
1F
100
AcDbEntity
  8
0
  6
Continuous
 62
     7
100
AcDbLine
 10
0.7607265561
 20
0.5783187088
 30
0.0
 11
0.7518130308
 21
0.5768374977
 31
0.0
  0
LINE
  5
140
330
1F
100
AcDbEntity
  8
0
  6
Continuous
 62
     7
100
AcDbLine
 10
0.7518130308
 20
0.5768374977
 30
0.0
 11
0.7432708273
 21
0.5752394481
 31
0.0
  0
LINE
  5
141
330
1F
100
AcDbEntity
  8
0
  6
Continuous
 62
     7
100
AcDbLine
 10
0.7432708273
 20
0.5752394481
 30
0.0
 11
0.7351008807
 21
0.5735389767
 31
0.0
  0
LINE
  5
142
330
1F
100
AcDbEntity
  8
0
  6
Continuous
 62
     7
100
AcDbLine
 10
0.7351008807
 20
0.5735389767
 30
0.0
 11
0.7273036945
 21
0.571750487
 31
0.0
  0
LINE
  5
143
330
1F
100
AcDbEntity
  8
0
  6
Continuous
 62
     7
100
AcDbLine
 10
0.7273036945
 20
0.571750487
 30
0.0
 11
0.7198793419
 21
0.5698883582
 31
0.0
  0
LINE
  5
144
330
1F
100
AcDbEntity
  8
0
  6
Continuous
 62
     7
100
AcDbLine
 10
0.7198793419
 20
0.5698883582
 30
0.0
 11
0.7128274673
 21
0.5679669335
 31
0.0
  0
LINE
  5
145
330
1F
100
AcDbEntity
  8
0
  6
Continuous
 62
     7
100
AcDbLine
 10
0.7128274673
 20
0.5679669335
 30
0.0
 11
0.7061472873
 21
0.5660005088
 31
0.0
  0
LINE
  5
146
330
1F
100
AcDbEntity
  8
0
  6
Continuous
 62
     7
100
AcDbLine
 10
0.7061472873
 20
0.5660005088
 30
0.0
 11
0.6998383229
 21
0.5640035681
 31
0.0
  0
LINE
  5
147
330
1F
100
AcDbEntity
  8
0
  6
Continuous
 62
     7
100
AcDbLine
 10
0.6998383229
 20
0.5640035681
 30
0.0
 11
0.6938969366
 21
0.5619896027
 31
0.0
  0
LINE
  5
148
330
1F
100
AcDbEntity
  8
0
  6
Continuous
 62
     7
100
AcDbLine
 10
0.6938969366
 20
0.5619896027
 30
0.0
 11
0.6872343821
 21
0.5595795589
 31
0.0
  0
LINE
  5
149
330
1F
100
AcDbEntity
  8
0
  6
Continuous
 62
     7
100
AcDbLine
 10
0.6872343821
 20
0.5595795589
 30
0.0
 11
0.6848957294
 21
0.5589384429
 31
0.0
  0
LINE
  5
14A
330
1F
100
AcDbEntity
  8
0
  6
Continuous
 62
     7
100
AcDbLine
 10
0.6848957294
 20
0.5589384429
 30
0.0
 11
0.6828189499
 21
0.5586165226
 31
0.0
  0
LINE
  5
14B
330
1F
100
AcDbEntity
  8
0
  6
Continuous
 62
     7
100
AcDbLine
 10
0.6828189499
 20
0.5586165226
 30
0.0
 11
0.6810159496
 21
0.5586026714
 31
0.0
  0
LINE
  5
14C
330
1F
100
AcDbEntity
  8
0
  6
Continuous
 62
     7
100
AcDbLine
 10
0.6810159496
 20
0.5586026714
 30
0.0
 11
0.6794982028
 21
0.5588857071
 31
0.0
  0
LINE
  5
14D
330
1F
100
AcDbEntity
  8
0
  6
Continuous
 62
     7
100
AcDbLine
 10
0.6794982028
 20
0.5588857071
 30
0.0
 11
0.6782769007
 21
0.5594538991
 31
0.0
  0
LINE
  5
14E
330
1F
100
AcDbEntity
  8
0
  6
Continuous
 62
     7
100
AcDbLine
 10
0.6782769007
 20
0.5594538991
 30
0.0
 11
0.6773628592
 21
0.5602952431
 31
0.0
  0
LINE
  5
14F
330
1F
100
AcDbEntity
  8
0
  6
Continuous
 62
     7
100
AcDbLine
 10
0.6773628592
 20
0.5602952431
 30
0.0
 11
0.6727976464
 21
0.5658364664
 31
0.0
  0
LINE
  5
150
330
1F
100
AcDbEntity
  8
0
  6
Continuous
 62
     7
100
AcDbLine
 10
0.6727976464
 20
0.5658364664
 30
0.0
 11
0.6611916761
 21
0.5793558036
 31
0.0
  0
LINE
  5
151
330
1F
100
AcDbEntity
  8
0
  6
Continuous
 62
     7
100
AcDbLine
 10
0.6611916761
 20
0.5793558036
 30
0.0
 11
0.6564056524
 21
0.584707467
 31
0.0
  0
LINE
  5
152
330
1F
100
AcDbEntity
  8
0
  6
Continuous
 62
     7
100
AcDbLine
 10
0.6564056524
 20
0.584707467
 30
0.0
 11
0.6557124218
 21
0.5857383709
 31
0.0
  0
LINE
  5
153
330
1F
100
AcDbEntity
  8
0
  6
Continuous
 62
     7
100
AcDbLine
 10
0.6557124218
 20
0.5857383709
 30
0.0
 11
0.6553357211
 21
0.5870316294
 31
0.0
  0
LINE
  5
154
330
1F
100
AcDbEntity
  8
0
  6
Continuous
 62
     7
100
AcDbLine
 10
0.6553357211
 20
0.5870316294
 30
0.0
 11
0.6552857782
 21
0.5885747335
 31
0.0
  0
LINE
  5
155
330
1F
100
AcDbEntity
  8
0
  6
Continuous
 62
     7
100
AcDbLine
 10
0.6552857782
 20
0.5885747335
 30
0.0
 11
0.6555724423
 21
0.5903548703
 31
0.0
  0
LINE
  5
156
330
1F
100
AcDbEntity
  8
0
  6
Continuous
 62
     7
100
AcDbLine
 10
0.6555724423
 20
0.5903548703
 30
0.0
 11
0.6562051753
 21
0.5923589324
 31
0.0
  0
LINE
  5
157
330
1F
100
AcDbEntity
  8
0
  6
Continuous
 62
     7
100
AcDbLine
 10
0.6562051753
 20
0.5923589324
 30
0.0
 11
0.6571930441
 21
0.5945735291
 31
0.0
  0
LINE
  5
158
330
1F
100
AcDbEntity
  8
0
  6
Continuous
 62
     7
100
AcDbLine
 10
0.6571930441
 20
0.5945735291
 30
0.0
 11
0.660584098
 21
0.6007941336
 31
0.0
  0
LINE
  5
159
330
1F
100
AcDbEntity
  8
0
  6
Continuous
 62
     7
100
AcDbLine
 10
0.660584098
 20
0.6007941336
 30
0.0
 11
0.6634742687
 21
0.6063615237
 31
0.0
  0
LINE
  5
15A
330
1F
100
AcDbEntity
  8
0
  6
Continuous
 62
     7
100
AcDbLine
 10
0.6634742687
 20
0.6063615237
 30
0.0
 11
0.6664038888
 21
0.6122960267
 31
0.0
  0
LINE
  5
15B
330
1F
100
AcDbEntity
  8
0
  6
Continuous
 62
     7
100
AcDbLine
 10
0.6664038888
 20
0.6122960267
 30
0.0
 11
0.6693592022
 21
0.6186014017
 31
0.0
  0
LINE
  5
15C
330
1F
100
AcDbEntity
  8
0
  6
Continuous
 62
     7
100
AcDbLine
 10
0.6693592022
 20
0.6186014017
 30
0.0
 11
0.6723263193
 21
0.6252809993
 31
0.0
  0
LINE
  5
15D
330
1F
100
AcDbEntity
  8
0
  6
Continuous
 62
     7
100
AcDbLine
 10
0.6723263193
 20
0.6252809993
 30
0.0
 11
0.6752912278
 21
0.6323377586
 31
0.0
  0
LINE
  5
15E
330
1F
100
AcDbEntity
  8
0
  6
Continuous
 62
     7
100
AcDbLine
 10
0.6752912278
 20
0.6323377586
 30
0.0
 11
0.6782398039
 21
0.6397742032
 31
0.0
  0
LINE
  5
15F
330
1F
100
AcDbEntity
  8
0
  6
Continuous
 62
     7
100
AcDbLine
 10
0.6782398039
 20
0.6397742032
 30
0.0
 11
0.6811578226
 21
0.6475924372
 31
0.0
  0
LINE
  5
160
330
1F
100
AcDbEntity
  8
0
  6
Continuous
 62
     7
100
AcDbLine
 10
0.6811578226
 20
0.6475924372
 30
0.0
 11
0.6840309711
 21
0.6557941465
 31
0.0
  0
LINE
  5
161
330
1F
100
AcDbEntity
  8
0
  6
Continuous
 62
     7
100
AcDbLine
 10
0.6840309711
 20
0.6557941465
 30
0.0
 11
0.6868448567
 21
0.6643805874
 31
0.0
  0
LINE
  5
162
330
1F
100
AcDbEntity
  8
0
  6
Continuous
 62
     7
100
AcDbLine
 10
0.6868448567
 20
0.6643805874
 30
0.0
 11
0.6895850211
 21
0.6733525932
 31
0.0
  0
LINE
  5
163
330
1F
100
AcDbEntity
  8
0
  6
Continuous
 62
     7
100
AcDbLine
 10
0.6895850211
 20
0.6733525932
 30
0.0
 11
0.6922369501
 21
0.682710567
 31
0.0
  0
LINE
  5
164
330
1F
100
AcDbEntity
  8
0
  6
Continuous
 62
     7
100
AcDbLine
 10
0.6922369501
 20
0.682710567
 30
0.0
 11
0.6947860861
 21
0.6924544816
 31
0.0
  0
LINE
  5
165
330
1F
100
AcDbEntity
  8
0
  6
Continuous
 62
     7
100
AcDbLine
 10
0.6947860861
 20
0.6924544816
 30
0.0
 11
0.6972178388
 21
0.7025838772
 31
0.0
  0
LINE
  5
166
330
1F
100
AcDbEntity
  8
0
  6
Continuous
 62
     7
100
AcDbLine
 10
0.6972178388
 20
0.7025838772
 30
0.0
 11
0.6995175972
 21
0.7130978606
 31
0.0
  0
LINE
  5
167
330
1F
100
AcDbEntity
  8
0
  6
Continuous
 62
     7
100
AcDbLine
 10
0.6995175972
 20
0.7130978606
 30
0.0
 11
0.6995514245
 21
0.7132690637
 31
0.0
  0
LINE
  5
168
330
1F
100
AcDbEntity
  8
0
  6
Continuous
 62
     7
100
AcDbLine
 10
0.6995514245
 20
0.7132690637
 30
0.0
 11
0.6893303834
 21
0.7251751515
 31
0.0
  0
LINE
  5
169
330
1F
100
AcDbEntity
  8
0
  6
Continuous
 62
     7
100
AcDbLine
 10
0.6893303834
 20
0.7251751515
 30
0.0
 11
0.6769218897
 21
0.7347800405
 31
0.0
  0
LINE
  5
16A
330
1F
100
AcDbEntity
  8
0
  6
Continuous
 62
     7
100
AcDbLine
 10
0.6769218897
 20
0.7347800405
 30
0.0
 11
0.6767526198
 21
0.7347375853
 31
0.0
  0
LINE
  5
16B
330
1F
100
AcDbEntity
  8
0
  6
Continuous
 62
     7
100
AcDbLine
 10
0.6767526198
 20
0.7347375853
 30
0.0
 11
0.6663686118
 21
0.7319082541
 31
0.0
  0
LINE
  5
16C
330
1F
100
AcDbEntity
  8
0
  6
Continuous
 62
     7
100
AcDbLine
 10
0.6663686118
 20
0.7319082541
 30
0.0
 11
0.6563753834
 21
0.7289665771
 31
0.0
  0
LINE
  5
16D
330
1F
100
AcDbEntity
  8
0
  6
Continuous
 62
     7
100
AcDbLine
 10
0.6563753834
 20
0.7289665771
 30
0.0
 11
0.6467730867
 21
0.7259271918
 31
0.0
  0
LINE
  5
16E
330
1F
100
AcDbEntity
  8
0
  6
Continuous
 62
     7
100
AcDbLine
 10
0.6467730867
 20
0.7259271918
 30
0.0
 11
0.6375614418
 21
0.7228046928
 31
0.0
  0
LINE
  5
16F
330
1F
100
AcDbEntity
  8
0
  6
Continuous
 62
     7
100
AcDbLine
 10
0.6375614418
 20
0.7228046928
 30
0.0
 11
0.6287397386
 21
0.7196136208
 31
0.0
  0
LINE
  5
170
330
1F
100
AcDbEntity
  8
0
  6
Continuous
 62
     7
100
AcDbLine
 10
0.6287397386
 20
0.7196136208
 30
0.0
 11
0.6203068392
 21
0.7163684507
 31
0.0
  0
LINE
  5
171
330
1F
100
AcDbEntity
  8
0
  6
Continuous
 62
     7
100
AcDbLine
 10
0.6203068392
 20
0.7163684507
 30
0.0
 11
0.6122611802
 21
0.7130835804
 31
0.0
  0
LINE
  5
172
330
1F
100
AcDbEntity
  8
0
  6
Continuous
 62
     7
100
AcDbLine
 10
0.6122611802
 20
0.7130835804
 30
0.0
 11
0.6046007753
 21
0.7097733195
 31
0.0
  0
LINE
  5
173
330
1F
100
AcDbEntity
  8
0
  6
Continuous
 62
     7
100
AcDbLine
 10
0.6046007753
 20
0.7097733195
 30
0.0
 11
0.5973232182
 21
0.7064518782
 31
0.0
  0
LINE
  5
174
330
1F
100
AcDbEntity
  8
0
  6
Continuous
 62
     7
100
AcDbLine
 10
0.5973232182
 20
0.7064518782
 30
0.0
 11
0.5904256864
 21
0.7031333562
 31
0.0
  0
LINE
  5
175
330
1F
100
AcDbEntity
  8
0
  6
Continuous
 62
     7
100
AcDbLine
 10
0.5904256864
 20
0.7031333562
 30
0.0
 11
0.583904944
 21
0.6998317313
 31
0.0
  0
LINE
  5
176
330
1F
100
AcDbEntity
  8
0
  6
Continuous
 62
     7
100
AcDbLine
 10
0.583904944
 20
0.6998317313
 30
0.0
 11
0.5777573461
 21
0.696560849
 31
0.0
  0
LINE
  5
177
330
1F
100
AcDbEntity
  8
0
  6
Continuous
 62
     7
100
AcDbLine
 10
0.5777573461
 20
0.696560849
 30
0.0
 11
0.5719795077
 21
0.6933348006
 31
0.0
  0
LINE
  5
178
330
1F
100
AcDbEntity
  8
0
  6
Continuous
 62
     7
100
AcDbLine
 10
0.5719795077
 20
0.6933348006
 30
0.0
 11
0.5665651502
 21
0.690166069
 31
0.0
  0
LINE
  5
179
330
1F
100
AcDbEntity
  8
0
  6
Continuous
 62
     7
100
AcDbLine
 10
0.5665651502
 20
0.690166069
 30
0.0
 11
0.5605241168
 21
0.6864641966
 31
0.0
  0
LINE
  5
17A
330
1F
100
AcDbEntity
  8
0
  6
Continuous
 62
     7
100
AcDbLine
 10
0.5605241168
 20
0.6864641966
 30
0.0
 11
0.5583623922
 21
0.6853654368
 31
0.0
  0
LINE
  5
17B
330
1F
100
AcDbEntity
  8
0
  6
Continuous
 62
     7
100
AcDbLine
 10
0.5583623922
 20
0.6853654368
 30
0.0
 11
0.5563929266
 21
0.6846320537
 31
0.0
  0
LINE
  5
17C
330
1F
100
AcDbEntity
  8
0
  6
Continuous
 62
     7
100
AcDbLine
 10
0.5563929266
 20
0.6846320537
 30
0.0
 11
0.5546296221
 21
0.6842555447
 31
0.0
  0
LINE
  5
17D
330
1F
100
AcDbEntity
  8
0
  6
Continuous
 62
     7
100
AcDbLine
 10
0.5546296221
 20
0.6842555447
 30
0.0
 11
0.5530859689
 21
0.6842272665
 31
0.0
  0
LINE
  5
17E
330
1F
100
AcDbEntity
  8
0
  6
Continuous
 62
     7
100
AcDbLine
 10
0.5530859689
 20
0.6842272665
 30
0.0
 11
0.5517752908
 21
0.6845379813
 31
0.0
  0
LINE
  5
17F
330
1F
100
AcDbEntity
  8
0
  6
Continuous
 62
     7
100
AcDbLine
 10
0.5517752908
 20
0.6845379813
 30
0.0
 11
0.5507105984
 21
0.6851781077
 31
0.0
  0
LINE
  5
180
330
1F
100
AcDbEntity
  8
0
  6
Continuous
 62
     7
100
AcDbLine
 10
0.5507105984
 20
0.6851781077
 30
0.0
 11
0.5451233958
 21
0.6896869313
 31
0.0
  0
LINE
  5
181
330
1F
100
AcDbEntity
  8
0
  6
Continuous
 62
     7
100
AcDbLine
 10
0.5451233958
 20
0.6896869313
 30
0.0
 11
0.5310335778
 21
0.7005932622
 31
0.0
  0
LINE
  5
182
330
1F
100
AcDbEntity
  8
0
  6
Continuous
 62
     7
100
AcDbLine
 10
0.5310335778
 20
0.7005932622
 30
0.0
 11
0.5252682423
 21
0.7048719572
 31
0.0
  0
LINE
  5
183
330
1F
100
AcDbEntity
  8
0
  6
Continuous
 62
     7
100
AcDbLine
 10
0.5252682423
 20
0.7048719572
 30
0.0
 11
0.5243816828
 21
0.7057422122
 31
0.0
  0
LINE
  5
184
330
1F
100
AcDbEntity
  8
0
  6
Continuous
 62
     7
100
AcDbLine
 10
0.5243816828
 20
0.7057422122
 30
0.0
 11
0.5237523621
 21
0.7069331683
 31
0.0
  0
LINE
  5
185
330
1F
100
AcDbEntity
  8
0
  6
Continuous
 62
     7
100
AcDbLine
 10
0.5237523621
 20
0.7069331683
 30
0.0
 11
0.523392817
 21
0.7084346315
 31
0.0
  0
LINE
  5
186
330
1F
100
AcDbEntity
  8
0
  6
Continuous
 62
     7
100
AcDbLine
 10
0.523392817
 20
0.7084346315
 30
0.0
 11
0.5233152742
 21
0.7102360338
 31
0.0
  0
LINE
  5
187
330
1F
100
AcDbEntity
  8
0
  6
Continuous
 62
     7
100
AcDbLine
 10
0.5233152742
 20
0.7102360338
 30
0.0
 11
0.5235316403
 21
0.7123264409
 31
0.0
  0
LINE
  5
188
330
1F
100
AcDbEntity
  8
0
  6
Continuous
 62
     7
100
AcDbLine
 10
0.5235316403
 20
0.7123264409
 30
0.0
 11
0.5240534923
 21
0.7146945612
 31
0.0
  0
LINE
  5
189
330
1F
100
AcDbEntity
  8
0
  6
Continuous
 62
     7
100
AcDbLine
 10
0.5240534923
 20
0.7146945612
 30
0.0
 11
0.5261229328
 21
0.7214704437
 31
0.0
  0
LINE
  5
18A
330
1F
100
AcDbEntity
  8
0
  6
Continuous
 62
     7
100
AcDbLine
 10
0.5261229328
 20
0.7214704437
 30
0.0
 11
0.5278332341
 21
0.727505656
 31
0.0
  0
LINE
  5
18B
330
1F
100
AcDbEntity
  8
0
  6
Continuous
 62
     7
100
AcDbLine
 10
0.5278332341
 20
0.727505656
 30
0.0
 11
0.529508278
 21
0.7339084077
 31
0.0
  0
LINE
  5
18C
330
1F
100
AcDbEntity
  8
0
  6
Continuous
 62
     7
100
AcDbLine
 10
0.529508278
 20
0.7339084077
 30
0.0
 11
0.5311338333
 21
0.7406796114
 31
0.0
  0
LINE
  5
18D
330
1F
100
AcDbEntity
  8
0
  6
Continuous
 62
     7
100
AcDbLine
 10
0.5311338333
 20
0.7406796114
 30
0.0
 11
0.5326956202
 21
0.7478197536
 31
0.0
  0
LINE
  5
18E
330
1F
100
AcDbEntity
  8
0
  6
Continuous
 62
     7
100
AcDbLine
 10
0.5326956202
 20
0.7478197536
 30
0.0
 11
0.5341793217
 21
0.7553288923
 31
0.0
  0
LINE
  5
18F
330
1F
100
AcDbEntity
  8
0
  6
Continuous
 62
     7
100
AcDbLine
 10
0.5341793217
 20
0.7553288923
 30
0.0
 11
0.535570595
 21
0.7632066564
 31
0.0
  0
LINE
  5
190
330
1F
100
AcDbEntity
  8
0
  6
Continuous
 62
     7
100
AcDbLine
 10
0.535570595
 20
0.7632066564
 30
0.0
 11
0.5368550827
 21
0.7714522436
 31
0.0
  0
LINE
  5
191
330
1F
100
AcDbEntity
  8
0
  6
Continuous
 62
     7
100
AcDbLine
 10
0.5368550827
 20
0.7714522436
 30
0.0
 11
0.5380184258
 21
0.780064424
 31
0.0
  0
LINE
  5
192
330
1F
100
AcDbEntity
  8
0
  6
Continuous
 62
     7
100
AcDbLine
 10
0.5380184258
 20
0.780064424
 30
0.0
 11
0.5390462732
 21
0.789041531
 31
0.0
  0
LINE
  5
193
330
1F
100
AcDbEntity
  8
0
  6
Continuous
 62
     7
100
AcDbLine
 10
0.5390462732
 20
0.789041531
 30
0.0
 11
0.5399242947
 21
0.7983814702
 31
0.0
  0
LINE
  5
194
330
1F
100
AcDbEntity
  8
0
  6
Continuous
 62
     7
100
AcDbLine
 10
0.5399242947
 20
0.7983814702
 30
0.0
 11
0.5406381923
 21
0.8080817152
 31
0.0
  0
LINE
  5
195
330
1F
100
AcDbEntity
  8
0
  6
Continuous
 62
     7
100
AcDbLine
 10
0.5406381923
 20
0.8080817152
 30
0.0
 11
0.5411737118
 21
0.8181393086
 31
0.0
  0
LINE
  5
196
330
1F
100
AcDbEntity
  8
0
  6
Continuous
 62
     7
100
AcDbLine
 10
0.5411737118
 20
0.8181393086
 30
0.0
 11
0.541516654
 21
0.8285508631
 31
0.0
  0
LINE
  5
197
330
1F
100
AcDbEntity
  8
0
  6
Continuous
 62
     7
100
AcDbLine
 10
0.541516654
 20
0.8285508631
 30
0.0
 11
0.5416528869
 21
0.8393125626
 31
0.0
  0
LINE
  5
198
330
1F
100
AcDbEntity
  8
0
  6
Continuous
 62
     7
100
AcDbLine
 10
0.5416528869
 20
0.8393125626
 30
0.0
 11
0.5416515588
 21
0.8394870705
 31
0.0
  0
LINE
  5
199
330
1F
100
AcDbEntity
  8
0
  6
Continuous
 62
     7
100
AcDbLine
 10
0.5416515588
 20
0.8394870705
 30
0.0
 11
0.5292430652
 21
0.8490919596
 31
0.0
  0
LINE
  5
19A
330
1F
100
AcDbEntity
  8
0
  6
Continuous
 62
     7
100
AcDbLine
 10
0.5292430652
 20
0.8490919596
 30
0.0
 11
0.5151551241
 21
0.8560024246
 31
0.0
  0
LINE
  5
19B
330
1F
100
AcDbEntity
  8
0
  6
Continuous
 62
     7
100
AcDbLine
 10
0.5151551241
 20
0.8560024246
 30
0.0
 11
0.5149978653
 21
0.8559267646
 31
0.0
  0
LINE
  5
19C
330
1F
100
AcDbEntity
  8
0
  6
Continuous
 62
     7
100
AcDbLine
 10
0.5149978653
 20
0.8559267646
 30
0.0
 11
0.5053959588
 21
0.8510650646
 31
0.0
  0
LINE
  5
19D
330
1F
100
AcDbEntity
  8
0
  6
Continuous
 62
     7
100
AcDbLine
 10
0.5053959588
 20
0.8510650646
 30
0.0
 11
0.4961994476
 21
0.8461719818
 31
0.0
  0
LINE
  5
19E
330
1F
100
AcDbEntity
  8
0
  6
Continuous
 62
     7
100
AcDbLine
 10
0.4961994476
 20
0.8461719818
 30
0.0
 11
0.4874055343
 21
0.8412618847
 31
0.0
  0
LINE
  5
19F
330
1F
100
AcDbEntity
  8
0
  6
Continuous
 62
     7
100
AcDbLine
 10
0.4874055343
 20
0.8412618847
 30
0.0
 11
0.4790110066
 21
0.836349013
 31
0.0
  0
LINE
  5
1A0
330
1F
100
AcDbEntity
  8
0
  6
Continuous
 62
     7
100
AcDbLine
 10
0.4790110066
 20
0.836349013
 30
0.0
 11
0.4710122423
 21
0.8314474666
 31
0.0
  0
LINE
  5
1A1
330
1F
100
AcDbEntity
  8
0
  6
Continuous
 62
     7
100
AcDbLine
 10
0.4710122423
 20
0.8314474666
 30
0.0
 11
0.4634052128
 21
0.8265711952
 31
0.0
  0
LINE
  5
1A2
330
1F
100
AcDbEntity
  8
0
  6
Continuous
 62
     7
100
AcDbLine
 10
0.4634052128
 20
0.8265711952
 30
0.0
 11
0.4561854885
 21
0.8217339871
 31
0.0
  0
LINE
  5
1A3
330
1F
100
AcDbEntity
  8
0
  6
Continuous
 62
     7
100
AcDbLine
 10
0.4561854885
 20
0.8217339871
 30
0.0
 11
0.4493482431
 21
0.8169494593
 31
0.0
  0
LINE
  5
1A4
330
1F
100
AcDbEntity
  8
0
  6
Continuous
 62
     7
100
AcDbLine
 10
0.4493482431
 20
0.8169494593
 30
0.0
 11
0.4428882592
 21
0.8122310466
 31
0.0
  0
LINE
  5
1A5
330
1F
100
AcDbEntity
  8
0
  6
Continuous
 62
     7
100
AcDbLine
 10
0.4428882592
 20
0.8122310466
 30
0.0
 11
0.4367999338
 21
0.807591992
 31
0.0
  0
LINE
  5
1A6
330
1F
100
AcDbEntity
  8
0
  6
Continuous
 62
     7
100
AcDbLine
 10
0.4367999338
 20
0.807591992
 30
0.0
 11
0.4310772836
 21
0.8030453357
 31
0.0
  0
LINE
  5
1A7
330
1F
100
AcDbEntity
  8
0
  6
Continuous
 62
     7
100
AcDbLine
 10
0.4310772836
 20
0.8030453357
 30
0.0
 11
0.4257139512
 21
0.7986039062
 31
0.0
  0
LINE
  5
1A8
330
1F
100
AcDbEntity
  8
0
  6
Continuous
 62
     7
100
AcDbLine
 10
0.4257139512
 20
0.7986039062
 30
0.0
 11
0.4207037843
 21
0.7942808249
 31
0.0
  0
LINE
  5
1A9
330
1F
100
AcDbEntity
  8
0
  6
Continuous
 62
     7
100
AcDbLine
 10
0.4207037843
 20
0.7942808249
 30
0.0
 11
0.41603812
 21
0.7900870553
 31
0.0
  0
LINE
  5
1AA
330
1F
100
AcDbEntity
  8
0
  6
Continuous
 62
     7
100
AcDbLine
 10
0.41603812
 20
0.7900870553
 30
0.0
 11
0.4108659284
 21
0.7852449093
 31
0.0
  0
LINE
  5
1AB
330
1F
100
AcDbEntity
  8
0
  6
Continuous
 62
     7
100
AcDbLine
 10
0.4108659284
 20
0.7852449093
 30
0.0
 11
0.4089696331
 21
0.7837334893
 31
0.0
  0
LINE
  5
1AC
330
1F
100
AcDbEntity
  8
0
  6
Continuous
 62
     7
100
AcDbLine
 10
0.4089696331
 20
0.7837334893
 30
0.0
 11
0.4071881114
 21
0.782618668
 31
0.0
  0
LINE
  5
1AD
330
1F
100
AcDbEntity
  8
0
  6
Continuous
 62
     7
100
AcDbLine
 10
0.4071881114
 20
0.782618668
 30
0.0
 11
0.4055366926
 21
0.7818949156
 31
0.0
  0
LINE
  5
1AE
330
1F
100
AcDbEntity
  8
0
  6
Continuous
 62
     7
100
AcDbLine
 10
0.4055366926
 20
0.7818949156
 30
0.0
 11
0.4040303305
 21
0.7815564812
 31
0.0
  0
LINE
  5
1AF
330
1F
100
AcDbEntity
  8
0
  6
Continuous
 62
     7
100
AcDbLine
 10
0.4040303305
 20
0.7815564812
 30
0.0
 11
0.4026839356
 21
0.781596998
 31
0.0
  0
LINE
  5
1B0
330
1F
100
AcDbEntity
  8
0
  6
Continuous
 62
     7
100
AcDbLine
 10
0.4026839356
 20
0.781596998
 30
0.0
 11
0.4015121811
 21
0.7820097
 31
0.0
  0
LINE
  5
1B1
330
1F
100
AcDbEntity
  8
0
  6
Continuous
 62
     7
100
AcDbLine
 10
0.4015121811
 20
0.7820097
 30
0.0
 11
0.3951317292
 21
0.7853015321
 31
0.0
  0
LINE
  5
1B2
330
1F
100
AcDbEntity
  8
0
  6
Continuous
 62
     7
100
AcDbLine
 10
0.3951317292
 20
0.7853015321
 30
0.0
 11
0.3791349024
 21
0.7931483503
 31
0.0
  0
LINE
  5
1B3
330
1F
100
AcDbEntity
  8
0
  6
Continuous
 62
     7
100
AcDbLine
 10
0.3791349024
 20
0.7931483503
 30
0.0
 11
0.3726262887
 21
0.7961789067
 31
0.0
  0
LINE
  5
1B4
330
1F
100
AcDbEntity
  8
0
  6
Continuous
 62
     7
100
AcDbLine
 10
0.3726262887
 20
0.7961789067
 30
0.0
 11
0.3715826961
 21
0.7968528844
 31
0.0
  0
LINE
  5
1B5
330
1F
100
AcDbEntity
  8
0
  6
Continuous
 62
     7
100
AcDbLine
 10
0.3715826961
 20
0.7968528844
 30
0.0
 11
0.3707265199
 21
0.7978927802
 31
0.0
  0
LINE
  5
1B6
330
1F
100
AcDbEntity
  8
0
  6
Continuous
 62
     7
100
AcDbLine
 10
0.3707265199
 20
0.7978927802
 30
0.0
 11
0.3700720924
 21
0.7992911325
 31
0.0
  0
LINE
  5
1B7
330
1F
100
AcDbEntity
  8
0
  6
Continuous
 62
     7
100
AcDbLine
 10
0.3700720924
 20
0.7992911325
 30
0.0
 11
0.3696335173
 21
0.8010400507
 31
0.0
  0
LINE
  5
1B8
330
1F
100
AcDbEntity
  8
0
  6
Continuous
 62
     7
100
AcDbLine
 10
0.3696335173
 20
0.8010400507
 30
0.0
 11
0.3694246585
 21
0.8031312212
 31
0.0
  0
LINE
  5
1B9
330
1F
100
AcDbEntity
  8
0
  6
Continuous
 62
     7
100
AcDbLine
 10
0.3694246585
 20
0.8031312212
 30
0.0
 11
0.3694591291
 21
0.805555914
 31
0.0
  0
LINE
  5
1BA
330
1F
100
AcDbEntity
  8
0
  6
Continuous
 62
     7
100
AcDbLine
 10
0.3694591291
 20
0.805555914
 30
0.0
 11
0.3701222328
 21
0.8126096691
 31
0.0
  0
LINE
  5
1BB
330
1F
100
AcDbEntity
  8
0
  6
Continuous
 62
     7
100
AcDbLine
 10
0.3701222328
 20
0.8126096691
 30
0.0
 11
0.3705826449
 21
0.8188656214
 31
0.0
  0
LINE
  5
1BC
330
1F
100
AcDbEntity
  8
0
  6
Continuous
 62
     7
100
AcDbLine
 10
0.3705826449
 20
0.8188656214
 30
0.0
 11
0.3709345361
 21
0.8254744922
 31
0.0
  0
LINE
  5
1BD
330
1F
100
AcDbEntity
  8
0
  6
Continuous
 62
     7
100
AcDbLine
 10
0.3709345361
 20
0.8254744922
 30
0.0
 11
0.3711637829
 21
0.8324343109
 31
0.0
  0
LINE
  5
1BE
330
1F
100
AcDbEntity
  8
0
  6
Continuous
 62
     7
100
AcDbLine
 10
0.3711637829
 20
0.8324343109
 30
0.0
 11
0.3712562999
 21
0.8397426793
 31
0.0
  0
LINE
  5
1BF
330
1F
100
AcDbEntity
  8
0
  6
Continuous
 62
     7
100
AcDbLine
 10
0.3712562999
 20
0.8397426793
 30
0.0
 11
0.3711980514
 21
0.8473967724
 31
0.0
  0
LINE
  5
1C0
330
1F
100
AcDbEntity
  8
0
  6
Continuous
 62
     7
100
AcDbLine
 10
0.3711980514
 20
0.8473967724
 30
0.0
 11
0.370975063
 21
0.8553933395
 31
0.0
  0
LINE
  5
1C1
330
1F
100
AcDbEntity
  8
0
  6
Continuous
 62
     7
100
AcDbLine
 10
0.370975063
 20
0.8553933395
 30
0.0
 11
0.3705734326
 21
0.8637287045
 31
0.0
  0
LINE
  5
1C2
330
1F
100
AcDbEntity
  8
0
  6
Continuous
 62
     7
100
AcDbLine
 10
0.3705734326
 20
0.8637287045
 30
0.0
 11
0.3699793429
 21
0.8723987723
 31
0.0
  0
LINE
  5
1C3
330
1F
100
AcDbEntity
  8
0
  6
Continuous
 62
     7
100
AcDbLine
 10
0.3699793429
 20
0.8723987723
 30
0.0
 11
0.3691790718
 21
0.8813990215
 31
0.0
  0
LINE
  5
1C4
330
1F
100
AcDbEntity
  8
0
  6
Continuous
 62
     7
100
AcDbLine
 10
0.3691790718
 20
0.8813990215
 30
0.0
 11
0.3681590042
 21
0.8907245161
 31
0.0
  0
LINE
  5
1C5
330
1F
100
AcDbEntity
  8
0
  6
Continuous
 62
     7
100
AcDbLine
 10
0.3681590042
 20
0.8907245161
 30
0.0
 11
0.3669056434
 21
0.9003699031
 31
0.0
  0
LINE
  5
1C6
330
1F
100
AcDbEntity
  8
0
  6
Continuous
 62
     7
100
AcDbLine
 10
0.3669056434
 20
0.9003699031
 30
0.0
 11
0.365405622
 21
0.9103294162
 31
0.0
  0
LINE
  5
1C7
330
1F
100
AcDbEntity
  8
0
  6
Continuous
 62
     7
100
AcDbLine
 10
0.365405622
 20
0.9103294162
 30
0.0
 11
0.3636457137
 21
0.9205968793
 31
0.0
  0
LINE
  5
1C8
330
1F
100
AcDbEntity
  8
0
  6
Continuous
 62
     7
100
AcDbLine
 10
0.3636457137
 20
0.9205968793
 30
0.0
 11
0.3616128437
 21
0.9311657097
 31
0.0
  0
LINE
  5
1C9
330
1F
100
AcDbEntity
  8
0
  6
Continuous
 62
     7
100
AcDbLine
 10
0.3616128437
 20
0.9311657097
 30
0.0
 11
0.3615764147
 21
0.9313363781
 31
0.0
  0
LINE
  5
1CA
330
1F
100
AcDbEntity
  8
0
  6
Continuous
 62
     7
100
AcDbLine
 10
0.3615764147
 20
0.9313363781
 30
0.0
 11
0.3474884736
 21
0.938246843
 31
0.0
  0
LINE
  5
1CB
330
1F
100
AcDbEntity
  8
0
  6
Continuous
 62
     7
100
AcDbLine
 10
0.3474884736
 20
0.938246843
 30
0.0
 11
0.3322978472
 21
0.9421799687
 31
0.0
  0
LINE
  5
1CC
330
1F
100
AcDbEntity
  8
0
  6
Continuous
 62
     7
100
AcDbLine
 10
0.3322978472
 20
0.9421799687
 30
0.0
 11
0.3321590377
 21
0.9420742016
 31
0.0
  0
LINE
  5
1CD
330
1F
100
AcDbEntity
  8
0
  6
Continuous
 62
     7
100
AcDbLine
 10
0.3321590377
 20
0.9420742016
 30
0.0
 11
0.3237323358
 21
0.9353791713
 31
0.0
  0
LINE
  5
1CE
330
1F
100
AcDbEntity
  8
0
  6
Continuous
 62
     7
100
AcDbLine
 10
0.3237323358
 20
0.9353791713
 30
0.0
 11
0.3157090481
 21
0.9287350061
 31
0.0
  0
LINE
  5
1CF
330
1F
100
AcDbEntity
  8
0
  6
Continuous
 62
     7
100
AcDbLine
 10
0.3157090481
 20
0.9287350061
 30
0.0
 11
0.3080835419
 21
0.9221552172
 31
0.0
  0
LINE
  5
1D0
330
1F
100
AcDbEntity
  8
0
  6
Continuous
 62
     7
100
AcDbLine
 10
0.3080835419
 20
0.9221552172
 30
0.0
 11
0.3008498046
 21
0.9156531063
 31
0.0
  0
LINE
  5
1D1
330
1F
100
AcDbEntity
  8
0
  6
Continuous
 62
     7
100
AcDbLine
 10
0.3008498046
 20
0.9156531063
 30
0.0
 11
0.2940014495
 21
0.9092417555
 31
0.0
  0
LINE
  5
1D2
330
1F
100
AcDbEntity
  8
0
  6
Continuous
 62
     7
100
AcDbLine
 10
0.2940014495
 20
0.9092417555
 30
0.0
 11
0.2875317226
 21
0.9029340178
 31
0.0
  0
LINE
  5
1D3
330
1F
100
AcDbEntity
  8
0
  6
Continuous
 62
     7
100
AcDbLine
 10
0.2875317226
 20
0.9029340178
 30
0.0
 11
0.2814335092
 21
0.8967425078
 31
0.0
  0
LINE
  5
1D4
330
1F
100
AcDbEntity
  8
0
  6
Continuous
 62
     7
100
AcDbLine
 10
0.2814335092
 20
0.8967425078
 30
0.0
 11
0.275699341
 21
0.8906795922
 31
0.0
  0
LINE
  5
1D5
330
1F
100
AcDbEntity
  8
0
  6
Continuous
 62
     7
100
AcDbLine
 10
0.275699341
 20
0.8906795922
 30
0.0
 11
0.2703214029
 21
0.8847573805
 31
0.0
  0
LINE
  5
1D6
330
1F
100
AcDbEntity
  8
0
  6
Continuous
 62
     7
100
AcDbLine
 10
0.2703214029
 20
0.8847573805
 30
0.0
 11
0.2652915407
 21
0.8789877167
 31
0.0
  0
LINE
  5
1D7
330
1F
100
AcDbEntity
  8
0
  6
Continuous
 62
     7
100
AcDbLine
 10
0.2652915407
 20
0.8789877167
 30
0.0
 11
0.2606012687
 21
0.8733821698
 31
0.0
  0
LINE
  5
1D8
330
1F
100
AcDbEntity
  8
0
  6
Continuous
 62
     7
100
AcDbLine
 10
0.2606012687
 20
0.8733821698
 30
0.0
 11
0.2562417772
 21
0.8679520257
 31
0.0
  0
LINE
  5
1D9
330
1F
100
AcDbEntity
  8
0
  6
Continuous
 62
     7
100
AcDbLine
 10
0.2562417772
 20
0.8679520257
 30
0.0
 11
0.2522043985
 21
0.862708899
 31
0.0
  0
LINE
  5
1DA
330
1F
100
AcDbEntity
  8
0
  6
Continuous
 62
     7
100
AcDbLine
 10
0.2522043985
 20
0.862708899
 30
0.0
 11
0.2484784402
 21
0.8576617847
 31
0.0
  0
LINE
  5
1DB
330
1F
100
AcDbEntity
  8
0
  6
Continuous
 62
     7
100
AcDbLine
 10
0.2484784402
 20
0.8576617847
 30
0.0
 11
0.2443868405
 21
0.8518776032
 31
0.0
  0
LINE
  5
1DC
330
1F
100
AcDbEntity
  8
0
  6
Continuous
 62
     7
100
AcDbLine
 10
0.2443868405
 20
0.8518776032
 30
0.0
 11
0.2428336091
 21
0.8500154006
 31
0.0
  0
LINE
  5
1DD
330
1F
100
AcDbEntity
  8
0
  6
Continuous
 62
     7
100
AcDbLine
 10
0.2428336091
 20
0.8500154006
 30
0.0
 11
0.2413129672
 21
0.8485647822
 31
0.0
  0
LINE
  5
1DE
330
1F
100
AcDbEntity
  8
0
  6
Continuous
 62
     7
100
AcDbLine
 10
0.2413129672
 20
0.8485647822
 30
0.0
 11
0.2398410433
 21
0.8475234168
 31
0.0
  0
LINE
  5
1DF
330
1F
100
AcDbEntity
  8
0
  6
Continuous
 62
     7
100
AcDbLine
 10
0.2398410433
 20
0.8475234168
 30
0.0
 11
0.2384336429
 21
0.8468886817
 31
0.0
  0
LINE
  5
1E0
330
1F
100
AcDbEntity
  8
0
  6
Continuous
 62
     7
100
AcDbLine
 10
0.2384336429
 20
0.8468886817
 30
0.0
 11
0.2371066528
 21
0.8466573419
 31
0.0
  0
LINE
  5
1E1
330
1F
100
AcDbEntity
  8
0
  6
Continuous
 62
     7
100
AcDbLine
 10
0.2371066528
 20
0.8466573419
 30
0.0
 11
0.2358758078
 21
0.8468257233
 31
0.0
  0
LINE
  5
1E2
330
1F
100
AcDbEntity
  8
0
  6
Continuous
 62
     7
100
AcDbLine
 10
0.2358758078
 20
0.8468257233
 30
0.0
 11
0.2289633233
 21
0.8487657959
 31
0.0
  0
LINE
  5
1E3
330
1F
100
AcDbEntity
  8
0
  6
Continuous
 62
     7
100
AcDbLine
 10
0.2289633233
 20
0.8487657959
 30
0.0
 11
0.2117143996
 21
0.8532318517
 31
0.0
  0
LINE
  5
1E4
330
1F
100
AcDbEntity
  8
0
  6
Continuous
 62
     7
100
AcDbLine
 10
0.2117143996
 20
0.8532318517
 30
0.0
 11
0.2047289711
 21
0.8548901981
 31
0.0
  0
LINE
  5
1E5
330
1F
100
AcDbEntity
  8
0
  6
Continuous
 62
     7
100
AcDbLine
 10
0.2047289711
 20
0.8548901981
 30
0.0
 11
0.2035710701
 21
0.8553403058
 31
0.0
  0
LINE
  5
1E6
330
1F
100
AcDbEntity
  8
0
  6
Continuous
 62
     7
100
AcDbLine
 10
0.2035710701
 20
0.8553403058
 30
0.0
 11
0.2025230904
 21
0.8561865679
 31
0.0
  0
LINE
  5
1E7
330
1F
100
AcDbEntity
  8
0
  6
Continuous
 62
     7
100
AcDbLine
 10
0.2025230904
 20
0.8561865679
 30
0.0
 11
0.2016005728
 21
0.8574245606
 31
0.0
  0
LINE
  5
1E8
330
1F
100
AcDbEntity
  8
0
  6
Continuous
 62
     7
100
AcDbLine
 10
0.2016005728
 20
0.8574245606
 30
0.0
 11
0.2008189207
 21
0.8590493938
 31
0.0
  0
LINE
  5
1E9
330
1F
100
AcDbEntity
  8
0
  6
Continuous
 62
     7
100
AcDbLine
 10
0.2008189207
 20
0.8590493938
 30
0.0
 11
0.2001933878
 21
0.861055715
 31
0.0
  0
LINE
  5
1EA
330
1F
100
AcDbEntity
  8
0
  6
Continuous
 62
     7
100
AcDbLine
 10
0.2001933878
 20
0.861055715
 30
0.0
 11
0.1997390657
 21
0.8634377131
 31
0.0
  0
LINE
  5
1EB
330
1F
100
AcDbEntity
  8
0
  6
Continuous
 62
     7
100
AcDbLine
 10
0.1997390657
 20
0.8634377131
 30
0.0
 11
0.1989686852
 21
0.8704805591
 31
0.0
  0
LINE
  5
1EC
330
1F
100
AcDbEntity
  8
0
  6
Continuous
 62
     7
100
AcDbLine
 10
0.1989686852
 20
0.8704805591
 30
0.0
 11
0.1981603586
 21
0.876701132
 31
0.0
  0
LINE
  5
1ED
330
1F
100
AcDbEntity
  8
0
  6
Continuous
 62
     7
100
AcDbLine
 10
0.1981603586
 20
0.876701132
 30
0.0
 11
0.1971746907
 21
0.883245554
 31
0.0
  0
LINE
  5
1EE
330
1F
100
AcDbEntity
  8
0
  6
Continuous
 62
     7
100
AcDbLine
 10
0.1971746907
 20
0.883245554
 30
0.0
 11
0.1959982436
 21
0.8901090518
 31
0.0
  0
LINE
  5
1EF
330
1F
100
AcDbEntity
  8
0
  6
Continuous
 62
     7
100
AcDbLine
 10
0.1959982436
 20
0.8901090518
 30
0.0
 11
0.194617703
 21
0.8972864411
 31
0.0
  0
LINE
  5
1F0
330
1F
100
AcDbEntity
  8
0
  6
Continuous
 62
     7
100
AcDbLine
 10
0.194617703
 20
0.8972864411
 30
0.0
 11
0.1930198892
 21
0.9047721291
 31
0.0
  0
LINE
  5
1F1
330
1F
100
AcDbEntity
  8
0
  6
Continuous
 62
     7
100
AcDbLine
 10
0.1930198892
 20
0.9047721291
 30
0.0
 11
0.1911917683
 21
0.9125601188
 31
0.0
  0
LINE
  5
1F2
330
1F
100
AcDbEntity
  8
0
  6
Continuous
 62
     7
100
AcDbLine
 10
0.1911917683
 20
0.9125601188
 30
0.0
 11
0.1891204627
 21
0.9206440108
 31
0.0
  0
LINE
  5
1F3
330
1F
100
AcDbEntity
  8
0
  6
Continuous
 62
     7
100
AcDbLine
 10
0.1891204627
 20
0.9206440108
 30
0.0
 11
0.1867932622
 21
0.9290170123
 31
0.0
  0
LINE
  5
1F4
330
1F
100
AcDbEntity
  8
0
  6
Continuous
 62
     7
100
AcDbLine
 10
0.1867932622
 20
0.9290170123
 30
0.0
 11
0.1841976359
 21
0.9376719326
 31
0.0
  0
LINE
  5
1F5
330
1F
100
AcDbEntity
  8
0
  6
Continuous
 62
     7
100
AcDbLine
 10
0.1841976359
 20
0.9376719326
 30
0.0
 11
0.1813212409
 21
0.9466011957
 31
0.0
  0
LINE
  5
1F6
330
1F
100
AcDbEntity
  8
0
  6
Continuous
 62
     7
100
AcDbLine
 10
0.1813212409
 20
0.9466011957
 30
0.0
 11
0.1781519343
 21
0.9557968413
 31
0.0
  0
LINE
  5
1F7
330
1F
100
AcDbEntity
  8
0
  6
Continuous
 62
     7
100
AcDbLine
 10
0.1781519343
 20
0.9557968413
 30
0.0
 11
0.1746777832
 21
0.9652505305
 31
0.0
  0
LINE
  5
1F8
330
1F
100
AcDbEntity
  8
0
  6
Continuous
 62
     7
100
AcDbLine
 10
0.1746777832
 20
0.9652505305
 30
0.0
 11
0.1708870752
 21
0.9749535511
 31
0.0
  0
LINE
  5
1F9
330
1F
100
AcDbEntity
  8
0
  6
Continuous
 62
     7
100
AcDbLine
 10
0.1708870752
 20
0.9749535511
 30
0.0
 11
0.1667683282
 21
0.9848968232
 31
0.0
  0
LINE
  5
1FA
330
1F
100
AcDbEntity
  8
0
  6
Continuous
 62
     7
100
AcDbLine
 10
0.1667683282
 20
0.9848968232
 30
0.0
 11
0.1666982896
 21
0.9850566649
 31
0.0
  0
LINE
  5
1FB
330
1F
100
AcDbEntity
  8
0
  6
Continuous
 62
     7
100
AcDbLine
 10
0.1666982896
 20
0.9850566649
 30
0.0
 11
0.1515076632
 21
0.9889897905
 31
0.0
  0
LINE
  5
1FC
330
1F
100
AcDbEntity
  8
0
  6
Continuous
 62
     7
100
AcDbLine
 10
0.1515076632
 20
0.9889897905
 30
0.0
 11
0.1358362574
 21
0.9897845543
 31
0.0
  0
LINE
  5
1FD
330
1F
100
AcDbEntity
  8
0
  6
Continuous
 62
     7
100
AcDbLine
 10
0.1358362574
 20
0.9897845543
 30
0.0
 11
0.1357215801
 21
0.9896530101
 31
0.0
  0
LINE
  5
1FE
330
1F
100
AcDbEntity
  8
0
  6
Continuous
 62
     7
100
AcDbLine
 10
0.1357215801
 20
0.9896530101
 30
0.0
 11
0.128815073
 21
0.9813987448
 31
0.0
  0
LINE
  5
1FF
330
1F
100
AcDbEntity
  8
0
  6
Continuous
 62
     7
100
AcDbLine
 10
0.128815073
 20
0.9813987448
 30
0.0
 11
0.1222934831
 21
0.9732755101
 31
0.0
  0
LINE
  5
200
330
1F
100
AcDbEntity
  8
0
  6
Continuous
 62
     7
100
AcDbLine
 10
0.1222934831
 20
0.9732755101
 30
0.0
 11
0.1161485732
 21
0.9652954068
 31
0.0
  0
LINE
  5
201
330
1F
100
AcDbEntity
  8
0
  6
Continuous
 62
     7
100
AcDbLine
 10
0.1161485732
 20
0.9652954068
 30
0.0
 11
0.1103717762
 21
0.9574702539
 31
0.0
  0
LINE
  5
202
330
1F
100
AcDbEntity
  8
0
  6
Continuous
 62
     7
100
AcDbLine
 10
0.1103717762
 20
0.9574702539
 30
0.0
 11
0.1049542027
 21
0.94981158
 31
0.0
  0
LINE
  5
203
330
1F
100
AcDbEntity
  8
0
  6
Continuous
 62
     7
100
AcDbLine
 10
0.1049542027
 20
0.94981158
 30
0.0
 11
0.0998866498
 21
0.9423306157
 31
0.0
  0
LINE
  5
204
330
1F
100
AcDbEntity
  8
0
  6
Continuous
 62
     7
100
AcDbLine
 10
0.0998866498
 20
0.9423306157
 30
0.0
 11
0.095159609
 21
0.9350382849
 31
0.0
  0
LINE
  5
205
330
1F
100
AcDbEntity
  8
0
  6
Continuous
 62
     7
100
AcDbLine
 10
0.095159609
 20
0.9350382849
 30
0.0
 11
0.0907632755
 21
0.9279451979
 31
0.0
  0
LINE
  5
206
330
1F
100
AcDbEntity
  8
0
  6
Continuous
 62
     7
100
AcDbLine
 10
0.0907632755
 20
0.9279451979
 30
0.0
 11
0.0866875566
 21
0.9210616433
 31
0.0
  0
LINE
  5
207
330
1F
100
AcDbEntity
  8
0
  6
Continuous
 62
     7
100
AcDbLine
 10
0.0866875566
 20
0.9210616433
 30
0.0
 11
0.0829220808
 21
0.914397581
 31
0.0
  0
LINE
  5
208
330
1F
100
AcDbEntity
  8
0
  6
Continuous
 62
     7
100
AcDbLine
 10
0.0829220808
 20
0.914397581
 30
0.0
 11
0.0794562071
 21
0.9079626351
 31
0.0
  0
LINE
  5
209
330
1F
100
AcDbEntity
  8
0
  6
Continuous
 62
     7
100
AcDbLine
 10
0.0794562071
 20
0.9079626351
 30
0.0
 11
0.0762790346
 21
0.9017660873
 31
0.0
  0
LINE
  5
20A
330
1F
100
AcDbEntity
  8
0
  6
Continuous
 62
     7
100
AcDbLine
 10
0.0762790346
 20
0.9017660873
 30
0.0
 11
0.073379735
 21
0.8958175693
 31
0.0
  0
LINE
  5
20B
330
1F
100
AcDbEntity
  8
0
  6
Continuous
 62
     7
100
AcDbLine
 10
0.073379735
 20
0.8958175693
 30
0.0
 11
0.070746024
 21
0.8901237398
 31
0.0
  0
LINE
  5
20C
330
1F
100
AcDbEntity
  8
0
  6
Continuous
 62
     7
100
AcDbLine
 10
0.070746024
 20
0.8901237398
 30
0.0
 11
0.0679025267
 21
0.883634328
 31
0.0
  0
LINE
  5
20D
330
1F
100
AcDbEntity
  8
0
  6
Continuous
 62
     7
100
AcDbLine
 10
0.0679025267
 20
0.883634328
 30
0.0
 11
0.0667559487
 21
0.8814975816
 31
0.0
  0
LINE
  5
20E
330
1F
100
AcDbEntity
  8
0
  6
Continuous
 62
     7
100
AcDbLine
 10
0.0667559487
 20
0.8814975816
 30
0.0
 11
0.0655584418
 21
0.8797705544
 31
0.0
  0
LINE
  5
20F
330
1F
100
AcDbEntity
  8
0
  6
Continuous
 62
     7
100
AcDbLine
 10
0.0655584418
 20
0.8797705544
 30
0.0
 11
0.0643262735
 21
0.8784542097
 31
0.0
  0
LINE
  5
210
330
1F
100
AcDbEntity
  8
0
  6
Continuous
 62
     7
100
AcDbLine
 10
0.0643262735
 20
0.8784542097
 30
0.0
 11
0.0630754539
 21
0.8775491601
 31
0.0
  0
LINE
  5
211
330
1F
100
AcDbEntity
  8
0
  6
Continuous
 62
     7
100
AcDbLine
 10
0.0630754539
 20
0.8775491601
 30
0.0
 11
0.0618221957
 21
0.8770554346
 31
0.0
  0
LINE
  5
212
330
1F
100
AcDbEntity
  8
0
  6
Continuous
 62
     7
100
AcDbLine
 10
0.0618221957
 20
0.8770554346
 30
0.0
 11
0.0605826513
 21
0.8769726021
 31
0.0
  0
LINE
  5
213
330
1F
100
AcDbEntity
  8
0
  6
Continuous
 62
     7
100
AcDbLine
 10
0.0605826513
 20
0.8769726021
 30
0.0
 11
0.053421132
 21
0.8774814884
 31
0.0
  0
LINE
  5
214
330
1F
100
AcDbEntity
  8
0
  6
Continuous
 62
     7
100
AcDbLine
 10
0.053421132
 20
0.8774814884
 30
0.0
 11
0.0356262843
 21
0.8783839409
 31
0.0
  0
LINE
  5
215
330
1F
100
AcDbEntity
  8
0
  6
Continuous
 62
     7
100
AcDbLine
 10
0.0356262843
 20
0.8783839409
 30
0.0
 11
0.0284500253
 21
0.8786021844
 31
0.0
  0
LINE
  5
216
330
1F
100
AcDbEntity
  8
0
  6
Continuous
 62
     7
100
AcDbLine
 10
0.0284500253
 20
0.8786021844
 30
0.0
 11
0.0272252206
 21
0.8788099946
 31
0.0
  0
LINE
  5
217
330
1F
100
AcDbEntity
  8
0
  6
Continuous
 62
     7
100
AcDbLine
 10
0.0272252206
 20
0.8788099946
 30
0.0
 11
0.0260283419
 21
0.8794279769
 31
0.0
  0
LINE
  5
218
330
1F
100
AcDbEntity
  8
0
  6
Continuous
 62
     7
100
AcDbLine
 10
0.0260283419
 20
0.8794279769
 30
0.0
 11
0.0248755021
 21
0.8804549264
 31
0.0
  0
LINE
  5
219
330
1F
100
AcDbEntity
  8
0
  6
Continuous
 62
     7
100
AcDbLine
 10
0.0248755021
 20
0.8804549264
 30
0.0
 11
0.0237827739
 21
0.8818891538
 31
0.0
  0
LINE
  5
21A
330
1F
100
AcDbEntity
  8
0
  6
Continuous
 62
     7
100
AcDbLine
 10
0.0237827739
 20
0.8818891538
 30
0.0
 11
0.0227661762
 21
0.8837284866
 31
0.0
  0
LINE
  5
21B
330
1F
100
AcDbEntity
  8
0
  6
Continuous
 62
     7
100
AcDbLine
 10
0.0227661762
 20
0.8837284866
 30
0.0
 11
0.0218416614
 21
0.8859702707
 31
0.0
  0
LINE
  5
21C
330
1F
100
AcDbEntity
  8
0
  6
Continuous
 62
     7
100
AcDbLine
 10
0.0218416614
 20
0.8859702707
 30
0.0
 11
0.0196693362
 21
0.8927138728
 31
0.0
  0
LINE
  5
21D
330
1F
100
AcDbEntity
  8
0
  6
Continuous
 62
     7
100
AcDbLine
 10
0.0196693362
 20
0.8927138728
 30
0.0
 11
0.017625364
 21
0.8986443953
 31
0.0
  0
LINE
  5
21E
330
1F
100
AcDbEntity
  8
0
  6
Continuous
 62
     7
100
AcDbLine
 10
0.017625364
 20
0.8986443953
 30
0.0
 11
0.0153424903
 21
0.9048564391
 31
0.0
  0
LINE
  5
21F
330
1F
100
AcDbEntity
  8
0
  6
Continuous
 62
     7
100
AcDbLine
 10
0.0153424903
 20
0.9048564391
 30
0.0
 11
0.0128085132
 21
0.9113426236
 31
0.0
  0
LINE
  5
220
330
1F
100
AcDbEntity
  8
0
  6
Continuous
 62
     7
100
AcDbLine
 10
0.0128085132
 20
0.9113426236
 30
0.0
 11
0.0100114345
 21
0.9180951905
 31
0.0
  0
LINE
  5
221
330
1F
100
AcDbEntity
  8
0
  6
Continuous
 62
     7
100
AcDbLine
 10
0.0100114345
 20
0.9180951905
 30
0.0
 11
0.0069394702
 21
0.9251060085
 31
0.0
  0
LINE
  5
222
330
1F
100
AcDbEntity
  8
0
  6
Continuous
 62
     7
100
AcDbLine
 10
0.0069394702
 20
0.9251060085
 30
0.0
 11
0.0035810602
 21
0.9323665795
 31
0.0
  0
LINE
  5
223
330
1F
100
AcDbEntity
  8
0
  6
Continuous
 62
     7
100
AcDbLine
 10
0.0035810602
 20
0.9323665795
 30
0.0
 11
-0.0000751212
 21
0.9398680431
 31
0.0
  0
LINE
  5
224
330
1F
100
AcDbEntity
  8
0
  6
Continuous
 62
     7
100
AcDbLine
 10
-0.0000751212
 20
0.9398680431
 30
0.0
 11
-0.0040401565
 21
0.9476011868
 31
0.0
  0
LINE
  5
225
330
1F
100
AcDbEntity
  8
0
  6
Continuous
 62
     7
100
AcDbLine
 10
-0.0040401565
 20
0.9476011868
 30
0.0
 11
-0.0083248729
 21
0.9555564445
 31
0.0
  0
LINE
  5
226
330
1F
100
AcDbEntity
  8
0
  6
Continuous
 62
     7
100
AcDbLine
 10
-0.0083248729
 20
0.9555564445
 30
0.0
 11
-0.0129398354
 21
0.963723911
 31
0.0
  0
LINE
  5
227
330
1F
100
AcDbEntity
  8
0
  6
Continuous
 62
     7
100
AcDbLine
 10
-0.0129398354
 20
0.963723911
 30
0.0
 11
-0.0178953359
 21
0.9720933445
 31
0.0
  0
LINE
  5
228
330
1F
100
AcDbEntity
  8
0
  6
Continuous
 62
     7
100
AcDbLine
 10
-0.0178953359
 20
0.9720933445
 30
0.0
 11
-0.0232013846
 21
0.9806541747
 31
0.0
  0
LINE
  5
229
330
1F
100
AcDbEntity
  8
0
  6
Continuous
 62
     7
100
AcDbLine
 10
-0.0232013846
 20
0.9806541747
 30
0.0
 11
-0.0288677003
 21
0.98939551
 31
0.0
  0
LINE
  5
22A
330
1F
100
AcDbEntity
  8
0
  6
Continuous
 62
     7
100
AcDbLine
 10
-0.0288677003
 20
0.98939551
 30
0.0
 11
-0.0349037022
 21
0.998306145
 31
0.0
  0
LINE
  5
22B
330
1F
100
AcDbEntity
  8
0
  6
Continuous
 62
     7
100
AcDbLine
 10
-0.0349037022
 20
0.998306145
 30
0.0
 11
-0.035004483
 21
0.9984486161
 31
0.0
  0
LINE
  5
22C
330
1F
100
AcDbEntity
  8
0
  6
Continuous
 62
     7
100
AcDbLine
 10
-0.035004483
 20
0.9984486161
 30
0.0
 11
-0.0506758888
 21
0.9992433798
 31
0.0
  0
LINE
  5
22D
330
1F
100
AcDbEntity
  8
0
  6
Continuous
 62
     7
100
AcDbLine
 10
-0.0506758888
 20
0.9992433798
 30
0.0
 11
-0.0661864848
 21
0.9968672439
 31
0.0
  0
LINE
  5
22E
330
1F
100
AcDbEntity
  8
0
  6
Continuous
 62
     7
100
AcDbLine
 10
-0.0661864848
 20
0.9968672439
 30
0.0
 11
-0.0662723349
 21
0.996715308
 31
0.0
  0
LINE
  5
22F
330
1F
100
AcDbEntity
  8
0
  6
Continuous
 62
     7
100
AcDbLine
 10
-0.0662723349
 20
0.996715308
 30
0.0
 11
-0.0713758941
 21
0.9872397384
 31
0.0
  0
LINE
  5
230
330
1F
100
AcDbEntity
  8
0
  6
Continuous
 62
     7
100
AcDbLine
 10
-0.0713758941
 20
0.9872397384
 30
0.0
 11
-0.0761287915
 21
0.9779700004
 31
0.0
  0
LINE
  5
231
330
1F
100
AcDbEntity
  8
0
  6
Continuous
 62
     7
100
AcDbLine
 10
-0.0761287915
 20
0.9779700004
 30
0.0
 11
-0.0805415317
 21
0.968916289
 31
0.0
  0
LINE
  5
232
330
1F
100
AcDbEntity
  8
0
  6
Continuous
 62
     7
100
AcDbLine
 10
-0.0805415317
 20
0.968916289
 30
0.0
 11
-0.0846248857
 21
0.9600884567
 31
0.0
  0
LINE
  5
233
330
1F
100
AcDbEntity
  8
0
  6
Continuous
 62
     7
100
AcDbLine
 10
-0.0846248857
 20
0.9600884567
 30
0.0
 11
-0.0883898814
 21
0.9514960069
 31
0.0
  0
LINE
  5
234
330
1F
100
AcDbEntity
  8
0
  6
Continuous
 62
     7
100
AcDbLine
 10
-0.0883898814
 20
0.9514960069
 30
0.0
 11
-0.0918477942
 21
0.9431480874
 31
0.0
  0
LINE
  5
235
330
1F
100
AcDbEntity
  8
0
  6
Continuous
 62
     7
100
AcDbLine
 10
-0.0918477942
 20
0.9431480874
 30
0.0
 11
-0.0950101368
 21
0.9350534848
 31
0.0
  0
LINE
  5
236
330
1F
100
AcDbEntity
  8
0
  6
Continuous
 62
     7
100
AcDbLine
 10
-0.0950101368
 20
0.9350534848
 30
0.0
 11
-0.0978886491
 21
0.9272206183
 31
0.0
  0
LINE
  5
237
330
1F
100
AcDbEntity
  8
0
  6
Continuous
 62
     7
100
AcDbLine
 10
-0.0978886491
 20
0.9272206183
 30
0.0
 11
-0.1004952885
 21
0.9196575342
 31
0.0
  0
LINE
  5
238
330
1F
100
AcDbEntity
  8
0
  6
Continuous
 62
     7
100
AcDbLine
 10
-0.1004952885
 20
0.9196575342
 30
0.0
 11
-0.1028422189
 21
0.912371901
 31
0.0
  0
LINE
  5
239
330
1F
100
AcDbEntity
  8
0
  6
Continuous
 62
     7
100
AcDbLine
 10
-0.1028422189
 20
0.912371901
 30
0.0
 11
-0.1049418008
 21
0.9053710036
 31
0.0
  0
LINE
  5
23A
330
1F
100
AcDbEntity
  8
0
  6
Continuous
 62
     7
100
AcDbLine
 10
-0.1049418008
 20
0.9053710036
 30
0.0
 11
-0.1068065805
 21
0.8986617393
 31
0.0
  0
LINE
  5
23B
330
1F
100
AcDbEntity
  8
0
  6
Continuous
 62
     7
100
AcDbLine
 10
-0.1068065805
 20
0.8986617393
 30
0.0
 11
-0.1084491034
 21
0.8922513631
 31
0.0
  0
LINE
  5
23C
330
1F
100
AcDbEntity
  8
0
  6
Continuous
 62
     7
100
AcDbLine
 10
-0.1084491034
 20
0.8922513631
 30
0.0
 11
-0.1098827428
 21
0.8861439245
 31
0.0
  0
LINE
  5
23D
330
1F
100
AcDbEntity
  8
0
  6
Continuous
 62
     7
100
AcDbLine
 10
-0.1098827428
 20
0.8861439245
 30
0.0
 11
-0.1113617245
 21
0.8792149595
 31
0.0
  0
LINE
  5
23E
330
1F
100
AcDbEntity
  8
0
  6
Continuous
 62
     7
100
AcDbLine
 10
-0.1113617245
 20
0.8792149595
 30
0.0
 11
-0.1120547082
 21
0.876891148
 31
0.0
  0
LINE
  5
23F
330
1F
100
AcDbEntity
  8
0
  6
Continuous
 62
     7
100
AcDbLine
 10
-0.1120547082
 20
0.876891148
 30
0.0
 11
-0.112880054
 21
0.8749584168
 31
0.0
  0
LINE
  5
240
330
1F
100
AcDbEntity
  8
0
  6
Continuous
 62
     7
100
AcDbLine
 10
-0.112880054
 20
0.8749584168
 30
0.0
 11
-0.1138220215
 21
0.8734209841
 31
0.0
  0
LINE
  5
241
330
1F
100
AcDbEntity
  8
0
  6
Continuous
 62
     7
100
AcDbLine
 10
-0.1138220215
 20
0.8734209841
 30
0.0
 11
-0.1148650516
 21
0.8722826727
 31
0.0
  0
LINE
  5
242
330
1F
100
AcDbEntity
  8
0
  6
Continuous
 62
     7
100
AcDbLine
 10
-0.1148650516
 20
0.8722826727
 30
0.0
 11
-0.1159932693
 21
0.8715467749
 31
0.0
  0
LINE
  5
243
330
1F
100
AcDbEntity
  8
0
  6
Continuous
 62
     7
100
AcDbLine
 10
-0.1159932693
 20
0.8715467749
 30
0.0
 11
-0.1171907661
 21
0.8712161194
 31
0.0
  0
LINE
  5
244
330
1F
100
AcDbEntity
  8
0
  6
Continuous
 62
     7
100
AcDbLine
 10
-0.1171907661
 20
0.8712161194
 30
0.0
 11
-0.1243081267
 21
0.8702729856
 31
0.0
  0
LINE
  5
245
330
1F
100
AcDbEntity
  8
0
  6
Continuous
 62
     7
100
AcDbLine
 10
-0.1243081267
 20
0.8702729856
 30
0.0
 11
-0.1419203752
 21
0.8675748883
 31
0.0
  0
LINE
  5
246
330
1F
100
AcDbEntity
  8
0
  6
Continuous
 62
     7
100
AcDbLine
 10
-0.1419203752
 20
0.8675748883
 30
0.0
 11
-0.1489936679
 21
0.8663440941
 31
0.0
  0
LINE
  5
247
330
1F
100
AcDbEntity
  8
0
  6
Continuous
 62
     7
100
AcDbLine
 10
-0.1489936679
 20
0.8663440941
 30
0.0
 11
-0.1502352326
 21
0.866301099
 31
0.0
  0
LINE
  5
248
330
1F
100
AcDbEntity
  8
0
  6
Continuous
 62
     7
100
AcDbLine
 10
-0.1502352326
 20
0.866301099
 30
0.0
 11
-0.1515320101
 21
0.8666655013
 31
0.0
  0
LINE
  5
249
330
1F
100
AcDbEntity
  8
0
  6
Continuous
 62
     7
100
AcDbLine
 10
-0.1515320101
 20
0.8666655013
 30
0.0
 11
-0.1528679746
 21
0.8674393641
 31
0.0
  0
LINE
  5
24A
330
1F
100
AcDbEntity
  8
0
  6
Continuous
 62
     7
100
AcDbLine
 10
-0.1528679746
 20
0.8674393641
 30
0.0
 11
-0.1542270424
 21
0.8686242682
 31
0.0
  0
LINE
  5
24B
330
1F
100
AcDbEntity
  8
0
  6
Continuous
 62
     7
100
AcDbLine
 10
-0.1542270424
 20
0.8686242682
 30
0.0
 11
-0.1555930852
 21
0.8702213102
 31
0.0
  0
LINE
  5
24C
330
1F
100
AcDbEntity
  8
0
  6
Continuous
 62
     7
100
AcDbLine
 10
-0.1555930852
 20
0.8702213102
 30
0.0
 11
-0.156949943
 21
0.8722311013
 31
0.0
  0
LINE
  5
24D
330
1F
100
AcDbEntity
  8
0
  6
Continuous
 62
     7
100
AcDbLine
 10
-0.156949943
 20
0.8722311013
 30
0.0
 11
-0.1604352777
 21
0.8783993757
 31
0.0
  0
LINE
  5
24E
330
1F
100
AcDbEntity
  8
0
  6
Continuous
 62
     7
100
AcDbLine
 10
-0.1604352777
 20
0.8783993757
 30
0.0
 11
-0.1636312151
 21
0.8837970514
 31
0.0
  0
LINE
  5
24F
330
1F
100
AcDbEntity
  8
0
  6
Continuous
 62
     7
100
AcDbLine
 10
-0.1636312151
 20
0.8837970514
 30
0.0
 11
-0.1671178335
 21
0.8894223952
 31
0.0
  0
LINE
  5
250
330
1F
100
AcDbEntity
  8
0
  6
Continuous
 62
     7
100
AcDbLine
 10
-0.1671178335
 20
0.8894223952
 30
0.0
 11
-0.1709055993
 21
0.8952657213
 31
0.0
  0
LINE
  5
251
330
1F
100
AcDbEntity
  8
0
  6
Continuous
 62
     7
100
AcDbLine
 10
-0.1709055993
 20
0.8952657213
 30
0.0
 11
-0.1750047033
 21
0.901317015
 31
0.0
  0
LINE
  5
252
330
1F
100
AcDbEntity
  8
0
  6
Continuous
 62
     7
100
AcDbLine
 10
-0.1750047033
 20
0.901317015
 30
0.0
 11
-0.1794250516
 21
0.9075659393
 31
0.0
  0
LINE
  5
253
330
1F
100
AcDbEntity
  8
0
  6
Continuous
 62
     7
100
AcDbLine
 10
-0.1794250516
 20
0.9075659393
 30
0.0
 11
-0.184176257
 21
0.914001843
 31
0.0
  0
LINE
  5
254
330
1F
100
AcDbEntity
  8
0
  6
Continuous
 62
     7
100
AcDbLine
 10
-0.184176257
 20
0.914001843
 30
0.0
 11
-0.1892676296
 21
0.9206137672
 31
0.0
  0
LINE
  5
255
330
1F
100
AcDbEntity
  8
0
  6
Continuous
 62
     7
100
AcDbLine
 10
-0.1892676296
 20
0.9206137672
 30
0.0
 11
-0.1947081708
 21
0.9273904573
 31
0.0
  0
LINE
  5
256
330
1F
100
AcDbEntity
  8
0
  6
Continuous
 62
     7
100
AcDbLine
 10
-0.1947081708
 20
0.9273904573
 30
0.0
 11
-0.2005065604
 21
0.9343203634
 31
0.0
  0
LINE
  5
257
330
1F
100
AcDbEntity
  8
0
  6
Continuous
 62
     7
100
AcDbLine
 10
-0.2005065604
 20
0.9343203634
 30
0.0
 11
-0.2066711533
 21
0.9413916562
 31
0.0
  0
LINE
  5
258
330
1F
100
AcDbEntity
  8
0
  6
Continuous
 62
     7
100
AcDbLine
 10
-0.2066711533
 20
0.9413916562
 30
0.0
 11
-0.213209969
 21
0.948592232
 31
0.0
  0
LINE
  5
259
330
1F
100
AcDbEntity
  8
0
  6
Continuous
 62
     7
100
AcDbLine
 10
-0.213209969
 20
0.948592232
 30
0.0
 11
-0.2201306849
 21
0.9559097217
 31
0.0
  0
LINE
  5
25A
330
1F
100
AcDbEntity
  8
0
  6
Continuous
 62
     7
100
AcDbLine
 10
-0.2201306849
 20
0.9559097217
 30
0.0
 11
-0.2274406287
 21
0.9633315004
 31
0.0
  0
LINE
  5
25B
330
1F
100
AcDbEntity
  8
0
  6
Continuous
 62
     7
100
AcDbLine
 10
-0.2274406287
 20
0.9633315004
 30
0.0
 11
-0.235146771
 21
0.970844696
 31
0.0
  0
LINE
  5
25C
330
1F
100
AcDbEntity
  8
0
  6
Continuous
 62
     7
100
AcDbLine
 10
-0.235146771
 20
0.970844696
 30
0.0
 11
-0.235274168
 21
0.9709639636
 31
0.0
  0
LINE
  5
25D
330
1F
100
AcDbEntity
  8
0
  6
Continuous
 62
     7
100
AcDbLine
 10
-0.235274168
 20
0.9709639636
 30
0.0
 11
-0.2507847639
 21
0.9685878277
 31
0.0
  0
LINE
  5
25E
330
1F
100
AcDbEntity
  8
0
  6
Continuous
 62
     7
100
AcDbLine
 10
-0.2507847639
 20
0.9685878277
 30
0.0
 11
-0.2654995445
 21
0.9631380714
 31
0.0
  0
LINE
  5
25F
330
1F
100
AcDbEntity
  8
0
  6
Continuous
 62
     7
100
AcDbLine
 10
-0.2654995445
 20
0.9631380714
 30
0.0
 11
-0.2655530528
 21
0.9629719642
 31
0.0
  0
LINE
  5
260
330
1F
100
AcDbEntity
  8
0
  6
Continuous
 62
     7
100
AcDbLine
 10
-0.2655530528
 20
0.9629719642
 30
0.0
 11
-0.2686447236
 21
0.9526630211
 31
0.0
  0
LINE
  5
261
330
1F
100
AcDbEntity
  8
0
  6
Continuous
 62
     7
100
AcDbLine
 10
-0.2686447236
 20
0.9526630211
 30
0.0
 11
-0.2714343445
 21
0.9426262839
 31
0.0
  0
LINE
  5
262
330
1F
100
AcDbEntity
  8
0
  6
Continuous
 62
     7
100
AcDbLine
 10
-0.2714343445
 20
0.9426262839
 30
0.0
 11
-0.2739342569
 21
0.9328696245
 31
0.0
  0
LINE
  5
263
330
1F
100
AcDbEntity
  8
0
  6
Continuous
 62
     7
100
AcDbLine
 10
-0.2739342569
 20
0.9328696245
 30
0.0
 11
-0.2761569948
 21
0.9234005254
 31
0.0
  0
LINE
  5
264
330
1F
100
AcDbEntity
  8
0
  6
Continuous
 62
     7
100
AcDbLine
 10
-0.2761569948
 20
0.9234005254
 30
0.0
 11
-0.2781152734
 21
0.9142260754
 31
0.0
  0
LINE
  5
265
330
1F
100
AcDbEntity
  8
0
  6
Continuous
 62
     7
100
AcDbLine
 10
-0.2781152734
 20
0.9142260754
 30
0.0
 11
-0.2798219786
 21
0.9053529656
 31
0.0
  0
LINE
  5
266
330
1F
100
AcDbEntity
  8
0
  6
Continuous
 62
     7
100
AcDbLine
 10
-0.2798219786
 20
0.9053529656
 30
0.0
 11
-0.2812901564
 21
0.8967874851
 31
0.0
  0
LINE
  5
267
330
1F
100
AcDbEntity
  8
0
  6
Continuous
 62
     7
100
AcDbLine
 10
-0.2812901564
 20
0.8967874851
 30
0.0
 11
-0.282533001
 21
0.8885355175
 31
0.0
  0
LINE
  5
268
330
1F
100
AcDbEntity
  8
0
  6
Continuous
 62
     7
100
AcDbLine
 10
-0.282533001
 20
0.8885355175
 30
0.0
 11
-0.2835638447
 21
0.8806025376
 31
0.0
  0
LINE
  5
269
330
1F
100
AcDbEntity
  8
0
  6
Continuous
 62
     7
100
AcDbLine
 10
-0.2835638447
 20
0.8806025376
 30
0.0
 11
-0.2843961461
 21
0.8729936081
 31
0.0
  0
LINE
  5
26A
330
1F
100
AcDbEntity
  8
0
  6
Continuous
 62
     7
100
AcDbLine
 10
-0.2843961461
 20
0.8729936081
 30
0.0
 11
-0.2850434792
 21
0.8657133767
 31
0.0
  0
LINE
  5
26B
330
1F
100
AcDbEntity
  8
0
  6
Continuous
 62
     7
100
AcDbLine
 10
-0.2850434792
 20
0.8657133767
 30
0.0
 11
-0.2855195217
 21
0.8587660741
 31
0.0
  0
LINE
  5
26C
330
1F
100
AcDbEntity
  8
0
  6
Continuous
 62
     7
100
AcDbLine
 10
-0.2855195217
 20
0.8587660741
 30
0.0
 11
-0.2858380228
 21
0.8521562813
 31
0.0
  0
LINE
  5
26D
330
1F
100
AcDbEntity
  8
0
  6
Continuous
 62
     7
100
AcDbLine
 10
-0.2858380228
 20
0.8521562813
 30
0.0
 11
-0.2860128972
 21
0.8458852728
 31
0.0
  0
LINE
  5
26E
330
1F
100
AcDbEntity
  8
0
  6
Continuous
 62
     7
100
AcDbLine
 10
-0.2860128972
 20
0.8458852728
 30
0.0
 11
-0.2860668137
 21
0.8388004273
 31
0.0
  0
LINE
  5
26F
330
1F
100
AcDbEntity
  8
0
  6
Continuous
 62
     7
100
AcDbLine
 10
-0.2860668137
 20
0.8388004273
 30
0.0
 11
-0.2862778321
 21
0.8363846877
 31
0.0
  0
LINE
  5
270
330
1F
100
AcDbEntity
  8
0
  6
Continuous
 62
     7
100
AcDbLine
 10
-0.2862778321
 20
0.8363846877
 30
0.0
 11
-0.2866972271
 21
0.8343253787
 31
0.0
  0
LINE
  5
271
330
1F
100
AcDbEntity
  8
0
  6
Continuous
 62
     7
100
AcDbLine
 10
-0.2866972271
 20
0.8343253787
 30
0.0
 11
-0.2873104295
 21
0.8326298008
 31
0.0
  0
LINE
  5
272
330
1F
100
AcDbEntity
  8
0
  6
Continuous
 62
     7
100
AcDbLine
 10
-0.2873104295
 20
0.8326298008
 30
0.0
 11
-0.2881029683
 21
0.8313048303
 31
0.0
  0
LINE
  5
273
330
1F
100
AcDbEntity
  8
0
  6
Continuous
 62
     7
100
AcDbLine
 10
-0.2881029683
 20
0.8313048303
 30
0.0
 11
-0.2890599562
 21
0.8303568877
 31
0.0
  0
LINE
  5
274
330
1F
100
AcDbEntity
  8
0
  6
Continuous
 62
     7
100
AcDbLine
 10
-0.2890599562
 20
0.8303568877
 30
0.0
 11
-0.2901663797
 21
0.8297919465
 31
0.0
  0
LINE
  5
275
330
1F
100
AcDbEntity
  8
0
  6
Continuous
 62
     7
100
AcDbLine
 10
-0.2901663797
 20
0.8297919465
 30
0.0
 11
-0.2969481961
 21
0.8274354045
 31
0.0
  0
LINE
  5
276
330
1F
100
AcDbEntity
  8
0
  6
Continuous
 62
     7
100
AcDbLine
 10
-0.2969481961
 20
0.8274354045
 30
0.0
 11
-0.3136567979
 21
0.8212472179
 31
0.0
  0
LINE
  5
277
330
1F
100
AcDbEntity
  8
0
  6
Continuous
 62
     7
100
AcDbLine
 10
-0.3136567979
 20
0.8212472179
 30
0.0
 11
-0.3203375428
 21
0.8186177747
 31
0.0
  0
LINE
  5
278
330
1F
100
AcDbEntity
  8
0
  6
Continuous
 62
     7
100
AcDbLine
 10
-0.3203375428
 20
0.8186177747
 30
0.0
 11
-0.3215450378
 21
0.8183257347
 31
0.0
  0
LINE
  5
279
330
1F
100
AcDbEntity
  8
0
  6
Continuous
 62
     7
100
AcDbLine
 10
-0.3215450378
 20
0.8183257347
 30
0.0
 11
-0.3228886238
 21
0.8184216382
 31
0.0
  0
LINE
  5
27A
330
1F
100
AcDbEntity
  8
0
  6
Continuous
 62
     7
100
AcDbLine
 10
-0.3228886238
 20
0.8184216382
 30
0.0
 11
-0.3243530184
 21
0.8189107323
 31
0.0
  0
LINE
  5
27B
330
1F
100
AcDbEntity
  8
0
  6
Continuous
 62
     7
100
AcDbLine
 10
-0.3243530184
 20
0.8189107323
 30
0.0
 11
-0.3259227855
 21
0.819797803
 31
0.0
  0
LINE
  5
27C
330
1F
100
AcDbEntity
  8
0
  6
Continuous
 62
     7
100
AcDbLine
 10
-0.3259227855
 20
0.819797803
 30
0.0
 11
-0.3275823475
 21
0.821087171
 31
0.0
  0
LINE
  5
27D
330
1F
100
AcDbEntity
  8
0
  6
Continuous
 62
     7
100
AcDbLine
 10
-0.3275823475
 20
0.821087171
 30
0.0
 11
-0.3293159983
 21
0.8227826882
 31
0.0
  0
LINE
  5
27E
330
1F
100
AcDbEntity
  8
0
  6
Continuous
 62
     7
100
AcDbLine
 10
-0.3293159983
 20
0.8227826882
 30
0.0
 11
-0.3339716526
 21
0.8281231049
 31
0.0
  0
LINE
  5
27F
330
1F
100
AcDbEntity
  8
0
  6
Continuous
 62
     7
100
AcDbLine
 10
-0.3339716526
 20
0.8281231049
 30
0.0
 11
-0.338188713
 21
0.8327669524
 31
0.0
  0
LINE
  5
280
330
1F
100
AcDbEntity
  8
0
  6
Continuous
 62
     7
100
AcDbLine
 10
-0.338188713
 20
0.8327669524
 30
0.0
 11
-0.3427363335
 21
0.8375752939
 31
0.0
  0
LINE
  5
281
330
1F
100
AcDbEntity
  8
0
  6
Continuous
 62
     7
100
AcDbLine
 10
-0.3427363335
 20
0.8375752939
 30
0.0
 11
-0.3476228164
 21
0.8425365352
 31
0.0
  0
LINE
  5
282
330
1F
100
AcDbEntity
  8
0
  6
Continuous
 62
     7
100
AcDbLine
 10
-0.3476228164
 20
0.8425365352
 30
0.0
 11
-0.352856128
 21
0.847638815
 31
0.0
  0
LINE
  5
283
330
1F
100
AcDbEntity
  8
0
  6
Continuous
 62
     7
100
AcDbLine
 10
-0.352856128
 20
0.847638815
 30
0.0
 11
-0.3584438908
 21
0.8528700138
 31
0.0
  0
LINE
  5
284
330
1F
100
AcDbEntity
  8
0
  6
Continuous
 62
     7
100
AcDbLine
 10
-0.3584438908
 20
0.8528700138
 30
0.0
 11
-0.3643933765
 21
0.8582177636
 31
0.0
  0
LINE
  5
285
330
1F
100
AcDbEntity
  8
0
  6
Continuous
 62
     7
100
AcDbLine
 10
-0.3643933765
 20
0.8582177636
 30
0.0
 11
-0.370711499
 21
0.8636694556
 31
0.0
  0
LINE
  5
286
330
1F
100
AcDbEntity
  8
0
  6
Continuous
 62
     7
100
AcDbLine
 10
-0.370711499
 20
0.8636694556
 30
0.0
 11
-0.3774048097
 21
0.8692122535
 31
0.0
  0
LINE
  5
287
330
1F
100
AcDbEntity
  8
0
  6
Continuous
 62
     7
100
AcDbLine
 10
-0.3774048097
 20
0.8692122535
 30
0.0
 11
-0.3844794858
 21
0.8748330968
 31
0.0
  0
LINE
  5
288
330
1F
100
AcDbEntity
  8
0
  6
Continuous
 62
     7
100
AcDbLine
 10
-0.3844794858
 20
0.8748330968
 30
0.0
 11
-0.3919413298
 21
0.8805187164
 31
0.0
  0
LINE
  5
289
330
1F
100
AcDbEntity
  8
0
  6
Continuous
 62
     7
100
AcDbLine
 10
-0.3919413298
 20
0.8805187164
 30
0.0
 11
-0.3997957609
 21
0.886255642
 31
0.0
  0
LINE
  5
28A
330
1F
100
AcDbEntity
  8
0
  6
Continuous
 62
     7
100
AcDbLine
 10
-0.3997957609
 20
0.886255642
 30
0.0
 11
-0.4080478092
 21
0.8920302125
 31
0.0
  0
LINE
  5
28B
330
1F
100
AcDbEntity
  8
0
  6
Continuous
 62
     7
100
AcDbLine
 10
-0.4080478092
 20
0.8920302125
 30
0.0
 11
-0.4167021111
 21
0.897828586
 31
0.0
  0
LINE
  5
28C
330
1F
100
AcDbEntity
  8
0
  6
Continuous
 62
     7
100
AcDbLine
 10
-0.4167021111
 20
0.897828586
 30
0.0
 11
-0.4257629033
 21
0.903636751
 31
0.0
  0
LINE
  5
28D
330
1F
100
AcDbEntity
  8
0
  6
Continuous
 62
     7
100
AcDbLine
 10
-0.4257629033
 20
0.903636751
 30
0.0
 11
-0.4259117009
 21
0.9037279324
 31
0.0
  0
LINE
  5
28E
330
1F
100
AcDbEntity
  8
0
  6
Continuous
 62
     7
100
AcDbLine
 10
-0.4259117009
 20
0.9037279324
 30
0.0
 11
-0.4406264814
 21
0.8982781761
 31
0.0
  0
LINE
  5
28F
330
1F
100
AcDbEntity
  8
0
  6
Continuous
 62
     7
100
AcDbLine
 10
-0.4406264814
 20
0.8982781761
 30
0.0
 11
-0.4539430216
 21
0.8899779131
 31
0.0
  0
LINE
  5
290
330
1F
100
AcDbEntity
  8
0
  6
Continuous
 62
     7
100
AcDbLine
 10
-0.4539430216
 20
0.8899779131
 30
0.0
 11
-0.4539619975
 21
0.889804435
 31
0.0
  0
LINE
  5
291
330
1F
100
AcDbEntity
  8
0
  6
Continuous
 62
     7
100
AcDbLine
 10
-0.4539619975
 20
0.889804435
 30
0.0
 11
-0.4549152066
 21
0.8790841678
 31
0.0
  0
LINE
  5
292
330
1F
100
AcDbEntity
  8
0
  6
Continuous
 62
     7
100
AcDbLine
 10
-0.4549152066
 20
0.8790841678
 30
0.0
 11
-0.4556273434
 21
0.8686913367
 31
0.0
  0
LINE
  5
293
330
1F
100
AcDbEntity
  8
0
  6
Continuous
 62
     7
100
AcDbLine
 10
-0.4556273434
 20
0.8686913367
 30
0.0
 11
-0.4561120814
 21
0.858631168
 31
0.0
  0
LINE
  5
294
330
1F
100
AcDbEntity
  8
0
  6
Continuous
 62
     7
100
AcDbLine
 10
-0.4561120814
 20
0.858631168
 30
0.0
 11
-0.4563832041
 21
0.848908468
 31
0.0
  0
LINE
  5
295
330
1F
100
AcDbEntity
  8
0
  6
Continuous
 62
     7
100
AcDbLine
 10
-0.4563832041
 20
0.848908468
 30
0.0
 11
-0.4564545934
 21
0.839527621
 31
0.0
  0
LINE
  5
296
330
1F
100
AcDbEntity
  8
0
  6
Continuous
 62
     7
100
AcDbLine
 10
-0.4564545934
 20
0.839527621
 30
0.0
 11
-0.4563402184
 21
0.830492587
 31
0.0
  0
LINE
  5
297
330
1F
100
AcDbEntity
  8
0
  6
Continuous
 62
     7
100
AcDbLine
 10
-0.4563402184
 20
0.830492587
 30
0.0
 11
-0.4560541239
 21
0.8218069004
 31
0.0
  0
LINE
  5
298
330
1F
100
AcDbEntity
  8
0
  6
Continuous
 62
     7
100
AcDbLine
 10
-0.4560541239
 20
0.8218069004
 30
0.0
 11
-0.4556104186
 21
0.8134736683
 31
0.0
  0
LINE
  5
299
330
1F
100
AcDbEntity
  8
0
  6
Continuous
 62
     7
100
AcDbLine
 10
-0.4556104186
 20
0.8134736683
 30
0.0
 11
-0.4550232638
 21
0.8054955697
 31
0.0
  0
LINE
  5
29A
330
1F
100
AcDbEntity
  8
0
  6
Continuous
 62
     7
100
AcDbLine
 10
-0.4550232638
 20
0.8054955697
 30
0.0
 11
-0.4543068616
 21
0.7978748543
 31
0.0
  0
LINE
  5
29B
330
1F
100
AcDbEntity
  8
0
  6
Continuous
 62
     7
100
AcDbLine
 10
-0.4543068616
 20
0.7978748543
 30
0.0
 11
-0.453475444
 21
0.7906133425
 31
0.0
  0
LINE
  5
29C
330
1F
100
AcDbEntity
  8
0
  6
Continuous
 62
     7
100
AcDbLine
 10
-0.453475444
 20
0.7906133425
 30
0.0
 11
-0.4525432602
 21
0.7837124249
 31
0.0
  0
LINE
  5
29D
330
1F
100
AcDbEntity
  8
0
  6
Continuous
 62
     7
100
AcDbLine
 10
-0.4525432602
 20
0.7837124249
 30
0.0
 11
-0.4515247
 21
0.7771738211
 31
0.0
  0
LINE
  5
29E
330
1F
100
AcDbEntity
  8
0
  6
Continuous
 62
     7
100
AcDbLine
 10
-0.4515247
 20
0.7771738211
 30
0.0
 11
-0.45043365
 21
0.7709959787
 31
0.0
  0
LINE
  5
29F
330
1F
100
AcDbEntity
  8
0
  6
Continuous
 62
     7
100
AcDbLine
 10
-0.45043365
 20
0.7709959787
 30
0.0
 11
-0.4490602938
 21
0.764045307
 31
0.0
  0
LINE
  5
2A0
330
1F
100
AcDbEntity
  8
0
  6
Continuous
 62
     7
100
AcDbLine
 10
-0.4490602938
 20
0.764045307
 30
0.0
 11
-0.4487807079
 21
0.7616365401
 31
0.0
  0
LINE
  5
2A1
330
1F
100
AcDbEntity
  8
0
  6
Continuous
 62
     7
100
AcDbLine
 10
-0.4487807079
 20
0.7616365401
 30
0.0
 11
-0.448776982
 21
0.7595349617
 31
0.0
  0
LINE
  5
2A2
330
1F
100
AcDbEntity
  8
0
  6
Continuous
 62
     7
100
AcDbLine
 10
-0.448776982
 20
0.7595349617
 30
0.0
 11
-0.4490363148
 21
0.7577506556
 31
0.0
  0
LINE
  5
2A3
330
1F
100
AcDbEntity
  8
0
  6
Continuous
 62
     7
100
AcDbLine
 10
-0.4490363148
 20
0.7577506556
 30
0.0
 11
-0.4495459157
 21
0.7562932704
 31
0.0
  0
LINE
  5
2A4
330
1F
100
AcDbEntity
  8
0
  6
Continuous
 62
     7
100
AcDbLine
 10
-0.4495459157
 20
0.7562932704
 30
0.0
 11
-0.4502924946
 21
0.7551720921
 31
0.0
  0
LINE
  5
2A5
330
1F
100
AcDbEntity
  8
0
  6
Continuous
 62
     7
100
AcDbLine
 10
-0.4502924946
 20
0.7551720921
 30
0.0
 11
-0.4512625477
 21
0.7543959938
 31
0.0
  0
LINE
  5
2A6
330
1F
100
AcDbEntity
  8
0
  6
Continuous
 62
     7
100
AcDbLine
 10
-0.4512625477
 20
0.7543959938
 30
0.0
 11
-0.4574311715
 21
0.7507225207
 31
0.0
  0
LINE
  5
2A7
330
1F
100
AcDbEntity
  8
0
  6
Continuous
 62
     7
100
AcDbLine
 10
-0.4574311715
 20
0.7507225207
 30
0.0
 11
-0.4725520744
 21
0.7412975899
 31
0.0
  0
LINE
  5
2A8
330
1F
100
AcDbEntity
  8
0
  6
Continuous
 62
     7
100
AcDbLine
 10
-0.4725520744
 20
0.7412975899
 30
0.0
 11
-0.478566761
 21
0.7373771475
 31
0.0
  0
LINE
  5
2A9
330
1F
100
AcDbEntity
  8
0
  6
Continuous
 62
     7
100
AcDbLine
 10
-0.478566761
 20
0.7373771475
 30
0.0
 11
-0.4796907513
 21
0.7368480186
 31
0.0
  0
LINE
  5
2AA
330
1F
100
AcDbEntity
  8
0
  6
Continuous
 62
     7
100
AcDbLine
 10
-0.4796907513
 20
0.7368480186
 30
0.0
 11
-0.4810261393
 21
0.736671497
 31
0.0
  0
LINE
  5
2AB
330
1F
100
AcDbEntity
  8
0
  6
Continuous
 62
     7
100
AcDbLine
 10
-0.4810261393
 20
0.736671497
 30
0.0
 11
-0.4825590116
 21
0.7368557989
 31
0.0
  0
LINE
  5
2AC
330
1F
100
AcDbEntity
  8
0
  6
Continuous
 62
     7
100
AcDbLine
 10
-0.4825590116
 20
0.7368557989
 30
0.0
 11
-0.4842752114
 21
0.7374087195
 31
0.0
  0
LINE
  5
2AD
330
1F
100
AcDbEntity
  8
0
  6
Continuous
 62
     7
100
AcDbLine
 10
-0.4842752114
 20
0.7374087195
 30
0.0
 11
-0.48616035
 21
0.7383376266
 31
0.0
  0
LINE
  5
2AE
330
1F
100
AcDbEntity
  8
0
  6
Continuous
 62
     7
100
AcDbLine
 10
-0.48616035
 20
0.7383376266
 30
0.0
 11
-0.488199818
 21
0.7396494551
 31
0.0
  0
LINE
  5
2AF
330
1F
100
AcDbEntity
  8
0
  6
Continuous
 62
     7
100
AcDbLine
 10
-0.488199818
 20
0.7396494551
 30
0.0
 11
-0.4938351887
 21
0.7439433768
 31
0.0
  0
LINE
  5
2B0
330
1F
100
AcDbEntity
  8
0
  6
Continuous
 62
     7
100
AcDbLine
 10
-0.4938351887
 20
0.7439433768
 30
0.0
 11
-0.4989007253
 21
0.7476432765
 31
0.0
  0
LINE
  5
2B1
330
1F
100
AcDbEntity
  8
0
  6
Continuous
 62
     7
100
AcDbLine
 10
-0.4989007253
 20
0.7476432765
 30
0.0
 11
-0.5043231677
 21
0.7514377618
 31
0.0
  0
LINE
  5
2B2
330
1F
100
AcDbEntity
  8
0
  6
Continuous
 62
     7
100
AcDbLine
 10
-0.5043231677
 20
0.7514377618
 30
0.0
 11
-0.5101083146
 21
0.7553138044
 31
0.0
  0
LINE
  5
2B3
330
1F
100
AcDbEntity
  8
0
  6
Continuous
 62
     7
100
AcDbLine
 10
-0.5101083146
 20
0.7553138044
 30
0.0
 11
-0.5162615813
 21
0.7592581823
 31
0.0
  0
LINE
  5
2B4
330
1F
100
AcDbEntity
  8
0
  6
Continuous
 62
     7
100
AcDbLine
 10
-0.5162615813
 20
0.7592581823
 30
0.0
 11
-0.5227879949
 21
0.7632574898
 31
0.0
  0
LINE
  5
2B5
330
1F
100
AcDbEntity
  8
0
  6
Continuous
 62
     7
100
AcDbLine
 10
-0.5227879949
 20
0.7632574898
 30
0.0
 11
-0.5296921884
 21
0.7672981481
 31
0.0
  0
LINE
  5
2B6
330
1F
100
AcDbEntity
  8
0
  6
Continuous
 62
     7
100
AcDbLine
 10
-0.5296921884
 20
0.7672981481
 30
0.0
 11
-0.5369783961
 21
0.771366415
 31
0.0
  0
LINE
  5
2B7
330
1F
100
AcDbEntity
  8
0
  6
Continuous
 62
     7
100
AcDbLine
 10
-0.5369783961
 20
0.771366415
 30
0.0
 11
-0.5446504514
 21
0.7754483979
 31
0.0
  0
LINE
  5
2B8
330
1F
100
AcDbEntity
  8
0
  6
Continuous
 62
     7
100
AcDbLine
 10
-0.5446504514
 20
0.7754483979
 30
0.0
 11
-0.5527117758
 21
0.7795300604
 31
0.0
  0
LINE
  5
2B9
330
1F
100
AcDbEntity
  8
0
  6
Continuous
 62
     7
100
AcDbLine
 10
-0.5527117758
 20
0.7795300604
 30
0.0
 11
-0.5611653823
 21
0.7835972369
 31
0.0
  0
LINE
  5
2BA
330
1F
100
AcDbEntity
  8
0
  6
Continuous
 62
     7
100
AcDbLine
 10
-0.5611653823
 20
0.7835972369
 30
0.0
 11
-0.5700138673
 21
0.787635642
 31
0.0
  0
LINE
  5
2BB
330
1F
100
AcDbEntity
  8
0
  6
Continuous
 62
     7
100
AcDbLine
 10
-0.5700138673
 20
0.787635642
 30
0.0
 11
-0.5792594082
 21
0.7916308815
 31
0.0
  0
LINE
  5
2BC
330
1F
100
AcDbEntity
  8
0
  6
Continuous
 62
     7
100
AcDbLine
 10
-0.5792594082
 20
0.7916308815
 30
0.0
 11
-0.58890376
 21
0.7955684639
 31
0.0
  0
LINE
  5
2BD
330
1F
100
AcDbEntity
  8
0
  6
Continuous
 62
     7
100
AcDbLine
 10
-0.58890376
 20
0.7955684639
 30
0.0
 11
-0.5989482523
 21
0.7994338113
 31
0.0
  0
LINE
  5
2BE
330
1F
100
AcDbEntity
  8
0
  6
Continuous
 62
     7
100
AcDbLine
 10
-0.5989482523
 20
0.7994338113
 30
0.0
 11
-0.5991123587
 21
0.7994931735
 31
0.0
  0
LINE
  5
2BF
330
1F
100
AcDbEntity
  8
0
  6
Continuous
 62
     7
100
AcDbLine
 10
-0.5991123587
 20
0.7994931735
 30
0.0
 11
-0.6124288989
 21
0.7911929105
 31
0.0
  0
LINE
  5
2C0
330
1F
100
AcDbEntity
  8
0
  6
Continuous
 62
     7
100
AcDbLine
 10
-0.6124288989
 20
0.7911929105
 30
0.0
 11
-0.6238020181
 21
0.7803819545
 31
0.0
  0
LINE
  5
2C1
330
1F
100
AcDbEntity
  8
0
  6
Continuous
 62
     7
100
AcDbLine
 10
-0.6238020181
 20
0.7803819545
 30
0.0
 11
-0.6237856847
 21
0.7802082076
 31
0.0
  0
LINE
  5
2C2
330
1F
100
AcDbEntity
  8
0
  6
Continuous
 62
     7
100
AcDbLine
 10
-0.6237856847
 20
0.7802082076
 30
0.0
 11
-0.6225614076
 21
0.7695155054
 31
0.0
  0
LINE
  5
2C3
330
1F
100
AcDbEntity
  8
0
  6
Continuous
 62
     7
100
AcDbLine
 10
-0.6225614076
 20
0.7695155054
 30
0.0
 11
-0.6211669055
 21
0.7591920641
 31
0.0
  0
LINE
  5
2C4
330
1F
100
AcDbEntity
  8
0
  6
Continuous
 62
     7
100
AcDbLine
 10
-0.6211669055
 20
0.7591920641
 30
0.0
 11
-0.6196166238
 21
0.7492402505
 31
0.0
  0
LINE
  5
2C5
330
1F
100
AcDbEntity
  8
0
  6
Continuous
 62
     7
100
AcDbLine
 10
-0.6196166238
 20
0.7492402505
 30
0.0
 11
-0.6179250314
 21
0.7396619982
 31
0.0
  0
LINE
  5
2C6
330
1F
100
AcDbEntity
  8
0
  6
Continuous
 62
     7
100
AcDbLine
 10
-0.6179250314
 20
0.7396619982
 30
0.0
 11
-0.6161066087
 21
0.7304588071
 31
0.0
  0
LINE
  5
2C7
330
1F
100
AcDbEntity
  8
0
  6
Continuous
 62
     7
100
AcDbLine
 10
-0.6161066087
 20
0.7304588071
 30
0.0
 11
-0.6141758361
 21
0.7216317443
 31
0.0
  0
LINE
  5
2C8
330
1F
100
AcDbEntity
  8
0
  6
Continuous
 62
     7
100
AcDbLine
 10
-0.6141758361
 20
0.7216317443
 30
0.0
 11
-0.6121471821
 21
0.7131814446
 31
0.0
  0
LINE
  5
2C9
330
1F
100
AcDbEntity
  8
0
  6
Continuous
 62
     7
100
AcDbLine
 10
-0.6121471821
 20
0.7131814446
 30
0.0
 11
-0.6100350921
 21
0.7051081115
 31
0.0
  0
LINE
  5
2CA
330
1F
100
AcDbEntity
  8
0
  6
Continuous
 62
     7
100
AcDbLine
 10
-0.6100350921
 20
0.7051081115
 30
0.0
 11
-0.6078539769
 21
0.6974115184
 31
0.0
  0
LINE
  5
2CB
330
1F
100
AcDbEntity
  8
0
  6
Continuous
 62
     7
100
AcDbLine
 10
-0.6078539769
 20
0.6974115184
 30
0.0
 11
-0.6056182009
 21
0.6900910102
 31
0.0
  0
LINE
  5
2CC
330
1F
100
AcDbEntity
  8
0
  6
Continuous
 62
     7
100
AcDbLine
 10
-0.6056182009
 20
0.6900910102
 30
0.0
 11
-0.6033420708
 21
0.6831455052
 31
0.0
  0
LINE
  5
2CD
330
1F
100
AcDbEntity
  8
0
  6
Continuous
 62
     7
100
AcDbLine
 10
-0.6033420708
 20
0.6831455052
 30
0.0
 11
-0.6010398244
 21
0.676573497
 31
0.0
  0
LINE
  5
2CE
330
1F
100
AcDbEntity
  8
0
  6
Continuous
 62
     7
100
AcDbLine
 10
-0.6010398244
 20
0.676573497
 30
0.0
 11
-0.5987259029
 21
0.6703737735
 31
0.0
  0
LINE
  5
2CF
330
1F
100
AcDbEntity
  8
0
  6
Continuous
 62
     7
100
AcDbLine
 10
-0.5987259029
 20
0.6703737735
 30
0.0
 11
-0.5964135962
 21
0.6645420185
 31
0.0
  0
LINE
  5
2D0
330
1F
100
AcDbEntity
  8
0
  6
Continuous
 62
     7
100
AcDbLine
 10
-0.5964135962
 20
0.6645420185
 30
0.0
 11
-0.5936691928
 21
0.6580100821
 31
0.0
  0
LINE
  5
2D1
330
1F
100
AcDbEntity
  8
0
  6
Continuous
 62
     7
100
AcDbLine
 10
-0.5936691928
 20
0.6580100821
 30
0.0
 11
-0.5929104488
 21
0.655706903
 31
0.0
  0
LINE
  5
2D2
330
1F
100
AcDbEntity
  8
0
  6
Continuous
 62
     7
100
AcDbLine
 10
-0.5929104488
 20
0.655706903
 30
0.0
 11
-0.5924837546
 21
0.6536490941
 31
0.0
  0
LINE
  5
2D3
330
1F
100
AcDbEntity
  8
0
  6
Continuous
 62
     7
100
AcDbLine
 10
-0.5924837546
 20
0.6536490941
 30
0.0
 11
-0.5923786007
 21
0.6518491095
 31
0.0
  0
LINE
  5
2D4
330
1F
100
AcDbEntity
  8
0
  6
Continuous
 62
     7
100
AcDbLine
 10
-0.5923786007
 20
0.6518491095
 30
0.0
 11
-0.5925844005
 21
0.6503189752
 31
0.0
  0
LINE
  5
2D5
330
1F
100
AcDbEntity
  8
0
  6
Continuous
 62
     7
100
AcDbLine
 10
-0.5925844005
 20
0.6503189752
 30
0.0
 11
-0.5930900053
 21
0.6490704622
 31
0.0
  0
LINE
  5
2D6
330
1F
100
AcDbEntity
  8
0
  6
Continuous
 62
     7
100
AcDbLine
 10
-0.5930900053
 20
0.6490704622
 30
0.0
 11
-0.593883974
 21
0.6481149805
 31
0.0
  0
LINE
  5
2D7
330
1F
100
AcDbEntity
  8
0
  6
Continuous
 62
     7
100
AcDbLine
 10
-0.593883974
 20
0.6481149805
 30
0.0
 11
-0.599186861
 21
0.6432749687
 31
0.0
  0
LINE
  5
2D8
330
1F
100
AcDbEntity
  8
0
  6
Continuous
 62
     7
100
AcDbLine
 10
-0.599186861
 20
0.6432749687
 30
0.0
 11
-0.6121010135
 21
0.6309991514
 31
0.0
  0
LINE
  5
2D9
330
1F
100
AcDbEntity
  8
0
  6
Continuous
 62
     7
100
AcDbLine
 10
-0.6121010135
 20
0.6309991514
 30
0.0
 11
-0.6172033999
 21
0.6259482132
 31
0.0
  0
LINE
  5
2DA
330
1F
100
AcDbEntity
  8
0
  6
Continuous
 62
     7
100
AcDbLine
 10
-0.6172033999
 20
0.6259482132
 30
0.0
 11
-0.6181978691
 21
0.625203658
 31
0.0
  0
LINE
  5
2DB
330
1F
100
AcDbEntity
  8
0
  6
Continuous
 62
     7
100
AcDbLine
 10
-0.6181978691
 20
0.625203658
 30
0.0
 11
-0.6194703881
 21
0.6247619383
 31
0.0
  0
LINE
  5
2DC
330
1F
100
AcDbEntity
  8
0
  6
Continuous
 62
     7
100
AcDbLine
 10
-0.6194703881
 20
0.6247619383
 30
0.0
 11
-0.6210089821
 21
0.6246339026
 31
0.0
  0
LINE
  5
2DD
330
1F
100
AcDbEntity
  8
0
  6
Continuous
 62
     7
100
AcDbLine
 10
-0.6210089821
 20
0.6246339026
 30
0.0
 11
-0.6228013533
 21
0.6248300363
 31
0.0
  0
LINE
  5
2DE
330
1F
100
AcDbEntity
  8
0
  6
Continuous
 62
     7
100
AcDbLine
 10
-0.6228013533
 20
0.6248300363
 30
0.0
 11
-0.6248348907
 21
0.6253604531
 31
0.0
  0
LINE
  5
2DF
330
1F
100
AcDbEntity
  8
0
  6
Continuous
 62
     7
100
AcDbLine
 10
-0.6248348907
 20
0.6253604531
 30
0.0
 11
-0.6270966797
 21
0.6262348864
 31
0.0
  0
LINE
  5
2E0
330
1F
100
AcDbEntity
  8
0
  6
Continuous
 62
     7
100
AcDbLine
 10
-0.6270966797
 20
0.6262348864
 30
0.0
 11
-0.6334810541
 21
0.6293065196
 31
0.0
  0
LINE
  5
2E1
330
1F
100
AcDbEntity
  8
0
  6
Continuous
 62
     7
100
AcDbLine
 10
-0.6334810541
 20
0.6293065196
 30
0.0
 11
-0.6391876832
 21
0.6319109971
 31
0.0
  0
LINE
  5
2E2
330
1F
100
AcDbEntity
  8
0
  6
Continuous
 62
     7
100
AcDbLine
 10
-0.6391876832
 20
0.6319109971
 30
0.0
 11
-0.6452629522
 21
0.6345362793
 31
0.0
  0
LINE
  5
2E3
330
1F
100
AcDbEntity
  8
0
  6
Continuous
 62
     7
100
AcDbLine
 10
-0.6452629522
 20
0.6345362793
 30
0.0
 11
-0.6517099184
 21
0.6371684376
 31
0.0
  0
LINE
  5
2E4
330
1F
100
AcDbEntity
  8
0
  6
Continuous
 62
     7
100
AcDbLine
 10
-0.6517099184
 20
0.6371684376
 30
0.0
 11
-0.6585312249
 21
0.6397934304
 31
0.0
  0
LINE
  5
2E5
330
1F
100
AcDbEntity
  8
0
  6
Continuous
 62
     7
100
AcDbLine
 10
-0.6585312249
 20
0.6397934304
 30
0.0
 11
-0.665729097
 21
0.6423971144
 31
0.0
  0
LINE
  5
2E6
330
1F
100
AcDbEntity
  8
0
  6
Continuous
 62
     7
100
AcDbLine
 10
-0.665729097
 20
0.6423971144
 30
0.0
 11
-0.6733053399
 21
0.6449652563
 31
0.0
  0
LINE
  5
2E7
330
1F
100
AcDbEntity
  8
0
  6
Continuous
 62
     7
100
AcDbLine
 10
-0.6733053399
 20
0.6449652563
 30
0.0
 11
-0.6812613346
 21
0.6474835427
 31
0.0
  0
LINE
  5
2E8
330
1F
100
AcDbEntity
  8
0
  6
Continuous
 62
     7
100
AcDbLine
 10
-0.6812613346
 20
0.6474835427
 30
0.0
 11
-0.6895980395
 21
0.6499375938
 31
0.0
  0
LINE
  5
2E9
330
1F
100
AcDbEntity
  8
0
  6
Continuous
 62
     7
100
AcDbLine
 10
-0.6895980395
 20
0.6499375938
 30
0.0
 11
-0.6983159808
 21
0.6523129718
 31
0.0
  0
LINE
  5
2EA
330
1F
100
AcDbEntity
  8
0
  6
Continuous
 62
     7
100
AcDbLine
 10
-0.6983159808
 20
0.6523129718
 30
0.0
 11
-0.7074152581
 21
0.6545951945
 31
0.0
  0
LINE
  5
2EB
330
1F
100
AcDbEntity
  8
0
  6
Continuous
 62
     7
100
AcDbLine
 10
-0.7074152581
 20
0.6545951945
 30
0.0
 11
-0.7168955391
 21
0.6567697462
 31
0.0
  0
LINE
  5
2EC
330
1F
100
AcDbEntity
  8
0
  6
Continuous
 62
     7
100
AcDbLine
 10
-0.7168955391
 20
0.6567697462
 30
0.0
 11
-0.726756059
 21
0.6588220892
 31
0.0
  0
LINE
  5
2ED
330
1F
100
AcDbEntity
  8
0
  6
Continuous
 62
     7
100
AcDbLine
 10
-0.726756059
 20
0.6588220892
 30
0.0
 11
-0.7369956199
 21
0.6607376753
 31
0.0
  0
LINE
  5
2EE
330
1F
100
AcDbEntity
  8
0
  6
Continuous
 62
     7
100
AcDbLine
 10
-0.7369956199
 20
0.6607376753
 30
0.0
 11
-0.7476125895
 21
0.6625019574
 31
0.0
  0
LINE
  5
2EF
330
1F
100
AcDbEntity
  8
0
  6
Continuous
 62
     7
100
AcDbLine
 10
-0.7476125895
 20
0.6625019574
 30
0.0
 11
-0.7477852861
 21
0.6625270701
 31
0.0
  0
LINE
  5
2F0
330
1F
100
AcDbEntity
  8
0
  6
Continuous
 62
     7
100
AcDbLine
 10
-0.7477852861
 20
0.6625270701
 30
0.0
 11
-0.7591584053
 21
0.6517161141
 31
0.0
  0
LINE
  5
2F1
330
1F
100
AcDbEntity
  8
0
  6
Continuous
 62
     7
100
AcDbLine
 10
-0.7591584053
 20
0.6517161141
 30
0.0
 11
-0.7681224867
 21
0.638837067
 31
0.0
  0
LINE
  5
2F2
330
1F
100
AcDbEntity
  8
0
  6
Continuous
 62
     7
100
AcDbLine
 10
-0.7681224867
 20
0.638837067
 30
0.0
 11
-0.7680715126
 21
0.6386701646
 31
0.0
  0
LINE
  5
2F3
330
1F
100
AcDbEntity
  8
0
  6
Continuous
 62
     7
100
AcDbLine
 10
-0.7680715126
 20
0.6386701646
 30
0.0
 11
-0.7647198715
 21
0.6284427877
 31
0.0
  0
LINE
  5
2F4
330
1F
100
AcDbEntity
  8
0
  6
Continuous
 62
     7
100
AcDbLine
 10
-0.7647198715
 20
0.6284427877
 30
0.0
 11
-0.7612758214
 21
0.6186113791
 31
0.0
  0
LINE
  5
2F5
330
1F
100
AcDbEntity
  8
0
  6
Continuous
 62
     7
100
AcDbLine
 10
-0.7612758214
 20
0.6186113791
 30
0.0
 11
-0.7577539887
 21
0.6091753492
 31
0.0
  0
LINE
  5
2F6
330
1F
100
AcDbEntity
  8
0
  6
Continuous
 62
     7
100
AcDbLine
 10
-0.7577539887
 20
0.6091753492
 30
0.0
 11
-0.7541689353
 21
0.6001336793
 31
0.0
  0
LINE
  5
2F7
330
1F
100
AcDbEntity
  8
0
  6
Continuous
 62
     7
100
AcDbLine
 10
-0.7541689353
 20
0.6001336793
 30
0.0
 11
-0.7505351471
 21
0.5914849239
 31
0.0
  0
LINE
  5
2F8
330
1F
100
AcDbEntity
  8
0
  6
Continuous
 62
     7
100
AcDbLine
 10
-0.7505351471
 20
0.5914849239
 30
0.0
 11
-0.7468670228
 21
0.5832272133
 31
0.0
  0
LINE
  5
2F9
330
1F
100
AcDbEntity
  8
0
  6
Continuous
 62
     7
100
AcDbLine
 10
-0.7468670228
 20
0.5832272133
 30
0.0
 11
-0.7431788626
 21
0.5753582567
 31
0.0
  0
LINE
  5
2FA
330
1F
100
AcDbEntity
  8
0
  6
Continuous
 62
     7
100
AcDbLine
 10
-0.7431788626
 20
0.5753582567
 30
0.0
 11
-0.7394848573
 21
0.5678753458
 31
0.0
  0
LINE
  5
2FB
330
1F
100
AcDbEntity
  8
0
  6
Continuous
 62
     7
100
AcDbLine
 10
-0.7394848573
 20
0.5678753458
 30
0.0
 11
-0.7357990769
 21
0.5607753577
 31
0.0
  0
LINE
  5
2FC
330
1F
100
AcDbEntity
  8
0
  6
Continuous
 62
     7
100
AcDbLine
 10
-0.7357990769
 20
0.5607753577
 30
0.0
 11
-0.7321354598
 21
0.5540547591
 31
0.0
  0
LINE
  5
2FD
330
1F
100
AcDbEntity
  8
0
  6
Continuous
 62
     7
100
AcDbLine
 10
-0.7321354598
 20
0.5540547591
 30
0.0
 11
-0.7285078024
 21
0.5477096106
 31
0.0
  0
LINE
  5
2FE
330
1F
100
AcDbEntity
  8
0
  6
Continuous
 62
     7
100
AcDbLine
 10
-0.7285078024
 20
0.5477096106
 30
0.0
 11
-0.7249297475
 21
0.5417355706
 31
0.0
  0
LINE
  5
2FF
330
1F
100
AcDbEntity
  8
0
  6
Continuous
 62
     7
100
AcDbLine
 10
-0.7249297475
 20
0.5417355706
 30
0.0
 11
-0.721415197
 21
0.5361285447
 31
0.0
  0
LINE
  5
300
330
1F
100
AcDbEntity
  8
0
  6
Continuous
 62
     7
100
AcDbLine
 10
-0.721415197
 20
0.5361285447
 30
0.0
 11
-0.7179762997
 21
0.5308816301
 31
0.0
  0
LINE
  5
301
330
1F
100
AcDbEntity
  8
0
  6
Continuous
 62
     7
100
AcDbLine
 10
-0.7179762997
 20
0.5308816301
 30
0.0
 11
-0.7139732053
 21
0.5250358471
 31
0.0
  0
LINE
  5
302
330
1F
100
AcDbEntity
  8
0
  6
Continuous
 62
     7
100
AcDbLine
 10
-0.7139732053
 20
0.5250358471
 30
0.0
 11
-0.7127663663
 21
0.5229325483
 31
0.0
  0
LINE
  5
303
330
1F
100
AcDbEntity
  8
0
  6
Continuous
 62
     7
100
AcDbLine
 10
-0.7127663663
 20
0.5229325483
 30
0.0
 11
-0.7119341726
 21
0.5210027557
 31
0.0
  0
LINE
  5
304
330
1F
100
AcDbEntity
  8
0
  6
Continuous
 62
     7
100
AcDbLine
 10
-0.7119341726
 20
0.5210027557
 30
0.0
 11
-0.711468837
 21
0.5192607843
 31
0.0
  0
LINE
  5
305
330
1F
100
AcDbEntity
  8
0
  6
Continuous
 62
     7
100
AcDbLine
 10
-0.711468837
 20
0.5192607843
 30
0.0
 11
-0.7113624103
 21
0.5177205447
 31
0.0
  0
LINE
  5
306
330
1F
100
AcDbEntity
  8
0
  6
Continuous
 62
     7
100
AcDbLine
 10
-0.7113624103
 20
0.5177205447
 30
0.0
 11
-0.7116063415
 21
0.5163958114
 31
0.0
  0
LINE
  5
307
330
1F
100
AcDbEntity
  8
0
  6
Continuous
 62
     7
100
AcDbLine
 10
-0.7116063415
 20
0.5163958114
 30
0.0
 11
-0.7121917206
 21
0.5153000637
 31
0.0
  0
LINE
  5
308
330
1F
100
AcDbEntity
  8
0
  6
Continuous
 62
     7
100
AcDbLine
 10
-0.7121917206
 20
0.5153000637
 30
0.0
 11
-0.71641177
 21
0.509491664
 31
0.0
  0
LINE
  5
309
330
1F
100
AcDbEntity
  8
0
  6
Continuous
 62
     7
100
AcDbLine
 10
-0.71641177
 20
0.509491664
 30
0.0
 11
-0.7265904651
 21
0.4948675336
 31
0.0
  0
LINE
  5
30A
330
1F
100
AcDbEntity
  8
0
  6
Continuous
 62
     7
100
AcDbLine
 10
-0.7265904651
 20
0.4948675336
 30
0.0
 11
-0.730571659
 21
0.4888928855
 31
0.0
  0
LINE
  5
30B
330
1F
100
AcDbEntity
  8
0
  6
Continuous
 62
     7
100
AcDbLine
 10
-0.730571659
 20
0.4888928855
 30
0.0
 11
-0.7313958935
 21
0.4879633862
 31
0.0
  0
LINE
  5
30C
330
1F
100
AcDbEntity
  8
0
  6
Continuous
 62
     7
100
AcDbLine
 10
-0.7313958935
 20
0.4879633862
 30
0.0
 11
-0.7325534464
 21
0.4872745523
 31
0.0
  0
LINE
  5
30D
330
1F
100
AcDbEntity
  8
0
  6
Continuous
 62
     7
100
AcDbLine
 10
-0.7325534464
 20
0.4872745523
 30
0.0
 11
-0.7340347719
 21
0.4868394208
 31
0.0
  0
LINE
  5
30E
330
1F
100
AcDbEntity
  8
0
  6
Continuous
 62
     7
100
AcDbLine
 10
-0.7340347719
 20
0.4868394208
 30
0.0
 11
-0.7358299347
 21
0.486670738
 31
0.0
  0
LINE
  5
30F
330
1F
100
AcDbEntity
  8
0
  6
Continuous
 62
     7
100
AcDbLine
 10
-0.7358299347
 20
0.486670738
 30
0.0
 11
-0.7379286175
 21
0.4867809491
 31
0.0
  0
LINE
  5
310
330
1F
100
AcDbEntity
  8
0
  6
Continuous
 62
     7
100
AcDbLine
 10
-0.7379286175
 20
0.4867809491
 30
0.0
 11
-0.7403201297
 21
0.4871821879
 31
0.0
  0
LINE
  5
311
330
1F
100
AcDbEntity
  8
0
  6
Continuous
 62
     7
100
AcDbLine
 10
-0.7403201297
 20
0.4871821879
 30
0.0
 11
-0.7471921308
 21
0.4889057794
 31
0.0
  0
LINE
  5
312
330
1F
100
AcDbEntity
  8
0
  6
Continuous
 62
     7
100
AcDbLine
 10
-0.7471921308
 20
0.4889057794
 30
0.0
 11
-0.7533062223
 21
0.4903082071
 31
0.0
  0
LINE
  5
313
330
1F
100
AcDbEntity
  8
0
  6
Continuous
 62
     7
100
AcDbLine
 10
-0.7533062223
 20
0.4903082071
 30
0.0
 11
-0.7597855957
 21
0.4916568071
 31
0.0
  0
LINE
  5
314
330
1F
100
AcDbEntity
  8
0
  6
Continuous
 62
     7
100
AcDbLine
 10
-0.7597855957
 20
0.4916568071
 30
0.0
 11
-0.7666304417
 21
0.4929373201
 31
0.0
  0
LINE
  5
315
330
1F
100
AcDbEntity
  8
0
  6
Continuous
 62
     7
100
AcDbLine
 10
-0.7666304417
 20
0.4929373201
 30
0.0
 11
-0.7738405227
 21
0.4941354603
 31
0.0
  0
LINE
  5
316
330
1F
100
AcDbEntity
  8
0
  6
Continuous
 62
     7
100
AcDbLine
 10
-0.7738405227
 20
0.4941354603
 30
0.0
 11
-0.7814151718
 21
0.4952369258
 31
0.0
  0
LINE
  5
317
330
1F
100
AcDbEntity
  8
0
  6
Continuous
 62
     7
100
AcDbLine
 10
-0.7814151718
 20
0.4952369258
 30
0.0
 11
-0.7893532917
 21
0.4962274112
 31
0.0
  0
LINE
  5
318
330
1F
100
AcDbEntity
  8
0
  6
Continuous
 62
     7
100
AcDbLine
 10
-0.7893532917
 20
0.4962274112
 30
0.0
 11
-0.7976533539
 21
0.4970926181
 31
0.0
  0
LINE
  5
319
330
1F
100
AcDbEntity
  8
0
  6
Continuous
 62
     7
100
AcDbLine
 10
-0.7976533539
 20
0.4970926181
 30
0.0
 11
-0.8063134029
 21
0.4978182683
 31
0.0
  0
LINE
  5
31A
330
1F
100
AcDbEntity
  8
0
  6
Continuous
 62
     7
100
AcDbLine
 10
-0.8063134029
 20
0.4978182683
 30
0.0
 11
-0.8153310475
 21
0.4983901134
 31
0.0
  0
LINE
  5
31B
330
1F
100
AcDbEntity
  8
0
  6
Continuous
 62
     7
100
AcDbLine
 10
-0.8153310475
 20
0.4983901134
 30
0.0
 11
-0.8247034701
 21
0.4987939478
 31
0.0
  0
LINE
  5
31C
330
1F
100
AcDbEntity
  8
0
  6
Continuous
 62
     7
100
AcDbLine
 10
-0.8247034701
 20
0.4987939478
 30
0.0
 11
-0.8344274232
 21
0.4990156198
 31
0.0
  0
LINE
  5
31D
330
1F
100
AcDbEntity
  8
0
  6
Continuous
 62
     7
100
AcDbLine
 10
-0.8344274232
 20
0.4990156198
 30
0.0
 11
-0.8444992314
 21
0.4990410432
 31
0.0
  0
LINE
  5
31E
330
1F
100
AcDbEntity
  8
0
  6
Continuous
 62
     7
100
AcDbLine
 10
-0.8444992314
 20
0.4990410432
 30
0.0
 11
-0.8549147924
 21
0.4988562087
 31
0.0
  0
LINE
  5
31F
330
1F
100
AcDbEntity
  8
0
  6
Continuous
 62
     7
100
AcDbLine
 10
-0.8549147924
 20
0.4988562087
 30
0.0
 11
-0.8656695795
 21
0.4984471956
 31
0.0
  0
LINE
  5
320
330
1F
100
AcDbEntity
  8
0
  6
Continuous
 62
     7
100
AcDbLine
 10
-0.8656695795
 20
0.4984471956
 30
0.0
 11
-0.8658437961
 21
0.4984370306
 31
0.0
  0
LINE
  5
321
330
1F
100
AcDbEntity
  8
0
  6
Continuous
 62
     7
100
AcDbLine
 10
-0.8658437961
 20
0.4984370306
 30
0.0
 11
-0.8748078775
 21
0.4855579835
 31
0.0
  0
LINE
  5
322
330
1F
100
AcDbEntity
  8
0
  6
Continuous
 62
     7
100
AcDbLine
 10
-0.8748078775
 20
0.4855579835
 30
0.0
 11
-0.8809959304
 21
0.4711381149
 31
0.0
  0
LINE
  5
323
330
1F
100
AcDbEntity
  8
0
  6
Continuous
 62
     7
100
AcDbLine
 10
-0.8809959304
 20
0.4711381149
 30
0.0
 11
-0.8809124026
 21
0.47098489
 31
0.0
  0
LINE
  5
324
330
1F
100
AcDbEntity
  8
0
  6
Continuous
 62
     7
100
AcDbLine
 10
-0.8809124026
 20
0.47098489
 30
0.0
 11
-0.8755706139
 21
0.4616415485
 31
0.0
  0
LINE
  5
325
330
1F
100
AcDbEntity
  8
0
  6
Continuous
 62
     7
100
AcDbLine
 10
-0.8755706139
 20
0.4616415485
 30
0.0
 11
-0.8702180157
 21
0.4527046716
 31
0.0
  0
LINE
  5
326
330
1F
100
AcDbEntity
  8
0
  6
Continuous
 62
     7
100
AcDbLine
 10
-0.8702180157
 20
0.4527046716
 30
0.0
 11
-0.8648688163
 21
0.4441707375
 31
0.0
  0
LINE
  5
327
330
1F
100
AcDbEntity
  8
0
  6
Continuous
 62
     7
100
AcDbLine
 10
-0.8648688163
 20
0.4441707375
 30
0.0
 11
-0.8595370744
 21
0.4360358171
 31
0.0
  0
LINE
  5
328
330
1F
100
AcDbEntity
  8
0
  6
Continuous
 62
     7
100
AcDbLine
 10
-0.8595370744
 20
0.4360358171
 30
0.0
 11
-0.8542366884
 21
0.4282955783
 31
0.0
  0
LINE
  5
329
330
1F
100
AcDbEntity
  8
0
  6
Continuous
 62
     7
100
AcDbLine
 10
-0.8542366884
 20
0.4282955783
 30
0.0
 11
-0.8489813859
 21
0.4209452915
 31
0.0
  0
LINE
  5
32A
330
1F
100
AcDbEntity
  8
0
  6
Continuous
 62
     7
100
AcDbLine
 10
-0.8489813859
 20
0.4209452915
 30
0.0
 11
-0.8437847133
 21
0.4139798342
 31
0.0
  0
LINE
  5
32B
330
1F
100
AcDbEntity
  8
0
  6
Continuous
 62
     7
100
AcDbLine
 10
-0.8437847133
 20
0.4139798342
 30
0.0
 11
-0.8386600255
 21
0.4073936967
 31
0.0
  0
LINE
  5
32C
330
1F
100
AcDbEntity
  8
0
  6
Continuous
 62
     7
100
AcDbLine
 10
-0.8386600255
 20
0.4073936967
 30
0.0
 11
-0.8336204761
 21
0.4011809879
 31
0.0
  0
LINE
  5
32D
330
1F
100
AcDbEntity
  8
0
  6
Continuous
 62
     7
100
AcDbLine
 10
-0.8336204761
 20
0.4011809879
 30
0.0
 11
-0.828679007
 21
0.3953354411
 31
0.0
  0
LINE
  5
32E
330
1F
100
AcDbEntity
  8
0
  6
Continuous
 62
     7
100
AcDbLine
 10
-0.828679007
 20
0.3953354411
 30
0.0
 11
-0.8238483389
 21
0.3898504202
 31
0.0
  0
LINE
  5
32F
330
1F
100
AcDbEntity
  8
0
  6
Continuous
 62
     7
100
AcDbLine
 10
-0.8238483389
 20
0.3898504202
 30
0.0
 11
-0.8191409616
 21
0.3847189263
 31
0.0
  0
LINE
  5
330
330
1F
100
AcDbEntity
  8
0
  6
Continuous
 62
     7
100
AcDbLine
 10
-0.8191409616
 20
0.3847189263
 30
0.0
 11
-0.8145696682
 21
0.3799341504
 31
0.0
  0
LINE
  5
331
330
1F
100
AcDbEntity
  8
0
  6
Continuous
 62
     7
100
AcDbLine
 10
-0.8145696682
 20
0.3799341504
 30
0.0
 11
-0.8101449692
 21
0.3754868854
 31
0.0
  0
LINE
  5
332
330
1F
100
AcDbEntity
  8
0
  6
Continuous
 62
     7
100
AcDbLine
 10
-0.8101449692
 20
0.3754868854
 30
0.0
 11
-0.8050470709
 21
0.3705665829
 31
0.0
  0
LINE
  5
333
330
1F
100
AcDbEntity
  8
0
  6
Continuous
 62
     7
100
AcDbLine
 10
-0.8050470709
 20
0.3705665829
 30
0.0
 11
-0.803441545
 21
0.3687492736
 31
0.0
  0
LINE
  5
334
330
1F
100
AcDbEntity
  8
0
  6
Continuous
 62
     7
100
AcDbLine
 10
-0.803441545
 20
0.3687492736
 30
0.0
 11
-0.802237922
 21
0.3670265034
 31
0.0
  0
LINE
  5
335
330
1F
100
AcDbEntity
  8
0
  6
Continuous
 62
     7
100
AcDbLine
 10
-0.802237922
 20
0.3670265034
 30
0.0
 11
-0.8014314555
 21
0.3654138616
 31
0.0
  0
LINE
  5
336
330
1F
100
AcDbEntity
  8
0
  6
Continuous
 62
     7
100
AcDbLine
 10
-0.8014314555
 20
0.3654138616
 30
0.0
 11
-0.8010171594
 21
0.3639265743
 31
0.0
  0
LINE
  5
337
330
1F
100
AcDbEntity
  8
0
  6
Continuous
 62
     7
100
AcDbLine
 10
-0.8010171594
 20
0.3639265743
 30
0.0
 11
-0.8009894305
 21
0.3625798553
 31
0.0
  0
LINE
  5
338
330
1F
100
AcDbEntity
  8
0
  6
Continuous
 62
     7
100
AcDbLine
 10
-0.8009894305
 20
0.3625798553
 30
0.0
 11
-0.8013422544
 21
0.3613887017
 31
0.0
  0
LINE
  5
339
330
1F
100
AcDbEntity
  8
0
  6
Continuous
 62
     7
100
AcDbLine
 10
-0.8013422544
 20
0.3613887017
 30
0.0
 11
-0.8043066969
 21
0.3548497106
 31
0.0
  0
LINE
  5
33A
330
1F
100
AcDbEntity
  8
0
  6
Continuous
 62
     7
100
AcDbLine
 10
-0.8043066969
 20
0.3548497106
 30
0.0
 11
-0.8113332178
 21
0.3384759808
 31
0.0
  0
LINE
  5
33B
330
1F
100
AcDbEntity
  8
0
  6
Continuous
 62
     7
100
AcDbLine
 10
-0.8113332178
 20
0.3384759808
 30
0.0
 11
-0.8140302285
 21
0.3318222257
 31
0.0
  0
LINE
  5
33C
330
1F
100
AcDbEntity
  8
0
  6
Continuous
 62
     7
100
AcDbLine
 10
-0.8140302285
 20
0.3318222257
 30
0.0
 11
-0.8146504841
 21
0.3307458361
 31
0.0
  0
LINE
  5
33D
330
1F
100
AcDbEntity
  8
0
  6
Continuous
 62
     7
100
AcDbLine
 10
-0.8146504841
 20
0.3307458361
 30
0.0
 11
-0.8156456806
 21
0.329838089
 31
0.0
  0
LINE
  5
33E
330
1F
100
AcDbEntity
  8
0
  6
Continuous
 62
     7
100
AcDbLine
 10
-0.8156456806
 20
0.329838089
 30
0.0
 11
-0.817009092
 21
0.329113676
 31
0.0
  0
LINE
  5
33F
330
1F
100
AcDbEntity
  8
0
  6
Continuous
 62
     7
100
AcDbLine
 10
-0.817009092
 20
0.329113676
 30
0.0
 11
-0.818733552
 21
0.3285870825
 31
0.0
  0
LINE
  5
340
330
1F
100
AcDbEntity
  8
0
  6
Continuous
 62
     7
100
AcDbLine
 10
-0.818733552
 20
0.3285870825
 30
0.0
 11
-0.82081146
 21
0.3282725758
 31
0.0
  0
LINE
  5
341
330
1F
100
AcDbEntity
  8
0
  6
Continuous
 62
     7
100
AcDbLine
 10
-0.82081146
 20
0.3282725758
 30
0.0
 11
-0.8232347866
 21
0.3281841934
 31
0.0
  0
LINE
  5
342
330
1F
100
AcDbEntity
  8
0
  6
Continuous
 62
     7
100
AcDbLine
 10
-0.8232347866
 20
0.3281841934
 30
0.0
 11
-0.8303130739
 21
0.3284891793
 31
0.0
  0
LINE
  5
343
330
1F
100
AcDbEntity
  8
0
  6
Continuous
 62
     7
100
AcDbLine
 10
-0.8303130739
 20
0.3284891793
 30
0.0
 11
-0.8365843162
 21
0.3286321416
 31
0.0
  0
LINE
  5
344
330
1F
100
AcDbEntity
  8
0
  6
Continuous
 62
     7
100
AcDbLine
 10
-0.8365843162
 20
0.3286321416
 30
0.0
 11
-0.8432025275
 21
0.3286488473
 31
0.0
  0
LINE
  5
345
330
1F
100
AcDbEntity
  8
0
  6
Continuous
 62
     7
100
AcDbLine
 10
-0.8432025275
 20
0.3286488473
 30
0.0
 11
-0.8501650245
 21
0.3285252909
 31
0.0
  0
LINE
  5
346
330
1F
100
AcDbEntity
  8
0
  6
Continuous
 62
     7
100
AcDbLine
 10
-0.8501650245
 20
0.3285252909
 30
0.0
 11
-0.8574686986
 21
0.3282475264
 31
0.0
  0
LINE
  5
347
330
1F
100
AcDbEntity
  8
0
  6
Continuous
 62
     7
100
AcDbLine
 10
-0.8574686986
 20
0.3282475264
 30
0.0
 11
-0.8651100175
 21
0.3278016791
 31
0.0
  0
LINE
  5
348
330
1F
100
AcDbEntity
  8
0
  6
Continuous
 62
     7
100
AcDbLine
 10
-0.8651100175
 20
0.3278016791
 30
0.0
 11
-0.8730850269
 21
0.3271739575
 31
0.0
  0
LINE
  5
349
330
1F
100
AcDbEntity
  8
0
  6
Continuous
 62
     7
100
AcDbLine
 10
-0.8730850269
 20
0.3271739575
 30
0.0
 11
-0.8813893513
 21
0.3263506633
 31
0.0
  0
LINE
  5
34A
330
1F
100
AcDbEntity
  8
0
  6
Continuous
 62
     7
100
AcDbLine
 10
-0.8813893513
 20
0.3263506633
 30
0.0
 11
-0.8900182009
 21
0.3253182044
 31
0.0
  0
LINE
  5
34B
330
1F
100
AcDbEntity
  8
0
  6
Continuous
 62
     7
100
AcDbLine
 10
-0.8900182009
 20
0.3253182044
 30
0.0
 11
-0.8989663653
 21
0.3240631053
 31
0.0
  0
LINE
  5
34C
330
1F
100
AcDbEntity
  8
0
  6
Continuous
 62
     7
100
AcDbLine
 10
-0.8989663653
 20
0.3240631053
 30
0.0
 11
-0.9082282252
 21
0.3225720184
 31
0.0
  0
LINE
  5
34D
330
1F
100
AcDbEntity
  8
0
  6
Continuous
 62
     7
100
AcDbLine
 10
-0.9082282252
 20
0.3225720184
 30
0.0
 11
-0.9177977506
 21
0.3208317354
 31
0.0
  0
LINE
  5
34E
330
1F
100
AcDbEntity
  8
0
  6
Continuous
 62
     7
100
AcDbLine
 10
-0.9177977506
 20
0.3208317354
 30
0.0
 11
-0.9276685059
 21
0.3188291982
 31
0.0
  0
LINE
  5
34F
330
1F
100
AcDbEntity
  8
0
  6
Continuous
 62
     7
100
AcDbLine
 10
-0.9276685059
 20
0.3188291982
 30
0.0
 11
-0.937833653
 21
0.3165515103
 31
0.0
  0
LINE
  5
350
330
1F
100
AcDbEntity
  8
0
  6
Continuous
 62
     7
100
AcDbLine
 10
-0.937833653
 20
0.3165515103
 30
0.0
 11
-0.9482859552
 21
0.313985947
 31
0.0
  0
LINE
  5
351
330
1F
100
AcDbEntity
  8
0
  6
Continuous
 62
     7
100
AcDbLine
 10
-0.9482859552
 20
0.313985947
 30
0.0
 11
-0.9484545594
 21
0.3139409205
 31
0.0
  0
LINE
  5
352
330
1F
100
AcDbEntity
  8
0
  6
Continuous
 62
     7
100
AcDbLine
 10
-0.9484545594
 20
0.3139409205
 30
0.0
 11
-0.9546426123
 21
0.2995210519
 31
0.0
  0
LINE
  5
353
330
1F
100
AcDbEntity
  8
0
  6
Continuous
 62
     7
100
AcDbLine
 10
-0.9546426123
 20
0.2995210519
 30
0.0
 11
-0.9578012973
 21
0.284150713
 31
0.0
  0
LINE
  5
354
330
1F
100
AcDbEntity
  8
0
  6
Continuous
 62
     7
100
AcDbLine
 10
-0.9578012973
 20
0.284150713
 30
0.0
 11
-0.9576886353
 21
0.2840174387
 31
0.0
  0
LINE
  5
355
330
1F
100
AcDbEntity
  8
0
  6
Continuous
 62
     7
100
AcDbLine
 10
-0.9576886353
 20
0.2840174387
 30
0.0
 11
-0.9505753925
 21
0.2759406501
 31
0.0
  0
LINE
  5
356
330
1F
100
AcDbEntity
  8
0
  6
Continuous
 62
     7
100
AcDbLine
 10
-0.9505753925
 20
0.2759406501
 30
0.0
 11
-0.9435333822
 21
0.2682641817
 31
0.0
  0
LINE
  5
357
330
1F
100
AcDbEntity
  8
0
  6
Continuous
 62
     7
100
AcDbLine
 10
-0.9435333822
 20
0.2682641817
 30
0.0
 11
-0.9365758129
 21
0.2609817236
 31
0.0
  0
LINE
  5
358
330
1F
100
AcDbEntity
  8
0
  6
Continuous
 62
     7
100
AcDbLine
 10
-0.9365758129
 20
0.2609817236
 30
0.0
 11
-0.9297156647
 21
0.2540865972
 31
0.0
  0
LINE
  5
359
330
1F
100
AcDbEntity
  8
0
  6
Continuous
 62
     7
100
AcDbLine
 10
-0.9297156647
 20
0.2540865972
 30
0.0
 11
-0.9229656793
 21
0.2475717615
 31
0.0
  0
LINE
  5
35A
330
1F
100
AcDbEntity
  8
0
  6
Continuous
 62
     7
100
AcDbLine
 10
-0.9229656793
 20
0.2475717615
 30
0.0
 11
-0.9163383512
 21
0.2414298201
 31
0.0
  0
LINE
  5
35B
330
1F
100
AcDbEntity
  8
0
  6
Continuous
 62
     7
100
AcDbLine
 10
-0.9163383512
 20
0.2414298201
 30
0.0
 11
-0.9098459186
 21
0.2356530286
 31
0.0
  0
LINE
  5
35C
330
1F
100
AcDbEntity
  8
0
  6
Continuous
 62
     7
100
AcDbLine
 10
-0.9098459186
 20
0.2356530286
 30
0.0
 11
-0.9035003538
 21
0.2302333018
 31
0.0
  0
LINE
  5
35D
330
1F
100
AcDbEntity
  8
0
  6
Continuous
 62
     7
100
AcDbLine
 10
-0.9035003538
 20
0.2302333018
 30
0.0
 11
-0.8973133552
 21
0.2251622214
 31
0.0
  0
LINE
  5
35E
330
1F
100
AcDbEntity
  8
0
  6
Continuous
 62
     7
100
AcDbLine
 10
-0.8973133552
 20
0.2251622214
 30
0.0
 11
-0.8912963383
 21
0.2204310437
 31
0.0
  0
LINE
  5
35F
330
1F
100
AcDbEntity
  8
0
  6
Continuous
 62
     7
100
AcDbLine
 10
-0.8912963383
 20
0.2204310437
 30
0.0
 11
-0.8854604277
 21
0.2160307078
 31
0.0
  0
LINE
  5
360
330
1F
100
AcDbEntity
  8
0
  6
Continuous
 62
     7
100
AcDbLine
 10
-0.8854604277
 20
0.2160307078
 30
0.0
 11
-0.8798164486
 21
0.211951844
 31
0.0
  0
LINE
  5
361
330
1F
100
AcDbEntity
  8
0
  6
Continuous
 62
     7
100
AcDbLine
 10
-0.8798164486
 20
0.211951844
 30
0.0
 11
-0.8743755614
 21
0.2081852073
 31
0.0
  0
LINE
  5
362
330
1F
100
AcDbEntity
  8
0
  6
Continuous
 62
     7
100
AcDbLine
 10
-0.8743755614
 20
0.2081852073
 30
0.0
 11
-0.8691462084
 21
0.2047196634
 31
0.0
  0
LINE
  5
363
330
1F
100
AcDbEntity
  8
0
  6
Continuous
 62
     7
100
AcDbLine
 10
-0.8691462084
 20
0.2047196634
 30
0.0
 11
-0.8631622148
 21
0.2009262792
 31
0.0
  0
LINE
  5
364
330
1F
100
AcDbEntity
  8
0
  6
Continuous
 62
     7
100
AcDbLine
 10
-0.8631622148
 20
0.2009262792
 30
0.0
 11
-0.8612237324
 21
0.1994693604
 31
0.0
  0
LINE
  5
365
330
1F
100
AcDbEntity
  8
0
  6
Continuous
 62
     7
100
AcDbLine
 10
-0.8612237324
 20
0.1994693604
 30
0.0
 11
-0.8596979566
 21
0.1980241428
 31
0.0
  0
LINE
  5
366
330
1F
100
AcDbEntity
  8
0
  6
Continuous
 62
     7
100
AcDbLine
 10
-0.8596979566
 20
0.1980241428
 30
0.0
 11
-0.8585833761
 21
0.1966068524
 31
0.0
  0
LINE
  5
367
330
1F
100
AcDbEntity
  8
0
  6
Continuous
 62
     7
100
AcDbLine
 10
-0.8585833761
 20
0.1966068524
 30
0.0
 11
-0.857878172
 21
0.1952334072
 31
0.0
  0
LINE
  5
368
330
1F
100
AcDbEntity
  8
0
  6
Continuous
 62
     7
100
AcDbLine
 10
-0.857878172
 20
0.1952334072
 30
0.0
 11
-0.8575799181
 21
0.1939198374
 31
0.0
  0
LINE
  5
369
330
1F
100
AcDbEntity
  8
0
  6
Continuous
 62
     7
100
AcDbLine
 10
-0.8575799181
 20
0.1939198374
 30
0.0
 11
-0.8576857422
 21
0.1926820439
 31
0.0
  0
LINE
  5
36A
330
1F
100
AcDbEntity
  8
0
  6
Continuous
 62
     7
100
AcDbLine
 10
-0.8576857422
 20
0.1926820439
 30
0.0
 11
-0.8592732132
 21
0.1856801684
 31
0.0
  0
LINE
  5
36B
330
1F
100
AcDbEntity
  8
0
  6
Continuous
 62
     7
100
AcDbLine
 10
-0.8592732132
 20
0.1856801684
 30
0.0
 11
-0.8628598931
 21
0.1682271815
 31
0.0
  0
LINE
  5
36C
330
1F
100
AcDbEntity
  8
0
  6
Continuous
 62
     7
100
AcDbLine
 10
-0.8628598931
 20
0.1682271815
 30
0.0
 11
-0.8641623049
 21
0.1611667249
 31
0.0
  0
LINE
  5
36D
330
1F
100
AcDbEntity
  8
0
  6
Continuous
 62
     7
100
AcDbLine
 10
-0.8641623049
 20
0.1611667249
 30
0.0
 11
-0.8645531882
 21
0.1599875125
 31
0.0
  0
LINE
  5
36E
330
1F
100
AcDbEntity
  8
0
  6
Continuous
 62
     7
100
AcDbLine
 10
-0.8645531882
 20
0.1599875125
 30
0.0
 11
-0.8653452848
 21
0.1588980155
 31
0.0
  0
LINE
  5
36F
330
1F
100
AcDbEntity
  8
0
  6
Continuous
 62
     7
100
AcDbLine
 10
-0.8653452848
 20
0.1588980155
 30
0.0
 11
-0.8665349638
 21
0.1579139786
 31
0.0
  0
LINE
  5
370
330
1F
100
AcDbEntity
  8
0
  6
Continuous
 62
     7
100
AcDbLine
 10
-0.8665349638
 20
0.1579139786
 30
0.0
 11
-0.8681181215
 21
0.1570510333
 31
0.0
  0
LINE
  5
371
330
1F
100
AcDbEntity
  8
0
  6
Continuous
 62
     7
100
AcDbLine
 10
-0.8681181215
 20
0.1570510333
 30
0.0
 11
-0.8700901849
 21
0.1563246847
 31
0.0
  0
LINE
  5
372
330
1F
100
AcDbEntity
  8
0
  6
Continuous
 62
     7
100
AcDbLine
 10
-0.8700901849
 20
0.1563246847
 30
0.0
 11
-0.8724461146
 21
0.1557502995
 31
0.0
  0
LINE
  5
373
330
1F
100
AcDbEntity
  8
0
  6
Continuous
 62
     7
100
AcDbLine
 10
-0.8724461146
 20
0.1557502995
 30
0.0
 11
-0.8794409021
 21
0.1546241935
 31
0.0
  0
LINE
  5
374
330
1F
100
AcDbEntity
  8
0
  6
Continuous
 62
     7
100
AcDbLine
 10
-0.8794409021
 20
0.1546241935
 30
0.0
 11
-0.8856125499
 21
0.1535018376
 31
0.0
  0
LINE
  5
375
330
1F
100
AcDbEntity
  8
0
  6
Continuous
 62
     7
100
AcDbLine
 10
-0.8856125499
 20
0.1535018376
 30
0.0
 11
-0.8920986489
 21
0.1521859652
 31
0.0
  0
LINE
  5
376
330
1F
100
AcDbEntity
  8
0
  6
Continuous
 62
     7
100
AcDbLine
 10
-0.8920986489
 20
0.1521859652
 30
0.0
 11
-0.8988937514
 21
0.1506633976
 31
0.0
  0
LINE
  5
377
330
1F
100
AcDbEntity
  8
0
  6
Continuous
 62
     7
100
AcDbLine
 10
-0.8988937514
 20
0.1506633976
 30
0.0
 11
-0.9059920053
 21
0.1489211001
 31
0.0
  0
LINE
  5
378
330
1F
100
AcDbEntity
  8
0
  6
Continuous
 62
     7
100
AcDbLine
 10
-0.9059920053
 20
0.1489211001
 30
0.0
 11
-0.9133871576
 21
0.1469461933
 31
0.0
  0
LINE
  5
379
330
1F
100
AcDbEntity
  8
0
  6
Continuous
 62
     7
100
AcDbLine
 10
-0.9133871576
 20
0.1469461933
 30
0.0
 11
-0.9210725586
 21
0.1447259635
 31
0.0
  0
LINE
  5
37A
330
1F
100
AcDbEntity
  8
0
  6
Continuous
 62
     7
100
AcDbLine
 10
-0.9210725586
 20
0.1447259635
 30
0.0
 11
-0.929041165
 21
0.142247874
 31
0.0
  0
LINE
  5
37B
330
1F
100
AcDbEntity
  8
0
  6
Continuous
 62
     7
100
AcDbLine
 10
-0.929041165
 20
0.142247874
 30
0.0
 11
-0.9372855491
 21
0.1394995749
 31
0.0
  0
LINE
  5
37C
330
1F
100
AcDbEntity
  8
0
  6
Continuous
 62
     7
100
AcDbLine
 10
-0.9372855491
 20
0.1394995749
 30
0.0
 11
-0.9457978945
 21
0.1364689155
 31
0.0
  0
LINE
  5
37D
330
1F
100
AcDbEntity
  8
0
  6
Continuous
 62
     7
100
AcDbLine
 10
-0.9457978945
 20
0.1364689155
 30
0.0
 11
-0.95457001
 21
0.1331439526
 31
0.0
  0
LINE
  5
37E
330
1F
100
AcDbEntity
  8
0
  6
Continuous
 62
     7
100
AcDbLine
 10
-0.95457001
 20
0.1331439526
 30
0.0
 11
-0.9635933303
 21
0.129512962
 31
0.0
  0
LINE
  5
37F
330
1F
100
AcDbEntity
  8
0
  6
Continuous
 62
     7
100
AcDbLine
 10
-0.9635933303
 20
0.129512962
 30
0.0
 11
-0.9728589229
 21
0.1255644484
 31
0.0
  0
LINE
  5
380
330
1F
100
AcDbEntity
  8
0
  6
Continuous
 62
     7
100
AcDbLine
 10
-0.9728589229
 20
0.1255644484
 30
0.0
 11
-0.9823574935
 21
0.1212871558
 31
0.0
  0
LINE
  5
381
330
1F
100
AcDbEntity
  8
0
  6
Continuous
 62
     7
100
AcDbLine
 10
-0.9823574935
 20
0.1212871558
 30
0.0
 11
-0.9920793924
 21
0.1166700768
 31
0.0
  0
LINE
  5
382
330
1F
100
AcDbEntity
  8
0
  6
Continuous
 62
     7
100
AcDbLine
 10
-0.9920793924
 20
0.1166700768
 30
0.0
 11
-0.9922354815
 21
0.1165920322
 31
0.0
  0
LINE
  5
383
330
1F
100
AcDbEntity
  8
0
  6
Continuous
 62
     7
100
AcDbLine
 10
-0.9922354815
 20
0.1165920322
 30
0.0
 11
-0.9953941665
 21
0.1012216933
 31
0.0
  0
LINE
  5
384
330
1F
100
AcDbEntity
  8
0
  6
Continuous
 62
     7
100
AcDbLine
 10
-0.9953941665
 20
0.1012216933
 30
0.0
 11
-0.9953941665
 21
0.0855301475
 31
0.0
  0
LINE
  5
385
330
1F
100
AcDbEntity
  8
0
  6
Continuous
 62
     7
100
AcDbLine
 10
-0.9953941665
 20
0.0855301475
 30
0.0
 11
-0.9952569828
 21
0.08542228
 31
0.0
  0
LINE
  5
386
330
1F
100
AcDbEntity
  8
0
  6
Continuous
 62
     7
100
AcDbLine
 10
-0.9952569828
 20
0.08542228
 30
0.0
 11
-0.9866635029
 21
0.078942709
 31
0.0
  0
LINE
  5
387
330
1F
100
AcDbEntity
  8
0
  6
Continuous
 62
     7
100
AcDbLine
 10
-0.9866635029
 20
0.078942709
 30
0.0
 11
-0.9782203812
 21
0.0728409246
 31
0.0
  0
LINE
  5
388
330
1F
100
AcDbEntity
  8
0
  6
Continuous
 62
     7
100
AcDbLine
 10
-0.9782203812
 20
0.0728409246
 30
0.0
 11
-0.9699392858
 21
0.0671080873
 31
0.0
  0
LINE
  5
389
330
1F
100
AcDbEntity
  8
0
  6
Continuous
 62
     7
100
AcDbLine
 10
-0.9699392858
 20
0.0671080873
 30
0.0
 11
-0.9618315864
 21
0.0617350423
 31
0.0
  0
LINE
  5
38A
330
1F
100
AcDbEntity
  8
0
  6
Continuous
 62
     7
100
AcDbLine
 10
-0.9618315864
 20
0.0617350423
 30
0.0
 11
-0.9539083468
 21
0.0567123277
 31
0.0
  0
LINE
  5
38B
330
1F
100
AcDbEntity
  8
0
  6
Continuous
 62
     7
100
AcDbLine
 10
-0.9539083468
 20
0.0567123277
 30
0.0
 11
-0.9461803169
 21
0.0520301835
 31
0.0
  0
LINE
  5
38C
330
1F
100
AcDbEntity
  8
0
  6
Continuous
 62
     7
100
AcDbLine
 10
-0.9461803169
 20
0.0520301835
 30
0.0
 11
-0.9386579251
 21
0.0476785604
 31
0.0
  0
LINE
  5
38D
330
1F
100
AcDbEntity
  8
0
  6
Continuous
 62
     7
100
AcDbLine
 10
-0.9386579251
 20
0.0476785604
 30
0.0
 11
-0.9313512714
 21
0.0436471285
 31
0.0
  0
LINE
  5
38E
330
1F
100
AcDbEntity
  8
0
  6
Continuous
 62
     7
100
AcDbLine
 10
-0.9313512714
 20
0.0436471285
 30
0.0
 11
-0.92427012
 21
0.039925287
 31
0.0
  0
LINE
  5
38F
330
1F
100
AcDbEntity
  8
0
  6
Continuous
 62
     7
100
AcDbLine
 10
-0.92427012
 20
0.039925287
 30
0.0
 11
-0.9174238928
 21
0.0365021734
 31
0.0
  0
LINE
  5
390
330
1F
100
AcDbEntity
  8
0
  6
Continuous
 62
     7
100
AcDbLine
 10
-0.9174238928
 20
0.0365021734
 30
0.0
 11
-0.9108216625
 21
0.0333666729
 31
0.0
  0
LINE
  5
391
330
1F
100
AcDbEntity
  8
0
  6
Continuous
 62
     7
100
AcDbLine
 10
-0.9108216625
 20
0.0333666729
 30
0.0
 11
-0.9044721467
 21
0.0305074282
 31
0.0
  0
LINE
  5
392
330
1F
100
AcDbEntity
  8
0
  6
Continuous
 62
     7
100
AcDbLine
 10
-0.9044721467
 20
0.0305074282
 30
0.0
 11
-0.8983844165
 21
0.0279131374
 31
0.0
  0
LINE
  5
393
330
1F
100
AcDbEntity
  8
0
  6
Continuous
 62
     7
100
AcDbLine
 10
-0.8983844165
 20
0.0279131374
 30
0.0
 11
-0.8925644997
 21
0.0255711944
 31
0.0
  0
LINE
  5
394
330
1F
100
AcDbEntity
  8
0
  6
Continuous
 62
     7
100
AcDbLine
 10
-0.8925644997
 20
0.0255711944
 30
0.0
 11
-0.8859393962
 21
0.02306003
 31
0.0
  0
LINE
  5
395
330
1F
100
AcDbEntity
  8
0
  6
Continuous
 62
     7
100
AcDbLine
 10
-0.8859393962
 20
0.02306003
 30
0.0
 11
-0.8837473191
 21
0.022023148
 31
0.0
  0
LINE
  5
396
330
1F
100
AcDbEntity
  8
0
  6
Continuous
 62
     7
100
AcDbLine
 10
-0.8837473191
 20
0.022023148
 30
0.0
 11
-0.8819618558
 21
0.0209146506
 31
0.0
  0
LINE
  5
397
330
1F
100
AcDbEntity
  8
0
  6
Continuous
 62
     7
100
AcDbLine
 10
-0.8819618558
 20
0.0209146506
 30
0.0
 11
-0.8805847924
 21
0.0197507356
 31
0.0
  0
LINE
  5
398
330
1F
100
AcDbEntity
  8
0
  6
Continuous
 62
     7
100
AcDbLine
 10
-0.8805847924
 20
0.0197507356
 30
0.0
 11
-0.8796175513
 21
0.0185473614
 31
0.0
  0
LINE
  5
399
330
1F
100
AcDbEntity
  8
0
  6
Continuous
 62
     7
100
AcDbLine
 10
-0.8796175513
 20
0.0185473614
 30
0.0
 11
-0.8790609831
 21
0.0173207186
 31
0.0
  0
LINE
  5
39A
330
1F
100
AcDbEntity
  8
0
  6
Continuous
 62
     7
100
AcDbLine
 10
-0.8790609831
 20
0.0173207186
 30
0.0
 11
-0.878915475
 21
0.0160869605
 31
0.0
  0
LINE
  5
39B
330
1F
100
AcDbEntity
  8
0
  6
Continuous
 62
     7
100
AcDbLine
 10
-0.878915475
 20
0.0160869605
 30
0.0
 11
-0.8790609831
 21
0.0089088583
 31
0.0
  0
LINE
  5
39C
330
1F
100
AcDbEntity
  8
0
  6
Continuous
 62
     7
100
AcDbLine
 10
-0.8790609831
 20
0.0089088583
 30
0.0
 11
-0.8790609831
 21
-0.0089088583
 31
0.0
  0
LINE
  5
39D
330
1F
100
AcDbEntity
  8
0
  6
Continuous
 62
     7
100
AcDbLine
 10
-0.8790609831
 20
-0.0089088583
 30
0.0
 11
-0.878915475
 21
-0.0160869605
 31
0.0
  0
LINE
  5
39E
330
1F
100
AcDbEntity
  8
0
  6
Continuous
 62
     7
100
AcDbLine
 10
-0.878915475
 20
-0.0160869605
 30
0.0
 11
-0.8790609831
 21
-0.0173207186
 31
0.0
  0
LINE
  5
39F
330
1F
100
AcDbEntity
  8
0
  6
Continuous
 62
     7
100
AcDbLine
 10
-0.8790609831
 20
-0.0173207186
 30
0.0
 11
-0.8796175513
 21
-0.0185473614
 31
0.0
  0
LINE
  5
3A0
330
1F
100
AcDbEntity
  8
0
  6
Continuous
 62
     7
100
AcDbLine
 10
-0.8796175513
 20
-0.0185473614
 30
0.0
 11
-0.8805847923
 21
-0.0197507356
 31
0.0
  0
LINE
  5
3A1
330
1F
100
AcDbEntity
  8
0
  6
Continuous
 62
     7
100
AcDbLine
 10
-0.8805847923
 20
-0.0197507356
 30
0.0
 11
-0.8819618331
 21
-0.0209147037
 31
0.0
  0
LINE
  5
3A2
330
1F
100
AcDbEntity
  8
0
  6
Continuous
 62
     7
100
AcDbLine
 10
-0.8819618331
 20
-0.0209147037
 30
0.0
 11
-0.8837473153
 21
-0.0220231573
 31
0.0
  0
LINE
  5
3A3
330
1F
100
AcDbEntity
  8
0
  6
Continuous
 62
     7
100
AcDbLine
 10
-0.8837473153
 20
-0.0220231573
 30
0.0
 11
-0.8859393962
 21
-0.02306003
 31
0.0
  0
LINE
  5
3A4
330
1F
100
AcDbEntity
  8
0
  6
Continuous
 62
     7
100
AcDbLine
 10
-0.8859393962
 20
-0.02306003
 30
0.0
 11
-0.8925643165
 21
-0.0255711249
 31
0.0
  0
LINE
  5
3A5
330
1F
100
AcDbEntity
  8
0
  6
Continuous
 62
     7
100
AcDbLine
 10
-0.8925643165
 20
-0.0255711249
 30
0.0
 11
-0.8983837017
 21
-0.0279128497
 31
0.0
  0
LINE
  5
3A6
330
1F
100
AcDbEntity
  8
0
  6
Continuous
 62
     7
100
AcDbLine
 10
-0.8983837017
 20
-0.0279128497
 30
0.0
 11
-0.9044721467
 21
-0.0305074282
 31
0.0
  0
LINE
  5
3A7
330
1F
100
AcDbEntity
  8
0
  6
Continuous
 62
     7
100
AcDbLine
 10
-0.9044721467
 20
-0.0305074282
 30
0.0
 11
-0.9108216625
 21
-0.0333666729
 31
0.0
  0
LINE
  5
3A8
330
1F
100
AcDbEntity
  8
0
  6
Continuous
 62
     7
100
AcDbLine
 10
-0.9108216625
 20
-0.0333666729
 30
0.0
 11
-0.9174238928
 21
-0.0365021734
 31
0.0
  0
LINE
  5
3A9
330
1F
100
AcDbEntity
  8
0
  6
Continuous
 62
     7
100
AcDbLine
 10
-0.9174238928
 20
-0.0365021734
 30
0.0
 11
-0.92427012
 21
-0.039925287
 31
0.0
  0
LINE
  5
3AA
330
1F
100
AcDbEntity
  8
0
  6
Continuous
 62
     7
100
AcDbLine
 10
-0.92427012
 20
-0.039925287
 30
0.0
 11
-0.9313512714
 21
-0.0436471284
 31
0.0
  0
LINE
  5
3AB
330
1F
100
AcDbEntity
  8
0
  6
Continuous
 62
     7
100
AcDbLine
 10
-0.9313512714
 20
-0.0436471284
 30
0.0
 11
-0.9386579243
 21
-0.0476785599
 31
0.0
  0
LINE
  5
3AC
330
1F
100
AcDbEntity
  8
0
  6
Continuous
 62
     7
100
AcDbLine
 10
-0.9386579243
 20
-0.0476785599
 30
0.0
 11
-0.9461803169
 21
-0.0520301835
 31
0.0
  0
LINE
  5
3AD
330
1F
100
AcDbEntity
  8
0
  6
Continuous
 62
     7
100
AcDbLine
 10
-0.9461803169
 20
-0.0520301835
 30
0.0
 11
-0.9539083468
 21
-0.0567123277
 31
0.0
  0
LINE
  5
3AE
330
1F
100
AcDbEntity
  8
0
  6
Continuous
 62
     7
100
AcDbLine
 10
-0.9539083468
 20
-0.0567123277
 30
0.0
 11
-0.9618315864
 21
-0.0617350423
 31
0.0
  0
LINE
  5
3AF
330
1F
100
AcDbEntity
  8
0
  6
Continuous
 62
     7
100
AcDbLine
 10
-0.9618315864
 20
-0.0617350423
 30
0.0
 11
-0.9699392858
 21
-0.0671080873
 31
0.0
  0
LINE
  5
3B0
330
1F
100
AcDbEntity
  8
0
  6
Continuous
 62
     7
100
AcDbLine
 10
-0.9699392858
 20
-0.0671080873
 30
0.0
 11
-0.9782203812
 21
-0.0728409246
 31
0.0
  0
LINE
  5
3B1
330
1F
100
AcDbEntity
  8
0
  6
Continuous
 62
     7
100
AcDbLine
 10
-0.9782203812
 20
-0.0728409246
 30
0.0
 11
-0.9866635029
 21
-0.078942709
 31
0.0
  0
LINE
  5
3B2
330
1F
100
AcDbEntity
  8
0
  6
Continuous
 62
     7
100
AcDbLine
 10
-0.9866635029
 20
-0.078942709
 30
0.0
 11
-0.9952569828
 21
-0.08542228
 31
0.0
  0
LINE
  5
3B3
330
1F
100
AcDbEntity
  8
0
  6
Continuous
 62
     7
100
AcDbLine
 10
-0.9952569828
 20
-0.08542228
 30
0.0
 11
-0.9953941665
 21
-0.0855301475
 31
0.0
  0
LINE
  5
3B4
330
1F
100
AcDbEntity
  8
0
  6
Continuous
 62
     7
100
AcDbLine
 10
-0.9953941665
 20
-0.0855301475
 30
0.0
 11
-0.9953941665
 21
-0.1012216933
 31
0.0
  0
LINE
  5
3B5
330
1F
100
AcDbEntity
  8
0
  6
Continuous
 62
     7
100
AcDbLine
 10
-0.9953941665
 20
-0.1012216933
 30
0.0
 11
-0.9922354815
 21
-0.1165920322
 31
0.0
  0
LINE
  5
3B6
330
1F
100
AcDbEntity
  8
0
  6
Continuous
 62
     7
100
AcDbLine
 10
-0.9922354815
 20
-0.1165920322
 30
0.0
 11
-0.9920793924
 21
-0.1166700768
 31
0.0
  0
LINE
  5
3B7
330
1F
100
AcDbEntity
  8
0
  6
Continuous
 62
     7
100
AcDbLine
 10
-0.9920793924
 20
-0.1166700768
 30
0.0
 11
-0.9823574935
 21
-0.1212871558
 31
0.0
  0
LINE
  5
3B8
330
1F
100
AcDbEntity
  8
0
  6
Continuous
 62
     7
100
AcDbLine
 10
-0.9823574935
 20
-0.1212871558
 30
0.0
 11
-0.9728589229
 21
-0.1255644484
 31
0.0
  0
LINE
  5
3B9
330
1F
100
AcDbEntity
  8
0
  6
Continuous
 62
     7
100
AcDbLine
 10
-0.9728589229
 20
-0.1255644484
 30
0.0
 11
-0.9635933303
 21
-0.129512962
 31
0.0
  0
LINE
  5
3BA
330
1F
100
AcDbEntity
  8
0
  6
Continuous
 62
     7
100
AcDbLine
 10
-0.9635933303
 20
-0.129512962
 30
0.0
 11
-0.95457001
 21
-0.1331439526
 31
0.0
  0
LINE
  5
3BB
330
1F
100
AcDbEntity
  8
0
  6
Continuous
 62
     7
100
AcDbLine
 10
-0.95457001
 20
-0.1331439526
 30
0.0
 11
-0.9457978945
 21
-0.1364689155
 31
0.0
  0
LINE
  5
3BC
330
1F
100
AcDbEntity
  8
0
  6
Continuous
 62
     7
100
AcDbLine
 10
-0.9457978945
 20
-0.1364689155
 30
0.0
 11
-0.9372855491
 21
-0.1394995749
 31
0.0
  0
LINE
  5
3BD
330
1F
100
AcDbEntity
  8
0
  6
Continuous
 62
     7
100
AcDbLine
 10
-0.9372855491
 20
-0.1394995749
 30
0.0
 11
-0.9290411659
 21
-0.1422478737
 31
0.0
  0
LINE
  5
3BE
330
1F
100
AcDbEntity
  8
0
  6
Continuous
 62
     7
100
AcDbLine
 10
-0.9290411659
 20
-0.1422478737
 30
0.0
 11
-0.9210725585
 21
-0.1447259634
 31
0.0
  0
LINE
  5
3BF
330
1F
100
AcDbEntity
  8
0
  6
Continuous
 62
     7
100
AcDbLine
 10
-0.9210725585
 20
-0.1447259634
 30
0.0
 11
-0.9133871576
 21
-0.1469461933
 31
0.0
  0
LINE
  5
3C0
330
1F
100
AcDbEntity
  8
0
  6
Continuous
 62
     7
100
AcDbLine
 10
-0.9133871576
 20
-0.1469461933
 30
0.0
 11
-0.9059920053
 21
-0.1489211001
 31
0.0
  0
LINE
  5
3C1
330
1F
100
AcDbEntity
  8
0
  6
Continuous
 62
     7
100
AcDbLine
 10
-0.9059920053
 20
-0.1489211001
 30
0.0
 11
-0.8988937514
 21
-0.1506633976
 31
0.0
  0
LINE
  5
3C2
330
1F
100
AcDbEntity
  8
0
  6
Continuous
 62
     7
100
AcDbLine
 10
-0.8988937514
 20
-0.1506633976
 30
0.0
 11
-0.8920986489
 21
-0.1521859652
 31
0.0
  0
LINE
  5
3C3
330
1F
100
AcDbEntity
  8
0
  6
Continuous
 62
     7
100
AcDbLine
 10
-0.8920986489
 20
-0.1521859652
 30
0.0
 11
-0.8856133079
 21
-0.1535016997
 31
0.0
  0
LINE
  5
3C4
330
1F
100
AcDbEntity
  8
0
  6
Continuous
 62
     7
100
AcDbLine
 10
-0.8856133079
 20
-0.1535016997
 30
0.0
 11
-0.8794410956
 21
-0.1546241623
 31
0.0
  0
LINE
  5
3C5
330
1F
100
AcDbEntity
  8
0
  6
Continuous
 62
     7
100
AcDbLine
 10
-0.8794410956
 20
-0.1546241623
 30
0.0
 11
-0.8724461146
 21
-0.1557502995
 31
0.0
  0
LINE
  5
3C6
330
1F
100
AcDbEntity
  8
0
  6
Continuous
 62
     7
100
AcDbLine
 10
-0.8724461146
 20
-0.1557502995
 30
0.0
 11
-0.8700901866
 21
-0.1563246946
 31
0.0
  0
LINE
  5
3C7
330
1F
100
AcDbEntity
  8
0
  6
Continuous
 62
     7
100
AcDbLine
 10
-0.8700901866
 20
-0.1563246946
 30
0.0
 11
-0.868118133
 21
-0.1570510899
 31
0.0
  0
LINE
  5
3C8
330
1F
100
AcDbEntity
  8
0
  6
Continuous
 62
     7
100
AcDbLine
 10
-0.868118133
 20
-0.1570510899
 30
0.0
 11
-0.8665349638
 21
-0.1579139786
 31
0.0
  0
LINE
  5
3C9
330
1F
100
AcDbEntity
  8
0
  6
Continuous
 62
     7
100
AcDbLine
 10
-0.8665349638
 20
-0.1579139786
 30
0.0
 11
-0.8653452848
 21
-0.1588980155
 31
0.0
  0
LINE
  5
3CA
330
1F
100
AcDbEntity
  8
0
  6
Continuous
 62
     7
100
AcDbLine
 10
-0.8653452848
 20
-0.1588980155
 30
0.0
 11
-0.8645531882
 21
-0.1599875125
 31
0.0
  0
LINE
  5
3CB
330
1F
100
AcDbEntity
  8
0
  6
Continuous
 62
     7
100
AcDbLine
 10
-0.8645531882
 20
-0.1599875125
 30
0.0
 11
-0.8641623049
 21
-0.1611667249
 31
0.0
  0
LINE
  5
3CC
330
1F
100
AcDbEntity
  8
0
  6
Continuous
 62
     7
100
AcDbLine
 10
-0.8641623049
 20
-0.1611667249
 30
0.0
 11
-0.8628598931
 21
-0.1682271815
 31
0.0
  0
LINE
  5
3CD
330
1F
100
AcDbEntity
  8
0
  6
Continuous
 62
     7
100
AcDbLine
 10
-0.8628598931
 20
-0.1682271815
 30
0.0
 11
-0.8592732132
 21
-0.1856801684
 31
0.0
  0
LINE
  5
3CE
330
1F
100
AcDbEntity
  8
0
  6
Continuous
 62
     7
100
AcDbLine
 10
-0.8592732132
 20
-0.1856801684
 30
0.0
 11
-0.8576857422
 21
-0.1926820439
 31
0.0
  0
LINE
  5
3CF
330
1F
100
AcDbEntity
  8
0
  6
Continuous
 62
     7
100
AcDbLine
 10
-0.8576857422
 20
-0.1926820439
 30
0.0
 11
-0.8575799181
 21
-0.1939198374
 31
0.0
  0
LINE
  5
3D0
330
1F
100
AcDbEntity
  8
0
  6
Continuous
 62
     7
100
AcDbLine
 10
-0.8575799181
 20
-0.1939198374
 30
0.0
 11
-0.857878172
 21
-0.1952334072
 31
0.0
  0
LINE
  5
3D1
330
1F
100
AcDbEntity
  8
0
  6
Continuous
 62
     7
100
AcDbLine
 10
-0.857878172
 20
-0.1952334072
 30
0.0
 11
-0.8585833761
 21
-0.1966068524
 31
0.0
  0
LINE
  5
3D2
330
1F
100
AcDbEntity
  8
0
  6
Continuous
 62
     7
100
AcDbLine
 10
-0.8585833761
 20
-0.1966068524
 30
0.0
 11
-0.8596979237
 21
-0.1980241903
 31
0.0
  0
LINE
  5
3D3
330
1F
100
AcDbEntity
  8
0
  6
Continuous
 62
     7
100
AcDbLine
 10
-0.8596979237
 20
-0.1980241903
 30
0.0
 11
-0.8612237269
 21
-0.1994693687
 31
0.0
  0
LINE
  5
3D4
330
1F
100
AcDbEntity
  8
0
  6
Continuous
 62
     7
100
AcDbLine
 10
-0.8612237269
 20
-0.1994693687
 30
0.0
 11
-0.8631622148
 21
-0.2009262792
 31
0.0
  0
LINE
  5
3D5
330
1F
100
AcDbEntity
  8
0
  6
Continuous
 62
     7
100
AcDbLine
 10
-0.8631622148
 20
-0.2009262792
 30
0.0
 11
-0.8691460429
 21
-0.2047195585
 31
0.0
  0
LINE
  5
3D6
330
1F
100
AcDbEntity
  8
0
  6
Continuous
 62
     7
100
AcDbLine
 10
-0.8691460429
 20
-0.2047195585
 30
0.0
 11
-0.8743749192
 21
-0.2081847817
 31
0.0
  0
LINE
  5
3D7
330
1F
100
AcDbEntity
  8
0
  6
Continuous
 62
     7
100
AcDbLine
 10
-0.8743749192
 20
-0.2081847817
 30
0.0
 11
-0.8798164486
 21
-0.211951844
 31
0.0
  0
LINE
  5
3D8
330
1F
100
AcDbEntity
  8
0
  6
Continuous
 62
     7
100
AcDbLine
 10
-0.8798164486
 20
-0.211951844
 30
0.0
 11
-0.8854604277
 21
-0.2160307078
 31
0.0
  0
LINE
  5
3D9
330
1F
100
AcDbEntity
  8
0
  6
Continuous
 62
     7
100
AcDbLine
 10
-0.8854604277
 20
-0.2160307078
 30
0.0
 11
-0.8912963383
 21
-0.2204310437
 31
0.0
  0
LINE
  5
3DA
330
1F
100
AcDbEntity
  8
0
  6
Continuous
 62
     7
100
AcDbLine
 10
-0.8912963383
 20
-0.2204310437
 30
0.0
 11
-0.8973133552
 21
-0.2251622214
 31
0.0
  0
LINE
  5
3DB
330
1F
100
AcDbEntity
  8
0
  6
Continuous
 62
     7
100
AcDbLine
 10
-0.8973133552
 20
-0.2251622214
 30
0.0
 11
-0.9035003539
 21
-0.2302333017
 31
0.0
  0
LINE
  5
3DC
330
1F
100
AcDbEntity
  8
0
  6
Continuous
 62
     7
100
AcDbLine
 10
-0.9035003539
 20
-0.2302333017
 30
0.0
 11
-0.9098459179
 21
-0.2356530281
 31
0.0
  0
LINE
  5
3DD
330
1F
100
AcDbEntity
  8
0
  6
Continuous
 62
     7
100
AcDbLine
 10
-0.9098459179
 20
-0.2356530281
 30
0.0
 11
-0.9163383512
 21
-0.2414298201
 31
0.0
  0
LINE
  5
3DE
330
1F
100
AcDbEntity
  8
0
  6
Continuous
 62
     7
100
AcDbLine
 10
-0.9163383512
 20
-0.2414298201
 30
0.0
 11
-0.9229656793
 21
-0.2475717615
 31
0.0
  0
LINE
  5
3DF
330
1F
100
AcDbEntity
  8
0
  6
Continuous
 62
     7
100
AcDbLine
 10
-0.9229656793
 20
-0.2475717615
 30
0.0
 11
-0.9297156647
 21
-0.2540865972
 31
0.0
  0
LINE
  5
3E0
330
1F
100
AcDbEntity
  8
0
  6
Continuous
 62
     7
100
AcDbLine
 10
-0.9297156647
 20
-0.2540865972
 30
0.0
 11
-0.9365758129
 21
-0.2609817236
 31
0.0
  0
LINE
  5
3E1
330
1F
100
AcDbEntity
  8
0
  6
Continuous
 62
     7
100
AcDbLine
 10
-0.9365758129
 20
-0.2609817236
 30
0.0
 11
-0.9435333822
 21
-0.2682641817
 31
0.0
  0
LINE
  5
3E2
330
1F
100
AcDbEntity
  8
0
  6
Continuous
 62
     7
100
AcDbLine
 10
-0.9435333822
 20
-0.2682641817
 30
0.0
 11
-0.9505753925
 21
-0.2759406501
 31
0.0
  0
LINE
  5
3E3
330
1F
100
AcDbEntity
  8
0
  6
Continuous
 62
     7
100
AcDbLine
 10
-0.9505753925
 20
-0.2759406501
 30
0.0
 11
-0.9576886353
 21
-0.2840174387
 31
0.0
  0
LINE
  5
3E4
330
1F
100
AcDbEntity
  8
0
  6
Continuous
 62
     7
100
AcDbLine
 10
-0.9576886353
 20
-0.2840174387
 30
0.0
 11
-0.9578012973
 21
-0.284150713
 31
0.0
  0
LINE
  5
3E5
330
1F
100
AcDbEntity
  8
0
  6
Continuous
 62
     7
100
AcDbLine
 10
-0.9578012973
 20
-0.284150713
 30
0.0
 11
-0.9546426123
 21
-0.2995210519
 31
0.0
  0
LINE
  5
3E6
330
1F
100
AcDbEntity
  8
0
  6
Continuous
 62
     7
100
AcDbLine
 10
-0.9546426123
 20
-0.2995210519
 30
0.0
 11
-0.9484545594
 21
-0.3139409205
 31
0.0
  0
LINE
  5
3E7
330
1F
100
AcDbEntity
  8
0
  6
Continuous
 62
     7
100
AcDbLine
 10
-0.9484545594
 20
-0.3139409205
 30
0.0
 11
-0.9482859552
 21
-0.313985947
 31
0.0
  0
LINE
  5
3E8
330
1F
100
AcDbEntity
  8
0
  6
Continuous
 62
     7
100
AcDbLine
 10
-0.9482859552
 20
-0.313985947
 30
0.0
 11
-0.937833653
 21
-0.3165515103
 31
0.0
  0
LINE
  5
3E9
330
1F
100
AcDbEntity
  8
0
  6
Continuous
 62
     7
100
AcDbLine
 10
-0.937833653
 20
-0.3165515103
 30
0.0
 11
-0.9276685059
 21
-0.3188291982
 31
0.0
  0
LINE
  5
3EA
330
1F
100
AcDbEntity
  8
0
  6
Continuous
 62
     7
100
AcDbLine
 10
-0.9276685059
 20
-0.3188291982
 30
0.0
 11
-0.9177977506
 21
-0.3208317354
 31
0.0
  0
LINE
  5
3EB
330
1F
100
AcDbEntity
  8
0
  6
Continuous
 62
     7
100
AcDbLine
 10
-0.9177977506
 20
-0.3208317354
 30
0.0
 11
-0.9082282252
 21
-0.3225720184
 31
0.0
  0
LINE
  5
3EC
330
1F
100
AcDbEntity
  8
0
  6
Continuous
 62
     7
100
AcDbLine
 10
-0.9082282252
 20
-0.3225720184
 30
0.0
 11
-0.8989663653
 21
-0.3240631053
 31
0.0
  0
LINE
  5
3ED
330
1F
100
AcDbEntity
  8
0
  6
Continuous
 62
     7
100
AcDbLine
 10
-0.8989663653
 20
-0.3240631053
 30
0.0
 11
-0.8900182009
 21
-0.3253182044
 31
0.0
  0
LINE
  5
3EE
330
1F
100
AcDbEntity
  8
0
  6
Continuous
 62
     7
100
AcDbLine
 10
-0.8900182009
 20
-0.3253182044
 30
0.0
 11
-0.8813893522
 21
-0.3263506632
 31
0.0
  0
LINE
  5
3EF
330
1F
100
AcDbEntity
  8
0
  6
Continuous
 62
     7
100
AcDbLine
 10
-0.8813893522
 20
-0.3263506632
 30
0.0
 11
-0.8730850269
 21
-0.3271739574
 31
0.0
  0
LINE
  5
3F0
330
1F
100
AcDbEntity
  8
0
  6
Continuous
 62
     7
100
AcDbLine
 10
-0.8730850269
 20
-0.3271739574
 30
0.0
 11
-0.8651100175
 21
-0.3278016791
 31
0.0
  0
LINE
  5
3F1
330
1F
100
AcDbEntity
  8
0
  6
Continuous
 62
     7
100
AcDbLine
 10
-0.8651100175
 20
-0.3278016791
 30
0.0
 11
-0.8574686986
 21
-0.3282475264
 31
0.0
  0
LINE
  5
3F2
330
1F
100
AcDbEntity
  8
0
  6
Continuous
 62
     7
100
AcDbLine
 10
-0.8574686986
 20
-0.3282475264
 30
0.0
 11
-0.8501650245
 21
-0.3285252909
 31
0.0
  0
LINE
  5
3F3
330
1F
100
AcDbEntity
  8
0
  6
Continuous
 62
     7
100
AcDbLine
 10
-0.8501650245
 20
-0.3285252909
 30
0.0
 11
-0.8432025276
 21
-0.3286488473
 31
0.0
  0
LINE
  5
3F4
330
1F
100
AcDbEntity
  8
0
  6
Continuous
 62
     7
100
AcDbLine
 10
-0.8432025276
 20
-0.3286488473
 30
0.0
 11
-0.8365850865
 21
-0.3286321591
 31
0.0
  0
LINE
  5
3F5
330
1F
100
AcDbEntity
  8
0
  6
Continuous
 62
     7
100
AcDbLine
 10
-0.8365850865
 20
-0.3286321591
 30
0.0
 11
-0.8303132696
 21
-0.3284891877
 31
0.0
  0
LINE
  5
3F6
330
1F
100
AcDbEntity
  8
0
  6
Continuous
 62
     7
100
AcDbLine
 10
-0.8303132696
 20
-0.3284891877
 30
0.0
 11
-0.8232347866
 21
-0.3281841934
 31
0.0
  0
LINE
  5
3F7
330
1F
100
AcDbEntity
  8
0
  6
Continuous
 62
     7
100
AcDbLine
 10
-0.8232347866
 20
-0.3281841934
 30
0.0
 11
-0.8208114597
 21
-0.3282725858
 31
0.0
  0
LINE
  5
3F8
330
1F
100
AcDbEntity
  8
0
  6
Continuous
 62
     7
100
AcDbLine
 10
-0.8208114597
 20
-0.3282725858
 30
0.0
 11
-0.8187335518
 21
-0.3285871402
 31
0.0
  0
LINE
  5
3F9
330
1F
100
AcDbEntity
  8
0
  6
Continuous
 62
     7
100
AcDbLine
 10
-0.8187335518
 20
-0.3285871402
 30
0.0
 11
-0.817009092
 21
-0.329113676
 31
0.0
  0
LINE
  5
3FA
330
1F
100
AcDbEntity
  8
0
  6
Continuous
 62
     7
100
AcDbLine
 10
-0.817009092
 20
-0.329113676
 30
0.0
 11
-0.8156456806
 21
-0.329838089
 31
0.0
  0
LINE
  5
3FB
330
1F
100
AcDbEntity
  8
0
  6
Continuous
 62
     7
100
AcDbLine
 10
-0.8156456806
 20
-0.329838089
 30
0.0
 11
-0.8146504841
 21
-0.3307458361
 31
0.0
  0
LINE
  5
3FC
330
1F
100
AcDbEntity
  8
0
  6
Continuous
 62
     7
100
AcDbLine
 10
-0.8146504841
 20
-0.3307458361
 30
0.0
 11
-0.8140302285
 21
-0.3318222257
 31
0.0
  0
LINE
  5
3FD
330
1F
100
AcDbEntity
  8
0
  6
Continuous
 62
     7
100
AcDbLine
 10
-0.8140302285
 20
-0.3318222257
 30
0.0
 11
-0.8113332178
 21
-0.3384759808
 31
0.0
  0
LINE
  5
3FE
330
1F
100
AcDbEntity
  8
0
  6
Continuous
 62
     7
100
AcDbLine
 10
-0.8113332178
 20
-0.3384759808
 30
0.0
 11
-0.8043066969
 21
-0.3548497106
 31
0.0
  0
LINE
  5
3FF
330
1F
100
AcDbEntity
  8
0
  6
Continuous
 62
     7
100
AcDbLine
 10
-0.8043066969
 20
-0.3548497106
 30
0.0
 11
-0.8013422544
 21
-0.3613887017
 31
0.0
  0
LINE
  5
400
330
1F
100
AcDbEntity
  8
0
  6
Continuous
 62
     7
100
AcDbLine
 10
-0.8013422544
 20
-0.3613887017
 30
0.0
 11
-0.8009894305
 21
-0.3625798553
 31
0.0
  0
LINE
  5
401
330
1F
100
AcDbEntity
  8
0
  6
Continuous
 62
     7
100
AcDbLine
 10
-0.8009894305
 20
-0.3625798553
 30
0.0
 11
-0.8010171594
 21
-0.3639265743
 31
0.0
  0
LINE
  5
402
330
1F
100
AcDbEntity
  8
0
  6
Continuous
 62
     7
100
AcDbLine
 10
-0.8010171594
 20
-0.3639265743
 30
0.0
 11
-0.8014314555
 21
-0.3654138616
 31
0.0
  0
LINE
  5
403
330
1F
100
AcDbEntity
  8
0
  6
Continuous
 62
     7
100
AcDbLine
 10
-0.8014314555
 20
-0.3654138616
 30
0.0
 11
-0.8022378802
 21
-0.3670265433
 31
0.0
  0
LINE
  5
404
330
1F
100
AcDbEntity
  8
0
  6
Continuous
 62
     7
100
AcDbLine
 10
-0.8022378802
 20
-0.3670265433
 30
0.0
 11
-0.8034415379
 21
-0.3687492807
 31
0.0
  0
LINE
  5
405
330
1F
100
AcDbEntity
  8
0
  6
Continuous
 62
     7
100
AcDbLine
 10
-0.8034415379
 20
-0.3687492807
 30
0.0
 11
-0.8050470709
 21
-0.3705665829
 31
0.0
  0
LINE
  5
406
330
1F
100
AcDbEntity
  8
0
  6
Continuous
 62
     7
100
AcDbLine
 10
-0.8050470709
 20
-0.3705665829
 30
0.0
 11
-0.8101448282
 21
-0.3754867493
 31
0.0
  0
LINE
  5
407
330
1F
100
AcDbEntity
  8
0
  6
Continuous
 62
     7
100
AcDbLine
 10
-0.8101448282
 20
-0.3754867493
 30
0.0
 11
-0.8145691248
 21
-0.3799336042
 31
0.0
  0
LINE
  5
408
330
1F
100
AcDbEntity
  8
0
  6
Continuous
 62
     7
100
AcDbLine
 10
-0.8145691248
 20
-0.3799336042
 30
0.0
 11
-0.8191409616
 21
-0.3847189263
 31
0.0
  0
LINE
  5
409
330
1F
100
AcDbEntity
  8
0
  6
Continuous
 62
     7
100
AcDbLine
 10
-0.8191409616
 20
-0.3847189263
 30
0.0
 11
-0.8238483389
 21
-0.3898504202
 31
0.0
  0
LINE
  5
40A
330
1F
100
AcDbEntity
  8
0
  6
Continuous
 62
     7
100
AcDbLine
 10
-0.8238483389
 20
-0.3898504202
 30
0.0
 11
-0.828679007
 21
-0.3953354411
 31
0.0
  0
LINE
  5
40B
330
1F
100
AcDbEntity
  8
0
  6
Continuous
 62
     7
100
AcDbLine
 10
-0.828679007
 20
-0.3953354411
 30
0.0
 11
-0.8336204761
 21
-0.4011809879
 31
0.0
  0
LINE
  5
40C
330
1F
100
AcDbEntity
  8
0
  6
Continuous
 62
     7
100
AcDbLine
 10
-0.8336204761
 20
-0.4011809879
 30
0.0
 11
-0.8386600256
 21
-0.4073936967
 31
0.0
  0
LINE
  5
40D
330
1F
100
AcDbEntity
  8
0
  6
Continuous
 62
     7
100
AcDbLine
 10
-0.8386600256
 20
-0.4073936967
 30
0.0
 11
-0.8437847127
 21
-0.4139798335
 31
0.0
  0
LINE
  5
40E
330
1F
100
AcDbEntity
  8
0
  6
Continuous
 62
     7
100
AcDbLine
 10
-0.8437847127
 20
-0.4139798335
 30
0.0
 11
-0.8489813859
 21
-0.4209452915
 31
0.0
  0
LINE
  5
40F
330
1F
100
AcDbEntity
  8
0
  6
Continuous
 62
     7
100
AcDbLine
 10
-0.8489813859
 20
-0.4209452915
 30
0.0
 11
-0.8542366884
 21
-0.4282955783
 31
0.0
  0
LINE
  5
410
330
1F
100
AcDbEntity
  8
0
  6
Continuous
 62
     7
100
AcDbLine
 10
-0.8542366884
 20
-0.4282955783
 30
0.0
 11
-0.8595370744
 21
-0.4360358171
 31
0.0
  0
LINE
  5
411
330
1F
100
AcDbEntity
  8
0
  6
Continuous
 62
     7
100
AcDbLine
 10
-0.8595370744
 20
-0.4360358171
 30
0.0
 11
-0.8648688163
 21
-0.4441707375
 31
0.0
  0
LINE
  5
412
330
1F
100
AcDbEntity
  8
0
  6
Continuous
 62
     7
100
AcDbLine
 10
-0.8648688163
 20
-0.4441707375
 30
0.0
 11
-0.8702180157
 21
-0.4527046716
 31
0.0
  0
LINE
  5
413
330
1F
100
AcDbEntity
  8
0
  6
Continuous
 62
     7
100
AcDbLine
 10
-0.8702180157
 20
-0.4527046716
 30
0.0
 11
-0.8755706139
 21
-0.4616415485
 31
0.0
  0
LINE
  5
414
330
1F
100
AcDbEntity
  8
0
  6
Continuous
 62
     7
100
AcDbLine
 10
-0.8755706139
 20
-0.4616415485
 30
0.0
 11
-0.8809124026
 21
-0.47098489
 31
0.0
  0
LINE
  5
415
330
1F
100
AcDbEntity
  8
0
  6
Continuous
 62
     7
100
AcDbLine
 10
-0.8809124026
 20
-0.47098489
 30
0.0
 11
-0.8809959304
 21
-0.4711381149
 31
0.0
  0
LINE
  5
416
330
1F
100
AcDbEntity
  8
0
  6
Continuous
 62
     7
100
AcDbLine
 10
-0.8809959304
 20
-0.4711381149
 30
0.0
 11
-0.8748078775
 21
-0.4855579835
 31
0.0
  0
LINE
  5
417
330
1F
100
AcDbEntity
  8
0
  6
Continuous
 62
     7
100
AcDbLine
 10
-0.8748078775
 20
-0.4855579835
 30
0.0
 11
-0.8658437961
 21
-0.4984370306
 31
0.0
  0
LINE
  5
418
330
1F
100
AcDbEntity
  8
0
  6
Continuous
 62
     7
100
AcDbLine
 10
-0.8658437961
 20
-0.4984370306
 30
0.0
 11
-0.8656695795
 21
-0.4984471956
 31
0.0
  0
LINE
  5
419
330
1F
100
AcDbEntity
  8
0
  6
Continuous
 62
     7
100
AcDbLine
 10
-0.8656695795
 20
-0.4984471956
 30
0.0
 11
-0.8549147924
 21
-0.4988562087
 31
0.0
  0
LINE
  5
41A
330
1F
100
AcDbEntity
  8
0
  6
Continuous
 62
     7
100
AcDbLine
 10
-0.8549147924
 20
-0.4988562087
 30
0.0
 11
-0.8444992313
 21
-0.4990410432
 31
0.0
  0
LINE
  5
41B
330
1F
100
AcDbEntity
  8
0
  6
Continuous
 62
     7
100
AcDbLine
 10
-0.8444992313
 20
-0.4990410432
 30
0.0
 11
-0.8344274232
 21
-0.4990156198
 31
0.0
  0
LINE
  5
41C
330
1F
100
AcDbEntity
  8
0
  6
Continuous
 62
     7
100
AcDbLine
 10
-0.8344274232
 20
-0.4990156198
 30
0.0
 11
-0.8247034701
 21
-0.4987939478
 31
0.0
  0
LINE
  5
41D
330
1F
100
AcDbEntity
  8
0
  6
Continuous
 62
     7
100
AcDbLine
 10
-0.8247034701
 20
-0.4987939478
 30
0.0
 11
-0.8153310475
 21
-0.4983901134
 31
0.0
  0
LINE
  5
41E
330
1F
100
AcDbEntity
  8
0
  6
Continuous
 62
     7
100
AcDbLine
 10
-0.8153310475
 20
-0.4983901134
 30
0.0
 11
-0.8063134029
 21
-0.4978182683
 31
0.0
  0
LINE
  5
41F
330
1F
100
AcDbEntity
  8
0
  6
Continuous
 62
     7
100
AcDbLine
 10
-0.8063134029
 20
-0.4978182683
 30
0.0
 11
-0.7976533548
 21
-0.4970926182
 31
0.0
  0
LINE
  5
420
330
1F
100
AcDbEntity
  8
0
  6
Continuous
 62
     7
100
AcDbLine
 10
-0.7976533548
 20
-0.4970926182
 30
0.0
 11
-0.7893532917
 21
-0.4962274111
 31
0.0
  0
LINE
  5
421
330
1F
100
AcDbEntity
  8
0
  6
Continuous
 62
     7
100
AcDbLine
 10
-0.7893532917
 20
-0.4962274111
 30
0.0
 11
-0.7814151718
 21
-0.4952369258
 31
0.0
  0
LINE
  5
422
330
1F
100
AcDbEntity
  8
0
  6
Continuous
 62
     7
100
AcDbLine
 10
-0.7814151718
 20
-0.4952369258
 30
0.0
 11
-0.7738405227
 21
-0.4941354603
 31
0.0
  0
LINE
  5
423
330
1F
100
AcDbEntity
  8
0
  6
Continuous
 62
     7
100
AcDbLine
 10
-0.7738405227
 20
-0.4941354603
 30
0.0
 11
-0.7666304417
 21
-0.4929373201
 31
0.0
  0
LINE
  5
424
330
1F
100
AcDbEntity
  8
0
  6
Continuous
 62
     7
100
AcDbLine
 10
-0.7666304417
 20
-0.4929373201
 30
0.0
 11
-0.7597855957
 21
-0.4916568071
 31
0.0
  0
LINE
  5
425
330
1F
100
AcDbEntity
  8
0
  6
Continuous
 62
     7
100
AcDbLine
 10
-0.7597855957
 20
-0.4916568071
 30
0.0
 11
-0.7533069733
 21
-0.4903083794
 31
0.0
  0
LINE
  5
426
330
1F
100
AcDbEntity
  8
0
  6
Continuous
 62
     7
100
AcDbLine
 10
-0.7533069733
 20
-0.4903083794
 30
0.0
 11
-0.7471923209
 21
-0.4889058271
 31
0.0
  0
LINE
  5
427
330
1F
100
AcDbEntity
  8
0
  6
Continuous
 62
     7
100
AcDbLine
 10
-0.7471923209
 20
-0.4889058271
 30
0.0
 11
-0.7403201297
 21
-0.4871821879
 31
0.0
  0
LINE
  5
428
330
1F
100
AcDbEntity
  8
0
  6
Continuous
 62
     7
100
AcDbLine
 10
-0.7403201297
 20
-0.4871821879
 30
0.0
 11
-0.7379286152
 21
-0.4867809588
 31
0.0
  0
LINE
  5
429
330
1F
100
AcDbEntity
  8
0
  6
Continuous
 62
     7
100
AcDbLine
 10
-0.7379286152
 20
-0.4867809588
 30
0.0
 11
-0.7358299229
 21
-0.4866707945
 31
0.0
  0
LINE
  5
42A
330
1F
100
AcDbEntity
  8
0
  6
Continuous
 62
     7
100
AcDbLine
 10
-0.7358299229
 20
-0.4866707945
 30
0.0
 11
-0.7340347719
 21
-0.4868394208
 31
0.0
  0
LINE
  5
42B
330
1F
100
AcDbEntity
  8
0
  6
Continuous
 62
     7
100
AcDbLine
 10
-0.7340347719
 20
-0.4868394208
 30
0.0
 11
-0.7325534464
 21
-0.4872745523
 31
0.0
  0
LINE
  5
42C
330
1F
100
AcDbEntity
  8
0
  6
Continuous
 62
     7
100
AcDbLine
 10
-0.7325534464
 20
-0.4872745523
 30
0.0
 11
-0.7313958935
 21
-0.4879633862
 31
0.0
  0
LINE
  5
42D
330
1F
100
AcDbEntity
  8
0
  6
Continuous
 62
     7
100
AcDbLine
 10
-0.7313958935
 20
-0.4879633862
 30
0.0
 11
-0.730571659
 21
-0.4888928855
 31
0.0
  0
LINE
  5
42E
330
1F
100
AcDbEntity
  8
0
  6
Continuous
 62
     7
100
AcDbLine
 10
-0.730571659
 20
-0.4888928855
 30
0.0
 11
-0.7265904651
 21
-0.4948675336
 31
0.0
  0
LINE
  5
42F
330
1F
100
AcDbEntity
  8
0
  6
Continuous
 62
     7
100
AcDbLine
 10
-0.7265904651
 20
-0.4948675336
 30
0.0
 11
-0.71641177
 21
-0.509491664
 31
0.0
  0
LINE
  5
430
330
1F
100
AcDbEntity
  8
0
  6
Continuous
 62
     7
100
AcDbLine
 10
-0.71641177
 20
-0.509491664
 30
0.0
 11
-0.7121917206
 21
-0.5153000637
 31
0.0
  0
LINE
  5
431
330
1F
100
AcDbEntity
  8
0
  6
Continuous
 62
     7
100
AcDbLine
 10
-0.7121917206
 20
-0.5153000637
 30
0.0
 11
-0.7116063415
 21
-0.5163958114
 31
0.0
  0
LINE
  5
432
330
1F
100
AcDbEntity
  8
0
  6
Continuous
 62
     7
100
AcDbLine
 10
-0.7116063415
 20
-0.5163958114
 30
0.0
 11
-0.7113624103
 21
-0.5177205447
 31
0.0
  0
LINE
  5
433
330
1F
100
AcDbEntity
  8
0
  6
Continuous
 62
     7
100
AcDbLine
 10
-0.7113624103
 20
-0.5177205447
 30
0.0
 11
-0.711468837
 21
-0.5192607843
 31
0.0
  0
LINE
  5
434
330
1F
100
AcDbEntity
  8
0
  6
Continuous
 62
     7
100
AcDbLine
 10
-0.711468837
 20
-0.5192607843
 30
0.0
 11
-0.7119341237
 21
-0.5210027864
 31
0.0
  0
LINE
  5
435
330
1F
100
AcDbEntity
  8
0
  6
Continuous
 62
     7
100
AcDbLine
 10
-0.7119341237
 20
-0.5210027864
 30
0.0
 11
-0.7127663579
 21
-0.5229325538
 31
0.0
  0
LINE
  5
436
330
1F
100
AcDbEntity
  8
0
  6
Continuous
 62
     7
100
AcDbLine
 10
-0.7127663579
 20
-0.5229325538
 30
0.0
 11
-0.7139732053
 21
-0.5250358471
 31
0.0
  0
LINE
  5
437
330
1F
100
AcDbEntity
  8
0
  6
Continuous
 62
     7
100
AcDbLine
 10
-0.7139732053
 20
-0.5250358471
 30
0.0
 11
-0.717976189
 21
-0.5308814684
 31
0.0
  0
LINE
  5
438
330
1F
100
AcDbEntity
  8
0
  6
Continuous
 62
     7
100
AcDbLine
 10
-0.717976189
 20
-0.5308814684
 30
0.0
 11
-0.7214147747
 21
-0.5361279003
 31
0.0
  0
LINE
  5
439
330
1F
100
AcDbEntity
  8
0
  6
Continuous
 62
     7
100
AcDbLine
 10
-0.7214147747
 20
-0.5361279003
 30
0.0
 11
-0.7249297475
 21
-0.5417355706
 31
0.0
  0
LINE
  5
43A
330
1F
100
AcDbEntity
  8
0
  6
Continuous
 62
     7
100
AcDbLine
 10
-0.7249297475
 20
-0.5417355706
 30
0.0
 11
-0.7285078024
 21
-0.5477096106
 31
0.0
  0
LINE
  5
43B
330
1F
100
AcDbEntity
  8
0
  6
Continuous
 62
     7
100
AcDbLine
 10
-0.7285078024
 20
-0.5477096106
 30
0.0
 11
-0.7321354598
 21
-0.5540547591
 31
0.0
  0
LINE
  5
43C
330
1F
100
AcDbEntity
  8
0
  6
Continuous
 62
     7
100
AcDbLine
 10
-0.7321354598
 20
-0.5540547591
 30
0.0
 11
-0.7357990769
 21
-0.5607753577
 31
0.0
  0
LINE
  5
43D
330
1F
100
AcDbEntity
  8
0
  6
Continuous
 62
     7
100
AcDbLine
 10
-0.7357990769
 20
-0.5607753577
 30
0.0
 11
-0.7394848574
 21
-0.5678753458
 31
0.0
  0
LINE
  5
43E
330
1F
100
AcDbEntity
  8
0
  6
Continuous
 62
     7
100
AcDbLine
 10
-0.7394848574
 20
-0.5678753458
 30
0.0
 11
-0.7431788623
 21
-0.575358256
 31
0.0
  0
LINE
  5
43F
330
1F
100
AcDbEntity
  8
0
  6
Continuous
 62
     7
100
AcDbLine
 10
-0.7431788623
 20
-0.575358256
 30
0.0
 11
-0.7468670228
 21
-0.5832272133
 31
0.0
  0
LINE
  5
440
330
1F
100
AcDbEntity
  8
0
  6
Continuous
 62
     7
100
AcDbLine
 10
-0.7468670228
 20
-0.5832272133
 30
0.0
 11
-0.7505351471
 21
-0.5914849239
 31
0.0
  0
LINE
  5
441
330
1F
100
AcDbEntity
  8
0
  6
Continuous
 62
     7
100
AcDbLine
 10
-0.7505351471
 20
-0.5914849239
 30
0.0
 11
-0.7541689353
 21
-0.6001336793
 31
0.0
  0
LINE
  5
442
330
1F
100
AcDbEntity
  8
0
  6
Continuous
 62
     7
100
AcDbLine
 10
-0.7541689353
 20
-0.6001336793
 30
0.0
 11
-0.7577539887
 21
-0.6091753492
 31
0.0
  0
LINE
  5
443
330
1F
100
AcDbEntity
  8
0
  6
Continuous
 62
     7
100
AcDbLine
 10
-0.7577539887
 20
-0.6091753492
 30
0.0
 11
-0.7612758214
 21
-0.6186113791
 31
0.0
  0
LINE
  5
444
330
1F
100
AcDbEntity
  8
0
  6
Continuous
 62
     7
100
AcDbLine
 10
-0.7612758214
 20
-0.6186113791
 30
0.0
 11
-0.7647198715
 21
-0.6284427877
 31
0.0
  0
LINE
  5
445
330
1F
100
AcDbEntity
  8
0
  6
Continuous
 62
     7
100
AcDbLine
 10
-0.7647198715
 20
-0.6284427877
 30
0.0
 11
-0.7680715126
 21
-0.6386701646
 31
0.0
  0
LINE
  5
446
330
1F
100
AcDbEntity
  8
0
  6
Continuous
 62
     7
100
AcDbLine
 10
-0.7680715126
 20
-0.6386701646
 30
0.0
 11
-0.7681224867
 21
-0.638837067
 31
0.0
  0
LINE
  5
447
330
1F
100
AcDbEntity
  8
0
  6
Continuous
 62
     7
100
AcDbLine
 10
-0.7681224867
 20
-0.638837067
 30
0.0
 11
-0.7591584053
 21
-0.6517161141
 31
0.0
  0
LINE
  5
448
330
1F
100
AcDbEntity
  8
0
  6
Continuous
 62
     7
100
AcDbLine
 10
-0.7591584053
 20
-0.6517161141
 30
0.0
 11
-0.7477852861
 21
-0.6625270701
 31
0.0
  0
LINE
  5
449
330
1F
100
AcDbEntity
  8
0
  6
Continuous
 62
     7
100
AcDbLine
 10
-0.7477852861
 20
-0.6625270701
 30
0.0
 11
-0.7476125895
 21
-0.6625019574
 31
0.0
  0
LINE
  5
44A
330
1F
100
AcDbEntity
  8
0
  6
Continuous
 62
     7
100
AcDbLine
 10
-0.7476125895
 20
-0.6625019574
 30
0.0
 11
-0.7369956199
 21
-0.6607376753
 31
0.0
  0
LINE
  5
44B
330
1F
100
AcDbEntity
  8
0
  6
Continuous
 62
     7
100
AcDbLine
 10
-0.7369956199
 20
-0.6607376753
 30
0.0
 11
-0.726756059
 21
-0.6588220892
 31
0.0
  0
LINE
  5
44C
330
1F
100
AcDbEntity
  8
0
  6
Continuous
 62
     7
100
AcDbLine
 10
-0.726756059
 20
-0.6588220892
 30
0.0
 11
-0.7168955391
 21
-0.6567697462
 31
0.0
  0
LINE
  5
44D
330
1F
100
AcDbEntity
  8
0
  6
Continuous
 62
     7
100
AcDbLine
 10
-0.7168955391
 20
-0.6567697462
 30
0.0
 11
-0.7074152581
 21
-0.6545951945
 31
0.0
  0
LINE
  5
44E
330
1F
100
AcDbEntity
  8
0
  6
Continuous
 62
     7
100
AcDbLine
 10
-0.7074152581
 20
-0.6545951945
 30
0.0
 11
-0.6983159808
 21
-0.6523129718
 31
0.0
  0
LINE
  5
44F
330
1F
100
AcDbEntity
  8
0
  6
Continuous
 62
     7
100
AcDbLine
 10
-0.6983159808
 20
-0.6523129718
 30
0.0
 11
-0.6895980395
 21
-0.6499375938
 31
0.0
  0
LINE
  5
450
330
1F
100
AcDbEntity
  8
0
  6
Continuous
 62
     7
100
AcDbLine
 10
-0.6895980395
 20
-0.6499375938
 30
0.0
 11
-0.6812613354
 21
-0.6474835429
 31
0.0
  0
LINE
  5
451
330
1F
100
AcDbEntity
  8
0
  6
Continuous
 62
     7
100
AcDbLine
 10
-0.6812613354
 20
-0.6474835429
 30
0.0
 11
-0.6733053399
 21
-0.6449652562
 31
0.0
  0
LINE
  5
452
330
1F
100
AcDbEntity
  8
0
  6
Continuous
 62
     7
100
AcDbLine
 10
-0.6733053399
 20
-0.6449652562
 30
0.0
 11
-0.665729097
 21
-0.6423971144
 31
0.0
  0
LINE
  5
453
330
1F
100
AcDbEntity
  8
0
  6
Continuous
 62
     7
100
AcDbLine
 10
-0.665729097
 20
-0.6423971144
 30
0.0
 11
-0.6585312249
 21
-0.6397934304
 31
0.0
  0
LINE
  5
454
330
1F
100
AcDbEntity
  8
0
  6
Continuous
 62
     7
100
AcDbLine
 10
-0.6585312249
 20
-0.6397934304
 30
0.0
 11
-0.6517099184
 21
-0.6371684376
 31
0.0
  0
LINE
  5
455
330
1F
100
AcDbEntity
  8
0
  6
Continuous
 62
     7
100
AcDbLine
 10
-0.6517099184
 20
-0.6371684376
 30
0.0
 11
-0.6452629522
 21
-0.6345362793
 31
0.0
  0
LINE
  5
456
330
1F
100
AcDbEntity
  8
0
  6
Continuous
 62
     7
100
AcDbLine
 10
-0.6452629522
 20
-0.6345362793
 30
0.0
 11
-0.6391883842
 21
-0.631911317
 31
0.0
  0
LINE
  5
457
330
1F
100
AcDbEntity
  8
0
  6
Continuous
 62
     7
100
AcDbLine
 10
-0.6391883842
 20
-0.631911317
 30
0.0
 11
-0.6334812307
 21
-0.6293066045
 31
0.0
  0
LINE
  5
458
330
1F
100
AcDbEntity
  8
0
  6
Continuous
 62
     7
100
AcDbLine
 10
-0.6334812307
 20
-0.6293066045
 30
0.0
 11
-0.6270966797
 21
-0.6262348864
 31
0.0
  0
LINE
  5
459
330
1F
100
AcDbEntity
  8
0
  6
Continuous
 62
     7
100
AcDbLine
 10
-0.6270966797
 20
-0.6262348864
 30
0.0
 11
-0.6248348865
 21
-0.6253604621
 31
0.0
  0
LINE
  5
45A
330
1F
100
AcDbEntity
  8
0
  6
Continuous
 62
     7
100
AcDbLine
 10
-0.6248348865
 20
-0.6253604621
 30
0.0
 11
-0.6228013304
 21
-0.6248300893
 31
0.0
  0
LINE
  5
45B
330
1F
100
AcDbEntity
  8
0
  6
Continuous
 62
     7
100
AcDbLine
 10
-0.6228013304
 20
-0.6248300893
 30
0.0
 11
-0.6210089821
 21
-0.6246339026
 31
0.0
  0
LINE
  5
45C
330
1F
100
AcDbEntity
  8
0
  6
Continuous
 62
     7
100
AcDbLine
 10
-0.6210089821
 20
-0.6246339026
 30
0.0
 11
-0.6194703881
 21
-0.6247619383
 31
0.0
  0
LINE
  5
45D
330
1F
100
AcDbEntity
  8
0
  6
Continuous
 62
     7
100
AcDbLine
 10
-0.6194703881
 20
-0.6247619383
 30
0.0
 11
-0.6181978691
 21
-0.625203658
 31
0.0
  0
LINE
  5
45E
330
1F
100
AcDbEntity
  8
0
  6
Continuous
 62
     7
100
AcDbLine
 10
-0.6181978691
 20
-0.625203658
 30
0.0
 11
-0.6172033999
 21
-0.6259482132
 31
0.0
  0
LINE
  5
45F
330
1F
100
AcDbEntity
  8
0
  6
Continuous
 62
     7
100
AcDbLine
 10
-0.6172033999
 20
-0.6259482132
 30
0.0
 11
-0.6121010135
 21
-0.6309991514
 31
0.0
  0
LINE
  5
460
330
1F
100
AcDbEntity
  8
0
  6
Continuous
 62
     7
100
AcDbLine
 10
-0.6121010135
 20
-0.6309991514
 30
0.0
 11
-0.599186861
 21
-0.6432749687
 31
0.0
  0
LINE
  5
461
330
1F
100
AcDbEntity
  8
0
  6
Continuous
 62
     7
100
AcDbLine
 10
-0.599186861
 20
-0.6432749687
 30
0.0
 11
-0.593883974
 21
-0.6481149805
 31
0.0
  0
LINE
  5
462
330
1F
100
AcDbEntity
  8
0
  6
Continuous
 62
     7
100
AcDbLine
 10
-0.593883974
 20
-0.6481149805
 30
0.0
 11
-0.5930900053
 21
-0.6490704622
 31
0.0
  0
LINE
  5
463
330
1F
100
AcDbEntity
  8
0
  6
Continuous
 62
     7
100
AcDbLine
 10
-0.5930900053
 20
-0.6490704622
 30
0.0
 11
-0.5925844005
 21
-0.6503189752
 31
0.0
  0
LINE
  5
464
330
1F
100
AcDbEntity
  8
0
  6
Continuous
 62
     7
100
AcDbLine
 10
-0.5925844005
 20
-0.6503189752
 30
0.0
 11
-0.5923786006
 21
-0.6518491095
 31
0.0
  0
LINE
  5
465
330
1F
100
AcDbEntity
  8
0
  6
Continuous
 62
     7
100
AcDbLine
 10
-0.5923786006
 20
-0.6518491095
 30
0.0
 11
-0.5924837005
 21
-0.6536491143
 31
0.0
  0
LINE
  5
466
330
1F
100
AcDbEntity
  8
0
  6
Continuous
 62
     7
100
AcDbLine
 10
-0.5924837005
 20
-0.6536491143
 30
0.0
 11
-0.5929104395
 21
-0.6557069067
 31
0.0
  0
LINE
  5
467
330
1F
100
AcDbEntity
  8
0
  6
Continuous
 62
     7
100
AcDbLine
 10
-0.5929104395
 20
-0.6557069067
 30
0.0
 11
-0.5936691928
 21
-0.6580100821
 31
0.0
  0
LINE
  5
468
330
1F
100
AcDbEntity
  8
0
  6
Continuous
 62
     7
100
AcDbLine
 10
-0.5936691928
 20
-0.6580100821
 30
0.0
 11
-0.5964135203
 21
-0.6645418379
 31
0.0
  0
LINE
  5
469
330
1F
100
AcDbEntity
  8
0
  6
Continuous
 62
     7
100
AcDbLine
 10
-0.5964135203
 20
-0.6645418379
 30
0.0
 11
-0.5987256189
 21
-0.6703730572
 31
0.0
  0
LINE
  5
46A
330
1F
100
AcDbEntity
  8
0
  6
Continuous
 62
     7
100
AcDbLine
 10
-0.5987256189
 20
-0.6703730572
 30
0.0
 11
-0.6010398243
 21
-0.676573497
 31
0.0
  0
LINE
  5
46B
330
1F
100
AcDbEntity
  8
0
  6
Continuous
 62
     7
100
AcDbLine
 10
-0.6010398243
 20
-0.676573497
 30
0.0
 11
-0.6033420708
 21
-0.6831455052
 31
0.0
  0
LINE
  5
46C
330
1F
100
AcDbEntity
  8
0
  6
Continuous
 62
     7
100
AcDbLine
 10
-0.6033420708
 20
-0.6831455052
 30
0.0
 11
-0.6056182009
 21
-0.6900910102
 31
0.0
  0
LINE
  5
46D
330
1F
100
AcDbEntity
  8
0
  6
Continuous
 62
     7
100
AcDbLine
 10
-0.6056182009
 20
-0.6900910102
 30
0.0
 11
-0.6078539769
 21
-0.6974115184
 31
0.0
  0
LINE
  5
46E
330
1F
100
AcDbEntity
  8
0
  6
Continuous
 62
     7
100
AcDbLine
 10
-0.6078539769
 20
-0.6974115184
 30
0.0
 11
-0.6100350922
 21
-0.7051081115
 31
0.0
  0
LINE
  5
46F
330
1F
100
AcDbEntity
  8
0
  6
Continuous
 62
     7
100
AcDbLine
 10
-0.6100350922
 20
-0.7051081115
 30
0.0
 11
-0.6121471819
 21
-0.7131814438
 31
0.0
  0
LINE
  5
470
330
1F
100
AcDbEntity
  8
0
  6
Continuous
 62
     7
100
AcDbLine
 10
-0.6121471819
 20
-0.7131814438
 30
0.0
 11
-0.6141758361
 21
-0.7216317443
 31
0.0
  0
LINE
  5
471
330
1F
100
AcDbEntity
  8
0
  6
Continuous
 62
     7
100
AcDbLine
 10
-0.6141758361
 20
-0.7216317443
 30
0.0
 11
-0.6161066087
 21
-0.7304588071
 31
0.0
  0
LINE
  5
472
330
1F
100
AcDbEntity
  8
0
  6
Continuous
 62
     7
100
AcDbLine
 10
-0.6161066087
 20
-0.7304588071
 30
0.0
 11
-0.6179250314
 21
-0.7396619982
 31
0.0
  0
LINE
  5
473
330
1F
100
AcDbEntity
  8
0
  6
Continuous
 62
     7
100
AcDbLine
 10
-0.6179250314
 20
-0.7396619982
 30
0.0
 11
-0.6196166238
 21
-0.7492402505
 31
0.0
  0
LINE
  5
474
330
1F
100
AcDbEntity
  8
0
  6
Continuous
 62
     7
100
AcDbLine
 10
-0.6196166238
 20
-0.7492402505
 30
0.0
 11
-0.6211669055
 21
-0.7591920641
 31
0.0
  0
LINE
  5
475
330
1F
100
AcDbEntity
  8
0
  6
Continuous
 62
     7
100
AcDbLine
 10
-0.6211669055
 20
-0.7591920641
 30
0.0
 11
-0.6225614076
 21
-0.7695155054
 31
0.0
  0
LINE
  5
476
330
1F
100
AcDbEntity
  8
0
  6
Continuous
 62
     7
100
AcDbLine
 10
-0.6225614076
 20
-0.7695155054
 30
0.0
 11
-0.6237856847
 21
-0.7802082076
 31
0.0
  0
LINE
  5
477
330
1F
100
AcDbEntity
  8
0
  6
Continuous
 62
     7
100
AcDbLine
 10
-0.6237856847
 20
-0.7802082076
 30
0.0
 11
-0.6238020181
 21
-0.7803819545
 31
0.0
  0
LINE
  5
478
330
1F
100
AcDbEntity
  8
0
  6
Continuous
 62
     7
100
AcDbLine
 10
-0.6238020181
 20
-0.7803819545
 30
0.0
 11
-0.6124288989
 21
-0.7911929105
 31
0.0
  0
LINE
  5
479
330
1F
100
AcDbEntity
  8
0
  6
Continuous
 62
     7
100
AcDbLine
 10
-0.6124288989
 20
-0.7911929105
 30
0.0
 11
-0.5991123587
 21
-0.7994931735
 31
0.0
  0
LINE
  5
47A
330
1F
100
AcDbEntity
  8
0
  6
Continuous
 62
     7
100
AcDbLine
 10
-0.5991123587
 20
-0.7994931735
 30
0.0
 11
-0.5989482523
 21
-0.7994338113
 31
0.0
  0
LINE
  5
47B
330
1F
100
AcDbEntity
  8
0
  6
Continuous
 62
     7
100
AcDbLine
 10
-0.5989482523
 20
-0.7994338113
 30
0.0
 11
-0.58890376
 21
-0.7955684639
 31
0.0
  0
LINE
  5
47C
330
1F
100
AcDbEntity
  8
0
  6
Continuous
 62
     7
100
AcDbLine
 10
-0.58890376
 20
-0.7955684639
 30
0.0
 11
-0.5792594082
 21
-0.7916308815
 31
0.0
  0
LINE
  5
47D
330
1F
100
AcDbEntity
  8
0
  6
Continuous
 62
     7
100
AcDbLine
 10
-0.5792594082
 20
-0.7916308815
 30
0.0
 11
-0.5700138673
 21
-0.787635642
 31
0.0
  0
LINE
  5
47E
330
1F
100
AcDbEntity
  8
0
  6
Continuous
 62
     7
100
AcDbLine
 10
-0.5700138673
 20
-0.787635642
 30
0.0
 11
-0.5611653823
 21
-0.7835972369
 31
0.0
  0
LINE
  5
47F
330
1F
100
AcDbEntity
  8
0
  6
Continuous
 62
     7
100
AcDbLine
 10
-0.5611653823
 20
-0.7835972369
 30
0.0
 11
-0.5527117758
 21
-0.7795300604
 31
0.0
  0
LINE
  5
480
330
1F
100
AcDbEntity
  8
0
  6
Continuous
 62
     7
100
AcDbLine
 10
-0.5527117758
 20
-0.7795300604
 30
0.0
 11
-0.5446504514
 21
-0.7754483979
 31
0.0
  0
LINE
  5
481
330
1F
100
AcDbEntity
  8
0
  6
Continuous
 62
     7
100
AcDbLine
 10
-0.5446504514
 20
-0.7754483979
 30
0.0
 11
-0.5369783969
 21
-0.7713664154
 31
0.0
  0
LINE
  5
482
330
1F
100
AcDbEntity
  8
0
  6
Continuous
 62
     7
100
AcDbLine
 10
-0.5369783969
 20
-0.7713664154
 30
0.0
 11
-0.5296921885
 21
-0.7672981481
 31
0.0
  0
LINE
  5
483
330
1F
100
AcDbEntity
  8
0
  6
Continuous
 62
     7
100
AcDbLine
 10
-0.5296921885
 20
-0.7672981481
 30
0.0
 11
-0.5227879949
 21
-0.7632574898
 31
0.0
  0
LINE
  5
484
330
1F
100
AcDbEntity
  8
0
  6
Continuous
 62
     7
100
AcDbLine
 10
-0.5227879949
 20
-0.7632574898
 30
0.0
 11
-0.5162615813
 21
-0.7592581823
 31
0.0
  0
LINE
  5
485
330
1F
100
AcDbEntity
  8
0
  6
Continuous
 62
     7
100
AcDbLine
 10
-0.5162615813
 20
-0.7592581823
 30
0.0
 11
-0.5101083146
 21
-0.7553138044
 31
0.0
  0
LINE
  5
486
330
1F
100
AcDbEntity
  8
0
  6
Continuous
 62
     7
100
AcDbLine
 10
-0.5101083146
 20
-0.7553138044
 30
0.0
 11
-0.5043231677
 21
-0.7514377618
 31
0.0
  0
LINE
  5
487
330
1F
100
AcDbEntity
  8
0
  6
Continuous
 62
     7
100
AcDbLine
 10
-0.5043231677
 20
-0.7514377618
 30
0.0
 11
-0.4989013475
 21
-0.747643731
 31
0.0
  0
LINE
  5
488
330
1F
100
AcDbEntity
  8
0
  6
Continuous
 62
     7
100
AcDbLine
 10
-0.4989013475
 20
-0.747643731
 30
0.0
 11
-0.4938353445
 21
-0.7439434956
 31
0.0
  0
LINE
  5
489
330
1F
100
AcDbEntity
  8
0
  6
Continuous
 62
     7
100
AcDbLine
 10
-0.4938353445
 20
-0.7439434956
 30
0.0
 11
-0.488199818
 21
-0.7396494551
 31
0.0
  0
LINE
  5
48A
330
1F
100
AcDbEntity
  8
0
  6
Continuous
 62
     7
100
AcDbLine
 10
-0.488199818
 20
-0.7396494551
 30
0.0
 11
-0.4861603441
 21
-0.7383376347
 31
0.0
  0
LINE
  5
48B
330
1F
100
AcDbEntity
  8
0
  6
Continuous
 62
     7
100
AcDbLine
 10
-0.4861603441
 20
-0.7383376347
 30
0.0
 11
-0.4842751783
 21
-0.7374087668
 31
0.0
  0
LINE
  5
48C
330
1F
100
AcDbEntity
  8
0
  6
Continuous
 62
     7
100
AcDbLine
 10
-0.4842751783
 20
-0.7374087668
 30
0.0
 11
-0.4825590116
 21
-0.736855799
 31
0.0
  0
LINE
  5
48D
330
1F
100
AcDbEntity
  8
0
  6
Continuous
 62
     7
100
AcDbLine
 10
-0.4825590116
 20
-0.736855799
 30
0.0
 11
-0.4810261393
 21
-0.736671497
 31
0.0
  0
LINE
  5
48E
330
1F
100
AcDbEntity
  8
0
  6
Continuous
 62
     7
100
AcDbLine
 10
-0.4810261393
 20
-0.736671497
 30
0.0
 11
-0.4796907513
 21
-0.7368480185
 31
0.0
  0
LINE
  5
48F
330
1F
100
AcDbEntity
  8
0
  6
Continuous
 62
     7
100
AcDbLine
 10
-0.4796907513
 20
-0.7368480185
 30
0.0
 11
-0.478566761
 21
-0.7373771475
 31
0.0
  0
LINE
  5
490
330
1F
100
AcDbEntity
  8
0
  6
Continuous
 62
     7
100
AcDbLine
 10
-0.478566761
 20
-0.7373771475
 30
0.0
 11
-0.4725520744
 21
-0.7412975899
 31
0.0
  0
LINE
  5
491
330
1F
100
AcDbEntity
  8
0
  6
Continuous
 62
     7
100
AcDbLine
 10
-0.4725520744
 20
-0.7412975899
 30
0.0
 11
-0.4574311715
 21
-0.7507225207
 31
0.0
  0
LINE
  5
492
330
1F
100
AcDbEntity
  8
0
  6
Continuous
 62
     7
100
AcDbLine
 10
-0.4574311715
 20
-0.7507225207
 30
0.0
 11
-0.4512625477
 21
-0.7543959938
 31
0.0
  0
LINE
  5
493
330
1F
100
AcDbEntity
  8
0
  6
Continuous
 62
     7
100
AcDbLine
 10
-0.4512625477
 20
-0.7543959938
 30
0.0
 11
-0.4502924946
 21
-0.7551720921
 31
0.0
  0
LINE
  5
494
330
1F
100
AcDbEntity
  8
0
  6
Continuous
 62
     7
100
AcDbLine
 10
-0.4502924946
 20
-0.7551720921
 30
0.0
 11
-0.4495459157
 21
-0.7562932704
 31
0.0
  0
LINE
  5
495
330
1F
100
AcDbEntity
  8
0
  6
Continuous
 62
     7
100
AcDbLine
 10
-0.4495459157
 20
-0.7562932704
 30
0.0
 11
-0.4490363148
 21
-0.7577506556
 31
0.0
  0
LINE
  5
496
330
1F
100
AcDbEntity
  8
0
  6
Continuous
 62
     7
100
AcDbLine
 10
-0.4490363148
 20
-0.7577506556
 30
0.0
 11
-0.448776925
 21
-0.7595349706
 31
0.0
  0
LINE
  5
497
330
1F
100
AcDbEntity
  8
0
  6
Continuous
 62
     7
100
AcDbLine
 10
-0.448776925
 20
-0.7595349706
 30
0.0
 11
-0.4487806981
 21
-0.7616365418
 31
0.0
  0
LINE
  5
498
330
1F
100
AcDbEntity
  8
0
  6
Continuous
 62
     7
100
AcDbLine
 10
-0.4487806981
 20
-0.7616365418
 30
0.0
 11
-0.4490602939
 21
-0.764045307
 31
0.0
  0
LINE
  5
499
330
1F
100
AcDbEntity
  8
0
  6
Continuous
 62
     7
100
AcDbLine
 10
-0.4490602939
 20
-0.764045307
 30
0.0
 11
-0.450433612
 21
-0.7709957864
 31
0.0
  0
LINE
  5
49A
330
1F
100
AcDbEntity
  8
0
  6
Continuous
 62
     7
100
AcDbLine
 10
-0.450433612
 20
-0.7709957864
 30
0.0
 11
-0.451524566
 21
-0.7771730624
 31
0.0
  0
LINE
  5
49B
330
1F
100
AcDbEntity
  8
0
  6
Continuous
 62
     7
100
AcDbLine
 10
-0.451524566
 20
-0.7771730624
 30
0.0
 11
-0.4525432602
 21
-0.7837124249
 31
0.0
  0
LINE
  5
49C
330
1F
100
AcDbEntity
  8
0
  6
Continuous
 62
     7
100
AcDbLine
 10
-0.4525432602
 20
-0.7837124249
 30
0.0
 11
-0.453475444
 21
-0.7906133425
 31
0.0
  0
LINE
  5
49D
330
1F
100
AcDbEntity
  8
0
  6
Continuous
 62
     7
100
AcDbLine
 10
-0.453475444
 20
-0.7906133425
 30
0.0
 11
-0.4543068616
 21
-0.7978748543
 31
0.0
  0
LINE
  5
49E
330
1F
100
AcDbEntity
  8
0
  6
Continuous
 62
     7
100
AcDbLine
 10
-0.4543068616
 20
-0.7978748543
 30
0.0
 11
-0.4550232638
 21
-0.8054955697
 31
0.0
  0
LINE
  5
49F
330
1F
100
AcDbEntity
  8
0
  6
Continuous
 62
     7
100
AcDbLine
 10
-0.4550232638
 20
-0.8054955697
 30
0.0
 11
-0.4556104187
 21
-0.8134736683
 31
0.0
  0
LINE
  5
4A0
330
1F
100
AcDbEntity
  8
0
  6
Continuous
 62
     7
100
AcDbLine
 10
-0.4556104187
 20
-0.8134736683
 30
0.0
 11
-0.4560541239
 21
-0.8218068995
 31
0.0
  0
LINE
  5
4A1
330
1F
100
AcDbEntity
  8
0
  6
Continuous
 62
     7
100
AcDbLine
 10
-0.4560541239
 20
-0.8218068995
 30
0.0
 11
-0.4563402184
 21
-0.830492587
 31
0.0
  0
LINE
  5
4A2
330
1F
100
AcDbEntity
  8
0
  6
Continuous
 62
     7
100
AcDbLine
 10
-0.4563402184
 20
-0.830492587
 30
0.0
 11
-0.4564545934
 21
-0.839527621
 31
0.0
  0
LINE
  5
4A3
330
1F
100
AcDbEntity
  8
0
  6
Continuous
 62
     7
100
AcDbLine
 10
-0.4564545934
 20
-0.839527621
 30
0.0
 11
-0.4563832041
 21
-0.848908468
 31
0.0
  0
LINE
  5
4A4
330
1F
100
AcDbEntity
  8
0
  6
Continuous
 62
     7
100
AcDbLine
 10
-0.4563832041
 20
-0.848908468
 30
0.0
 11
-0.4561120814
 21
-0.858631168
 31
0.0
  0
LINE
  5
4A5
330
1F
100
AcDbEntity
  8
0
  6
Continuous
 62
     7
100
AcDbLine
 10
-0.4561120814
 20
-0.858631168
 30
0.0
 11
-0.4556273434
 21
-0.8686913367
 31
0.0
  0
LINE
  5
4A6
330
1F
100
AcDbEntity
  8
0
  6
Continuous
 62
     7
100
AcDbLine
 10
-0.4556273434
 20
-0.8686913367
 30
0.0
 11
-0.4549152066
 21
-0.8790841678
 31
0.0
  0
LINE
  5
4A7
330
1F
100
AcDbEntity
  8
0
  6
Continuous
 62
     7
100
AcDbLine
 10
-0.4549152066
 20
-0.8790841678
 30
0.0
 11
-0.4539619975
 21
-0.889804435
 31
0.0
  0
LINE
  5
4A8
330
1F
100
AcDbEntity
  8
0
  6
Continuous
 62
     7
100
AcDbLine
 10
-0.4539619975
 20
-0.889804435
 30
0.0
 11
-0.4539430216
 21
-0.8899779131
 31
0.0
  0
LINE
  5
4A9
330
1F
100
AcDbEntity
  8
0
  6
Continuous
 62
     7
100
AcDbLine
 10
-0.4539430216
 20
-0.8899779131
 30
0.0
 11
-0.4406264814
 21
-0.8982781761
 31
0.0
  0
LINE
  5
4AA
330
1F
100
AcDbEntity
  8
0
  6
Continuous
 62
     7
100
AcDbLine
 10
-0.4406264814
 20
-0.8982781761
 30
0.0
 11
-0.4259117009
 21
-0.9037279324
 31
0.0
  0
LINE
  5
4AB
330
1F
100
AcDbEntity
  8
0
  6
Continuous
 62
     7
100
AcDbLine
 10
-0.4259117009
 20
-0.9037279324
 30
0.0
 11
-0.4257629033
 21
-0.903636751
 31
0.0
  0
LINE
  5
4AC
330
1F
100
AcDbEntity
  8
0
  6
Continuous
 62
     7
100
AcDbLine
 10
-0.4257629033
 20
-0.903636751
 30
0.0
 11
-0.4167021111
 21
-0.897828586
 31
0.0
  0
LINE
  5
4AD
330
1F
100
AcDbEntity
  8
0
  6
Continuous
 62
     7
100
AcDbLine
 10
-0.4167021111
 20
-0.897828586
 30
0.0
 11
-0.4080478092
 21
-0.8920302125
 31
0.0
  0
LINE
  5
4AE
330
1F
100
AcDbEntity
  8
0
  6
Continuous
 62
     7
100
AcDbLine
 10
-0.4080478092
 20
-0.8920302125
 30
0.0
 11
-0.3997957609
 21
-0.886255642
 31
0.0
  0
LINE
  5
4AF
330
1F
100
AcDbEntity
  8
0
  6
Continuous
 62
     7
100
AcDbLine
 10
-0.3997957609
 20
-0.886255642
 30
0.0
 11
-0.3919413298
 21
-0.8805187164
 31
0.0
  0
LINE
  5
4B0
330
1F
100
AcDbEntity
  8
0
  6
Continuous
 62
     7
100
AcDbLine
 10
-0.3919413298
 20
-0.8805187164
 30
0.0
 11
-0.3844794858
 21
-0.8748330968
 31
0.0
  0
LINE
  5
4B1
330
1F
100
AcDbEntity
  8
0
  6
Continuous
 62
     7
100
AcDbLine
 10
-0.3844794858
 20
-0.8748330968
 30
0.0
 11
-0.3774048097
 21
-0.8692122535
 31
0.0
  0
LINE
  5
4B2
330
1F
100
AcDbEntity
  8
0
  6
Continuous
 62
     7
100
AcDbLine
 10
-0.3774048097
 20
-0.8692122535
 30
0.0
 11
-0.3707114997
 21
-0.8636694562
 31
0.0
  0
LINE
  5
4B3
330
1F
100
AcDbEntity
  8
0
  6
Continuous
 62
     7
100
AcDbLine
 10
-0.3707114997
 20
-0.8636694562
 30
0.0
 11
-0.3643933766
 21
-0.8582177635
 31
0.0
  0
LINE
  5
4B4
330
1F
100
AcDbEntity
  8
0
  6
Continuous
 62
     7
100
AcDbLine
 10
-0.3643933766
 20
-0.8582177635
 30
0.0
 11
-0.3584438908
 21
-0.8528700138
 31
0.0
  0
LINE
  5
4B5
330
1F
100
AcDbEntity
  8
0
  6
Continuous
 62
     7
100
AcDbLine
 10
-0.3584438908
 20
-0.8528700138
 30
0.0
 11
-0.352856128
 21
-0.847638815
 31
0.0
  0
LINE
  5
4B6
330
1F
100
AcDbEntity
  8
0
  6
Continuous
 62
     7
100
AcDbLine
 10
-0.352856128
 20
-0.847638815
 30
0.0
 11
-0.3476228164
 21
-0.8425365352
 31
0.0
  0
LINE
  5
4B7
330
1F
100
AcDbEntity
  8
0
  6
Continuous
 62
     7
100
AcDbLine
 10
-0.3476228164
 20
-0.8425365352
 30
0.0
 11
-0.3427363335
 21
-0.837575294
 31
0.0
  0
LINE
  5
4B8
330
1F
100
AcDbEntity
  8
0
  6
Continuous
 62
     7
100
AcDbLine
 10
-0.3427363335
 20
-0.837575294
 30
0.0
 11
-0.338189231
 21
-0.8327675228
 31
0.0
  0
LINE
  5
4B9
330
1F
100
AcDbEntity
  8
0
  6
Continuous
 62
     7
100
AcDbLine
 10
-0.338189231
 20
-0.8327675228
 30
0.0
 11
-0.3339717813
 21
-0.8281232526
 31
0.0
  0
LINE
  5
4BA
330
1F
100
AcDbEntity
  8
0
  6
Continuous
 62
     7
100
AcDbLine
 10
-0.3339717813
 20
-0.8281232526
 30
0.0
 11
-0.3293159983
 21
-0.8227826882
 31
0.0
  0
LINE
  5
4BB
330
1F
100
AcDbEntity
  8
0
  6
Continuous
 62
     7
100
AcDbLine
 10
-0.3293159983
 20
-0.8227826882
 30
0.0
 11
-0.3275823401
 21
-0.8210871777
 31
0.0
  0
LINE
  5
4BC
330
1F
100
AcDbEntity
  8
0
  6
Continuous
 62
     7
100
AcDbLine
 10
-0.3275823401
 20
-0.8210871777
 30
0.0
 11
-0.3259227435
 21
-0.8197978427
 31
0.0
  0
LINE
  5
4BD
330
1F
100
AcDbEntity
  8
0
  6
Continuous
 62
     7
100
AcDbLine
 10
-0.3259227435
 20
-0.8197978427
 30
0.0
 11
-0.3243530184
 21
-0.8189107323
 31
0.0
  0
LINE
  5
4BE
330
1F
100
AcDbEntity
  8
0
  6
Continuous
 62
     7
100
AcDbLine
 10
-0.3243530184
 20
-0.8189107323
 30
0.0
 11
-0.3228886238
 21
-0.8184216382
 31
0.0
  0
LINE
  5
4BF
330
1F
100
AcDbEntity
  8
0
  6
Continuous
 62
     7
100
AcDbLine
 10
-0.3228886238
 20
-0.8184216382
 30
0.0
 11
-0.3215450378
 21
-0.8183257347
 31
0.0
  0
LINE
  5
4C0
330
1F
100
AcDbEntity
  8
0
  6
Continuous
 62
     7
100
AcDbLine
 10
-0.3215450378
 20
-0.8183257347
 30
0.0
 11
-0.3203375428
 21
-0.8186177747
 31
0.0
  0
LINE
  5
4C1
330
1F
100
AcDbEntity
  8
0
  6
Continuous
 62
     7
100
AcDbLine
 10
-0.3203375428
 20
-0.8186177747
 30
0.0
 11
-0.3136567979
 21
-0.8212472179
 31
0.0
  0
LINE
  5
4C2
330
1F
100
AcDbEntity
  8
0
  6
Continuous
 62
     7
100
AcDbLine
 10
-0.3136567979
 20
-0.8212472179
 30
0.0
 11
-0.2969481961
 21
-0.8274354045
 31
0.0
  0
LINE
  5
4C3
330
1F
100
AcDbEntity
  8
0
  6
Continuous
 62
     7
100
AcDbLine
 10
-0.2969481961
 20
-0.8274354045
 30
0.0
 11
-0.2901663797
 21
-0.8297919465
 31
0.0
  0
LINE
  5
4C4
330
1F
100
AcDbEntity
  8
0
  6
Continuous
 62
     7
100
AcDbLine
 10
-0.2901663797
 20
-0.8297919465
 30
0.0
 11
-0.2890599562
 21
-0.8303568877
 31
0.0
  0
LINE
  5
4C5
330
1F
100
AcDbEntity
  8
0
  6
Continuous
 62
     7
100
AcDbLine
 10
-0.2890599562
 20
-0.8303568877
 30
0.0
 11
-0.2881029683
 21
-0.8313048303
 31
0.0
  0
LINE
  5
4C6
330
1F
100
AcDbEntity
  8
0
  6
Continuous
 62
     7
100
AcDbLine
 10
-0.2881029683
 20
-0.8313048303
 30
0.0
 11
-0.2873104295
 21
-0.8326298008
 31
0.0
  0
LINE
  5
4C7
330
1F
100
AcDbEntity
  8
0
  6
Continuous
 62
     7
100
AcDbLine
 10
-0.2873104295
 20
-0.8326298008
 30
0.0
 11
-0.2866971694
 21
-0.834325376
 31
0.0
  0
LINE
  5
4C8
330
1F
100
AcDbEntity
  8
0
  6
Continuous
 62
     7
100
AcDbLine
 10
-0.2866971694
 20
-0.834325376
 30
0.0
 11
-0.2862778221
 21
-0.8363846875
 31
0.0
  0
LINE
  5
4C9
330
1F
100
AcDbEntity
  8
0
  6
Continuous
 62
     7
100
AcDbLine
 10
-0.2862778221
 20
-0.8363846875
 30
0.0
 11
-0.2860668137
 21
-0.8388004273
 31
0.0
  0
LINE
  5
4CA
330
1F
100
AcDbEntity
  8
0
  6
Continuous
 62
     7
100
AcDbLine
 10
-0.2860668137
 20
-0.8388004273
 30
0.0
 11
-0.2860128987
 21
-0.8458850769
 31
0.0
  0
LINE
  5
4CB
330
1F
100
AcDbEntity
  8
0
  6
Continuous
 62
     7
100
AcDbLine
 10
-0.2860128987
 20
-0.8458850769
 30
0.0
 11
-0.2858380443
 21
-0.8521555111
 31
0.0
  0
LINE
  5
4CC
330
1F
100
AcDbEntity
  8
0
  6
Continuous
 62
     7
100
AcDbLine
 10
-0.2858380443
 20
-0.8521555111
 30
0.0
 11
-0.2855195217
 21
-0.8587660741
 31
0.0
  0
LINE
  5
4CD
330
1F
100
AcDbEntity
  8
0
  6
Continuous
 62
     7
100
AcDbLine
 10
-0.2855195217
 20
-0.8587660741
 30
0.0
 11
-0.2850434792
 21
-0.8657133767
 31
0.0
  0
LINE
  5
4CE
330
1F
100
AcDbEntity
  8
0
  6
Continuous
 62
     7
100
AcDbLine
 10
-0.2850434792
 20
-0.8657133767
 30
0.0
 11
-0.2843961461
 21
-0.8729936081
 31
0.0
  0
LINE
  5
4CF
330
1F
100
AcDbEntity
  8
0
  6
Continuous
 62
     7
100
AcDbLine
 10
-0.2843961461
 20
-0.8729936081
 30
0.0
 11
-0.2835638447
 21
-0.8806025376
 31
0.0
  0
LINE
  5
4D0
330
1F
100
AcDbEntity
  8
0
  6
Continuous
 62
     7
100
AcDbLine
 10
-0.2835638447
 20
-0.8806025376
 30
0.0
 11
-0.2825330011
 21
-0.8885355175
 31
0.0
  0
LINE
  5
4D1
330
1F
100
AcDbEntity
  8
0
  6
Continuous
 62
     7
100
AcDbLine
 10
-0.2825330011
 20
-0.8885355175
 30
0.0
 11
-0.2812901565
 21
-0.8967874842
 31
0.0
  0
LINE
  5
4D2
330
1F
100
AcDbEntity
  8
0
  6
Continuous
 62
     7
100
AcDbLine
 10
-0.2812901565
 20
-0.8967874842
 30
0.0
 11
-0.2798219786
 21
-0.9053529656
 31
0.0
  0
LINE
  5
4D3
330
1F
100
AcDbEntity
  8
0
  6
Continuous
 62
     7
100
AcDbLine
 10
-0.2798219786
 20
-0.9053529656
 30
0.0
 11
-0.2781152734
 21
-0.9142260754
 31
0.0
  0
LINE
  5
4D4
330
1F
100
AcDbEntity
  8
0
  6
Continuous
 62
     7
100
AcDbLine
 10
-0.2781152734
 20
-0.9142260754
 30
0.0
 11
-0.2761569948
 21
-0.9234005254
 31
0.0
  0
LINE
  5
4D5
330
1F
100
AcDbEntity
  8
0
  6
Continuous
 62
     7
100
AcDbLine
 10
-0.2761569948
 20
-0.9234005254
 30
0.0
 11
-0.2739342569
 21
-0.9328696245
 31
0.0
  0
LINE
  5
4D6
330
1F
100
AcDbEntity
  8
0
  6
Continuous
 62
     7
100
AcDbLine
 10
-0.2739342569
 20
-0.9328696245
 30
0.0
 11
-0.2714343445
 21
-0.942626284
 31
0.0
  0
LINE
  5
4D7
330
1F
100
AcDbEntity
  8
0
  6
Continuous
 62
     7
100
AcDbLine
 10
-0.2714343445
 20
-0.942626284
 30
0.0
 11
-0.2686447236
 21
-0.9526630211
 31
0.0
  0
LINE
  5
4D8
330
1F
100
AcDbEntity
  8
0
  6
Continuous
 62
     7
100
AcDbLine
 10
-0.2686447236
 20
-0.9526630211
 30
0.0
 11
-0.2655530528
 21
-0.9629719642
 31
0.0
  0
LINE
  5
4D9
330
1F
100
AcDbEntity
  8
0
  6
Continuous
 62
     7
100
AcDbLine
 10
-0.2655530528
 20
-0.9629719642
 30
0.0
 11
-0.2654995445
 21
-0.9631380714
 31
0.0
  0
LINE
  5
4DA
330
1F
100
AcDbEntity
  8
0
  6
Continuous
 62
     7
100
AcDbLine
 10
-0.2654995445
 20
-0.9631380714
 30
0.0
 11
-0.2507847639
 21
-0.9685878277
 31
0.0
  0
LINE
  5
4DB
330
1F
100
AcDbEntity
  8
0
  6
Continuous
 62
     7
100
AcDbLine
 10
-0.2507847639
 20
-0.9685878277
 30
0.0
 11
-0.235274168
 21
-0.9709639636
 31
0.0
  0
LINE
  5
4DC
330
1F
100
AcDbEntity
  8
0
  6
Continuous
 62
     7
100
AcDbLine
 10
-0.235274168
 20
-0.9709639636
 30
0.0
 11
-0.235146771
 21
-0.970844696
 31
0.0
  0
LINE
  5
4DD
330
1F
100
AcDbEntity
  8
0
  6
Continuous
 62
     7
100
AcDbLine
 10
-0.235146771
 20
-0.970844696
 30
0.0
 11
-0.2274406287
 21
-0.9633315004
 31
0.0
  0
LINE
  5
4DE
330
1F
100
AcDbEntity
  8
0
  6
Continuous
 62
     7
100
AcDbLine
 10
-0.2274406287
 20
-0.9633315004
 30
0.0
 11
-0.2201306849
 21
-0.9559097217
 31
0.0
  0
LINE
  5
4DF
330
1F
100
AcDbEntity
  8
0
  6
Continuous
 62
     7
100
AcDbLine
 10
-0.2201306849
 20
-0.9559097217
 30
0.0
 11
-0.213209969
 21
-0.948592232
 31
0.0
  0
LINE
  5
4E0
330
1F
100
AcDbEntity
  8
0
  6
Continuous
 62
     7
100
AcDbLine
 10
-0.213209969
 20
-0.948592232
 30
0.0
 11
-0.2066711533
 21
-0.9413916562
 31
0.0
  0
LINE
  5
4E1
330
1F
100
AcDbEntity
  8
0
  6
Continuous
 62
     7
100
AcDbLine
 10
-0.2066711533
 20
-0.9413916562
 30
0.0
 11
-0.2005065604
 21
-0.9343203634
 31
0.0
  0
LINE
  5
4E2
330
1F
100
AcDbEntity
  8
0
  6
Continuous
 62
     7
100
AcDbLine
 10
-0.2005065604
 20
-0.9343203634
 30
0.0
 11
-0.1947081708
 21
-0.9273904573
 31
0.0
  0
LINE
  5
4E3
330
1F
100
AcDbEntity
  8
0
  6
Continuous
 62
     7
100
AcDbLine
 10
-0.1947081708
 20
-0.9273904573
 30
0.0
 11
-0.1892676301
 21
-0.9206137679
 31
0.0
  0
LINE
  5
4E4
330
1F
100
AcDbEntity
  8
0
  6
Continuous
 62
     7
100
AcDbLine
 10
-0.1892676301
 20
-0.9206137679
 30
0.0
 11
-0.1841762571
 21
-0.9140018429
 31
0.0
  0
LINE
  5
4E5
330
1F
100
AcDbEntity
  8
0
  6
Continuous
 62
     7
100
AcDbLine
 10
-0.1841762571
 20
-0.9140018429
 30
0.0
 11
-0.1794250516
 21
-0.9075659393
 31
0.0
  0
LINE
  5
4E6
330
1F
100
AcDbEntity
  8
0
  6
Continuous
 62
     7
100
AcDbLine
 10
-0.1794250516
 20
-0.9075659393
 30
0.0
 11
-0.1750047033
 21
-0.901317015
 31
0.0
  0
LINE
  5
4E7
330
1F
100
AcDbEntity
  8
0
  6
Continuous
 62
     7
100
AcDbLine
 10
-0.1750047033
 20
-0.901317015
 30
0.0
 11
-0.1709055993
 21
-0.8952657213
 31
0.0
  0
LINE
  5
4E8
330
1F
100
AcDbEntity
  8
0
  6
Continuous
 62
     7
100
AcDbLine
 10
-0.1709055993
 20
-0.8952657213
 30
0.0
 11
-0.1671178335
 21
-0.8894223952
 31
0.0
  0
LINE
  5
4E9
330
1F
100
AcDbEntity
  8
0
  6
Continuous
 62
     7
100
AcDbLine
 10
-0.1671178335
 20
-0.8894223952
 30
0.0
 11
-0.1636316076
 21
-0.8837977144
 31
0.0
  0
LINE
  5
4EA
330
1F
100
AcDbEntity
  8
0
  6
Continuous
 62
     7
100
AcDbLine
 10
-0.1636316076
 20
-0.8837977144
 30
0.0
 11
-0.1604353741
 21
-0.8783995463
 31
0.0
  0
LINE
  5
4EB
330
1F
100
AcDbEntity
  8
0
  6
Continuous
 62
     7
100
AcDbLine
 10
-0.1604353741
 20
-0.8783995463
 30
0.0
 11
-0.156949943
 21
-0.8722311013
 31
0.0
  0
LINE
  5
4EC
330
1F
100
AcDbEntity
  8
0
  6
Continuous
 62
     7
100
AcDbLine
 10
-0.156949943
 20
-0.8722311013
 30
0.0
 11
-0.1555930766
 21
-0.8702213152
 31
0.0
  0
LINE
  5
4ED
330
1F
100
AcDbEntity
  8
0
  6
Continuous
 62
     7
100
AcDbLine
 10
-0.1555930766
 20
-0.8702213152
 30
0.0
 11
-0.1542269933
 21
-0.8686242986
 31
0.0
  0
LINE
  5
4EE
330
1F
100
AcDbEntity
  8
0
  6
Continuous
 62
     7
100
AcDbLine
 10
-0.1542269933
 20
-0.8686242986
 30
0.0
 11
-0.1528679745
 21
-0.8674393641
 31
0.0
  0
LINE
  5
4EF
330
1F
100
AcDbEntity
  8
0
  6
Continuous
 62
     7
100
AcDbLine
 10
-0.1528679745
 20
-0.8674393641
 30
0.0
 11
-0.1515320101
 21
-0.8666655013
 31
0.0
  0
LINE
  5
4F0
330
1F
100
AcDbEntity
  8
0
  6
Continuous
 62
     7
100
AcDbLine
 10
-0.1515320101
 20
-0.8666655013
 30
0.0
 11
-0.1502352326
 21
-0.866301099
 31
0.0
  0
LINE
  5
4F1
330
1F
100
AcDbEntity
  8
0
  6
Continuous
 62
     7
100
AcDbLine
 10
-0.1502352326
 20
-0.866301099
 30
0.0
 11
-0.1489936679
 21
-0.8663440941
 31
0.0
  0
LINE
  5
4F2
330
1F
100
AcDbEntity
  8
0
  6
Continuous
 62
     7
100
AcDbLine
 10
-0.1489936679
 20
-0.8663440941
 30
0.0
 11
-0.1419203752
 21
-0.8675748883
 31
0.0
  0
LINE
  5
4F3
330
1F
100
AcDbEntity
  8
0
  6
Continuous
 62
     7
100
AcDbLine
 10
-0.1419203752
 20
-0.8675748883
 30
0.0
 11
-0.1243081267
 21
-0.8702729856
 31
0.0
  0
LINE
  5
4F4
330
1F
100
AcDbEntity
  8
0
  6
Continuous
 62
     7
100
AcDbLine
 10
-0.1243081267
 20
-0.8702729856
 30
0.0
 11
-0.1171907661
 21
-0.8712161194
 31
0.0
  0
LINE
  5
4F5
330
1F
100
AcDbEntity
  8
0
  6
Continuous
 62
     7
100
AcDbLine
 10
-0.1171907661
 20
-0.8712161194
 30
0.0
 11
-0.1159932693
 21
-0.8715467749
 31
0.0
  0
LINE
  5
4F6
330
1F
100
AcDbEntity
  8
0
  6
Continuous
 62
     7
100
AcDbLine
 10
-0.1159932693
 20
-0.8715467749
 30
0.0
 11
-0.1148650516
 21
-0.8722826727
 31
0.0
  0
LINE
  5
4F7
330
1F
100
AcDbEntity
  8
0
  6
Continuous
 62
     7
100
AcDbLine
 10
-0.1148650516
 20
-0.8722826727
 30
0.0
 11
-0.1138220215
 21
-0.8734209841
 31
0.0
  0
LINE
  5
4F8
330
1F
100
AcDbEntity
  8
0
  6
Continuous
 62
     7
100
AcDbLine
 10
-0.1138220215
 20
-0.8734209841
 30
0.0
 11
-0.1128799981
 21
-0.8749584024
 31
0.0
  0
LINE
  5
4F9
330
1F
100
AcDbEntity
  8
0
  6
Continuous
 62
     7
100
AcDbLine
 10
-0.1128799981
 20
-0.8749584024
 30
0.0
 11
-0.1120546984
 21
-0.8768911457
 31
0.0
  0
LINE
  5
4FA
330
1F
100
AcDbEntity
  8
0
  6
Continuous
 62
     7
100
AcDbLine
 10
-0.1120546984
 20
-0.8768911457
 30
0.0
 11
-0.1113617245
 21
-0.8792149595
 31
0.0
  0
LINE
  5
4FB
330
1F
100
AcDbEntity
  8
0
  6
Continuous
 62
     7
100
AcDbLine
 10
-0.1113617245
 20
-0.8792149595
 30
0.0
 11
-0.1098827837
 21
-0.8861437329
 31
0.0
  0
LINE
  5
4FC
330
1F
100
AcDbEntity
  8
0
  6
Continuous
 62
     7
100
AcDbLine
 10
-0.1098827837
 20
-0.8861437329
 30
0.0
 11
-0.1084492795
 21
-0.892250613
 31
0.0
  0
LINE
  5
4FD
330
1F
100
AcDbEntity
  8
0
  6
Continuous
 62
     7
100
AcDbLine
 10
-0.1084492795
 20
-0.892250613
 30
0.0
 11
-0.1068065805
 21
-0.8986617393
 31
0.0
  0
LINE
  5
4FE
330
1F
100
AcDbEntity
  8
0
  6
Continuous
 62
     7
100
AcDbLine
 10
-0.1068065805
 20
-0.8986617393
 30
0.0
 11
-0.1049418008
 21
-0.9053710036
 31
0.0
  0
LINE
  5
4FF
330
1F
100
AcDbEntity
  8
0
  6
Continuous
 62
     7
100
AcDbLine
 10
-0.1049418008
 20
-0.9053710036
 30
0.0
 11
-0.1028422189
 21
-0.912371901
 31
0.0
  0
LINE
  5
500
330
1F
100
AcDbEntity
  8
0
  6
Continuous
 62
     7
100
AcDbLine
 10
-0.1028422189
 20
-0.912371901
 30
0.0
 11
-0.1004952885
 21
-0.9196575342
 31
0.0
  0
LINE
  5
501
330
1F
100
AcDbEntity
  8
0
  6
Continuous
 62
     7
100
AcDbLine
 10
-0.1004952885
 20
-0.9196575342
 30
0.0
 11
-0.0978886492
 21
-0.9272206183
 31
0.0
  0
LINE
  5
502
330
1F
100
AcDbEntity
  8
0
  6
Continuous
 62
     7
100
AcDbLine
 10
-0.0978886492
 20
-0.9272206183
 30
0.0
 11
-0.0950101371
 21
-0.935053484
 31
0.0
  0
LINE
  5
503
330
1F
100
AcDbEntity
  8
0
  6
Continuous
 62
     7
100
AcDbLine
 10
-0.0950101371
 20
-0.935053484
 30
0.0
 11
-0.0918477942
 21
-0.9431480874
 31
0.0
  0
LINE
  5
504
330
1F
100
AcDbEntity
  8
0
  6
Continuous
 62
     7
100
AcDbLine
 10
-0.0918477942
 20
-0.9431480874
 30
0.0
 11
-0.0883898814
 21
-0.9514960069
 31
0.0
  0
LINE
  5
505
330
1F
100
AcDbEntity
  8
0
  6
Continuous
 62
     7
100
AcDbLine
 10
-0.0883898814
 20
-0.9514960069
 30
0.0
 11
-0.0846248857
 21
-0.9600884567
 31
0.0
  0
LINE
  5
506
330
1F
100
AcDbEntity
  8
0
  6
Continuous
 62
     7
100
AcDbLine
 10
-0.0846248857
 20
-0.9600884567
 30
0.0
 11
-0.0805415317
 21
-0.968916289
 31
0.0
  0
LINE
  5
507
330
1F
100
AcDbEntity
  8
0
  6
Continuous
 62
     7
100
AcDbLine
 10
-0.0805415317
 20
-0.968916289
 30
0.0
 11
-0.0761287915
 21
-0.9779700004
 31
0.0
  0
LINE
  5
508
330
1F
100
AcDbEntity
  8
0
  6
Continuous
 62
     7
100
AcDbLine
 10
-0.0761287915
 20
-0.9779700004
 30
0.0
 11
-0.0713758941
 21
-0.9872397384
 31
0.0
  0
LINE
  5
509
330
1F
100
AcDbEntity
  8
0
  6
Continuous
 62
     7
100
AcDbLine
 10
-0.0713758941
 20
-0.9872397384
 30
0.0
 11
-0.0662723349
 21
-0.996715308
 31
0.0
  0
LINE
  5
50A
330
1F
100
AcDbEntity
  8
0
  6
Continuous
 62
     7
100
AcDbLine
 10
-0.0662723349
 20
-0.996715308
 30
0.0
 11
-0.0661864848
 21
-0.9968672439
 31
0.0
  0
LINE
  5
50B
330
1F
100
AcDbEntity
  8
0
  6
Continuous
 62
     7
100
AcDbLine
 10
-0.0661864848
 20
-0.9968672439
 30
0.0
 11
-0.0506758888
 21
-0.9992433798
 31
0.0
  0
LINE
  5
50C
330
1F
100
AcDbEntity
  8
0
  6
Continuous
 62
     7
100
AcDbLine
 10
-0.0506758888
 20
-0.9992433798
 30
0.0
 11
-0.035004483
 21
-0.9984486161
 31
0.0
  0
LINE
  5
50D
330
1F
100
AcDbEntity
  8
0
  6
Continuous
 62
     7
100
AcDbLine
 10
-0.035004483
 20
-0.9984486161
 30
0.0
 11
-0.0349037022
 21
-0.998306145
 31
0.0
  0
LINE
  5
50E
330
1F
100
AcDbEntity
  8
0
  6
Continuous
 62
     7
100
AcDbLine
 10
-0.0349037022
 20
-0.998306145
 30
0.0
 11
-0.0288677003
 21
-0.98939551
 31
0.0
  0
LINE
  5
50F
330
1F
100
AcDbEntity
  8
0
  6
Continuous
 62
     7
100
AcDbLine
 10
-0.0288677003
 20
-0.98939551
 30
0.0
 11
-0.0232013846
 21
-0.9806541747
 31
0.0
  0
LINE
  5
510
330
1F
100
AcDbEntity
  8
0
  6
Continuous
 62
     7
100
AcDbLine
 10
-0.0232013846
 20
-0.9806541747
 30
0.0
 11
-0.0178953359
 21
-0.9720933445
 31
0.0
  0
LINE
  5
511
330
1F
100
AcDbEntity
  8
0
  6
Continuous
 62
     7
100
AcDbLine
 10
-0.0178953359
 20
-0.9720933445
 30
0.0
 11
-0.0129398354
 21
-0.963723911
 31
0.0
  0
LINE
  5
512
330
1F
100
AcDbEntity
  8
0
  6
Continuous
 62
     7
100
AcDbLine
 10
-0.0129398354
 20
-0.963723911
 30
0.0
 11
-0.0083248729
 21
-0.9555564445
 31
0.0
  0
LINE
  5
513
330
1F
100
AcDbEntity
  8
0
  6
Continuous
 62
     7
100
AcDbLine
 10
-0.0083248729
 20
-0.9555564445
 30
0.0
 11
-0.0040401565
 21
-0.9476011868
 31
0.0
  0
LINE
  5
514
330
1F
100
AcDbEntity
  8
0
  6
Continuous
 62
     7
100
AcDbLine
 10
-0.0040401565
 20
-0.9476011868
 30
0.0
 11
-0.0000751216
 21
-0.9398680438
 31
0.0
  0
LINE
  5
515
330
1F
100
AcDbEntity
  8
0
  6
Continuous
 62
     7
100
AcDbLine
 10
-0.0000751216
 20
-0.9398680438
 30
0.0
 11
0.0035810601
 21
-0.9323665795
 31
0.0
  0
LINE
  5
516
330
1F
100
AcDbEntity
  8
0
  6
Continuous
 62
     7
100
AcDbLine
 10
0.0035810601
 20
-0.9323665795
 30
0.0
 11
0.0069394702
 21
-0.9251060085
 31
0.0
  0
LINE
  5
517
330
1F
100
AcDbEntity
  8
0
  6
Continuous
 62
     7
100
AcDbLine
 10
0.0069394702
 20
-0.9251060085
 30
0.0
 11
0.0100114345
 21
-0.9180951905
 31
0.0
  0
LINE
  5
518
330
1F
100
AcDbEntity
  8
0
  6
Continuous
 62
     7
100
AcDbLine
 10
0.0100114345
 20
-0.9180951905
 30
0.0
 11
0.0128085132
 21
-0.9113426236
 31
0.0
  0
LINE
  5
519
330
1F
100
AcDbEntity
  8
0
  6
Continuous
 62
     7
100
AcDbLine
 10
0.0128085132
 20
-0.9113426236
 30
0.0
 11
0.0153424903
 21
-0.9048564391
 31
0.0
  0
LINE
  5
51A
330
1F
100
AcDbEntity
  8
0
  6
Continuous
 62
     7
100
AcDbLine
 10
0.0153424903
 20
-0.9048564391
 30
0.0
 11
0.0176251129
 21
-0.8986451237
 31
0.0
  0
LINE
  5
51B
330
1F
100
AcDbEntity
  8
0
  6
Continuous
 62
     7
100
AcDbLine
 10
0.0176251129
 20
-0.8986451237
 30
0.0
 11
0.0196692761
 21
-0.8927140593
 31
0.0
  0
LINE
  5
51C
330
1F
100
AcDbEntity
  8
0
  6
Continuous
 62
     7
100
AcDbLine
 10
0.0196692761
 20
-0.8927140593
 30
0.0
 11
0.0218416614
 21
-0.8859702707
 31
0.0
  0
LINE
  5
51D
330
1F
100
AcDbEntity
  8
0
  6
Continuous
 62
     7
100
AcDbLine
 10
0.0218416614
 20
-0.8859702707
 30
0.0
 11
0.0227661857
 21
-0.8837284899
 31
0.0
  0
LINE
  5
51E
330
1F
100
AcDbEntity
  8
0
  6
Continuous
 62
     7
100
AcDbLine
 10
0.0227661857
 20
-0.8837284899
 30
0.0
 11
0.0237828281
 21
-0.8818891737
 31
0.0
  0
LINE
  5
51F
330
1F
100
AcDbEntity
  8
0
  6
Continuous
 62
     7
100
AcDbLine
 10
0.0237828281
 20
-0.8818891737
 30
0.0
 11
0.0248755021
 21
-0.8804549264
 31
0.0
  0
LINE
  5
520
330
1F
100
AcDbEntity
  8
0
  6
Continuous
 62
     7
100
AcDbLine
 10
0.0248755021
 20
-0.8804549264
 30
0.0
 11
0.0260283419
 21
-0.8794279769
 31
0.0
  0
LINE
  5
521
330
1F
100
AcDbEntity
  8
0
  6
Continuous
 62
     7
100
AcDbLine
 10
0.0260283419
 20
-0.8794279769
 30
0.0
 11
0.0272252206
 21
-0.8788099946
 31
0.0
  0
LINE
  5
522
330
1F
100
AcDbEntity
  8
0
  6
Continuous
 62
     7
100
AcDbLine
 10
0.0272252206
 20
-0.8788099946
 30
0.0
 11
0.0284500253
 21
-0.8786021844
 31
0.0
  0
LINE
  5
523
330
1F
100
AcDbEntity
  8
0
  6
Continuous
 62
     7
100
AcDbLine
 10
0.0284500253
 20
-0.8786021844
 30
0.0
 11
0.0356262843
 21
-0.8783839409
 31
0.0
  0
LINE
  5
524
330
1F
100
AcDbEntity
  8
0
  6
Continuous
 62
     7
100
AcDbLine
 10
0.0356262843
 20
-0.8783839409
 30
0.0
 11
0.053421132
 21
-0.8774814884
 31
0.0
  0
LINE
  5
525
330
1F
100
AcDbEntity
  8
0
  6
Continuous
 62
     7
100
AcDbLine
 10
0.053421132
 20
-0.8774814884
 30
0.0
 11
0.0605826513
 21
-0.8769726021
 31
0.0
  0
LINE
  5
526
330
1F
100
AcDbEntity
  8
0
  6
Continuous
 62
     7
100
AcDbLine
 10
0.0605826513
 20
-0.8769726021
 30
0.0
 11
0.0618221957
 21
-0.8770554346
 31
0.0
  0
LINE
  5
527
330
1F
100
AcDbEntity
  8
0
  6
Continuous
 62
     7
100
AcDbLine
 10
0.0618221957
 20
-0.8770554346
 30
0.0
 11
0.0630754539
 21
-0.8775491601
 31
0.0
  0
LINE
  5
528
330
1F
100
AcDbEntity
  8
0
  6
Continuous
 62
     7
100
AcDbLine
 10
0.0630754539
 20
-0.8775491601
 30
0.0
 11
0.0643262735
 21
-0.8784542097
 31
0.0
  0
LINE
  5
529
330
1F
100
AcDbEntity
  8
0
  6
Continuous
 62
     7
100
AcDbLine
 10
0.0643262735
 20
-0.8784542097
 30
0.0
 11
0.0655584937
 21
-0.8797705291
 31
0.0
  0
LINE
  5
52A
330
1F
100
AcDbEntity
  8
0
  6
Continuous
 62
     7
100
AcDbLine
 10
0.0655584937
 20
-0.8797705291
 30
0.0
 11
0.0667559577
 21
-0.8814975774
 31
0.0
  0
LINE
  5
52B
330
1F
100
AcDbEntity
  8
0
  6
Continuous
 62
     7
100
AcDbLine
 10
0.0667559577
 20
-0.8814975774
 30
0.0
 11
0.0679025267
 21
-0.883634328
 31
0.0
  0
LINE
  5
52C
330
1F
100
AcDbEntity
  8
0
  6
Continuous
 62
     7
100
AcDbLine
 10
0.0679025267
 20
-0.883634328
 30
0.0
 11
0.0707459453
 21
-0.8901235604
 31
0.0
  0
LINE
  5
52D
330
1F
100
AcDbEntity
  8
0
  6
Continuous
 62
     7
100
AcDbLine
 10
0.0707459453
 20
-0.8901235604
 30
0.0
 11
0.0733794116
 21
-0.89581687
 31
0.0
  0
LINE
  5
52E
330
1F
100
AcDbEntity
  8
0
  6
Continuous
 62
     7
100
AcDbLine
 10
0.0733794116
 20
-0.89581687
 30
0.0
 11
0.0762790346
 21
-0.9017660873
 31
0.0
  0
LINE
  5
52F
330
1F
100
AcDbEntity
  8
0
  6
Continuous
 62
     7
100
AcDbLine
 10
0.0762790346
 20
-0.9017660873
 30
0.0
 11
0.0794562071
 21
-0.9079626351
 31
0.0
  0
LINE
  5
530
330
1F
100
AcDbEntity
  8
0
  6
Continuous
 62
     7
100
AcDbLine
 10
0.0794562071
 20
-0.9079626351
 30
0.0
 11
0.0829220808
 21
-0.914397581
 31
0.0
  0
LINE
  5
531
330
1F
100
AcDbEntity
  8
0
  6
Continuous
 62
     7
100
AcDbLine
 10
0.0829220808
 20
-0.914397581
 30
0.0
 11
0.0866875566
 21
-0.9210616433
 31
0.0
  0
LINE
  5
532
330
1F
100
AcDbEntity
  8
0
  6
Continuous
 62
     7
100
AcDbLine
 10
0.0866875566
 20
-0.9210616433
 30
0.0
 11
0.0907632754
 21
-0.927945198
 31
0.0
  0
LINE
  5
533
330
1F
100
AcDbEntity
  8
0
  6
Continuous
 62
     7
100
AcDbLine
 10
0.0907632754
 20
-0.927945198
 30
0.0
 11
0.0951596085
 21
-0.9350382842
 31
0.0
  0
LINE
  5
534
330
1F
100
AcDbEntity
  8
0
  6
Continuous
 62
     7
100
AcDbLine
 10
0.0951596085
 20
-0.9350382842
 30
0.0
 11
0.0998866498
 21
-0.9423306157
 31
0.0
  0
LINE
  5
535
330
1F
100
AcDbEntity
  8
0
  6
Continuous
 62
     7
100
AcDbLine
 10
0.0998866498
 20
-0.9423306157
 30
0.0
 11
0.1049542027
 21
-0.94981158
 31
0.0
  0
LINE
  5
536
330
1F
100
AcDbEntity
  8
0
  6
Continuous
 62
     7
100
AcDbLine
 10
0.1049542027
 20
-0.94981158
 30
0.0
 11
0.1103717762
 21
-0.9574702539
 31
0.0
  0
LINE
  5
537
330
1F
100
AcDbEntity
  8
0
  6
Continuous
 62
     7
100
AcDbLine
 10
0.1103717762
 20
-0.9574702539
 30
0.0
 11
0.1161485732
 21
-0.9652954068
 31
0.0
  0
LINE
  5
538
330
1F
100
AcDbEntity
  8
0
  6
Continuous
 62
     7
100
AcDbLine
 10
0.1161485732
 20
-0.9652954068
 30
0.0
 11
0.1222934831
 21
-0.9732755101
 31
0.0
  0
LINE
  5
539
330
1F
100
AcDbEntity
  8
0
  6
Continuous
 62
     7
100
AcDbLine
 10
0.1222934831
 20
-0.9732755101
 30
0.0
 11
0.128815073
 21
-0.9813987448
 31
0.0
  0
LINE
  5
53A
330
1F
100
AcDbEntity
  8
0
  6
Continuous
 62
     7
100
AcDbLine
 10
0.128815073
 20
-0.9813987448
 30
0.0
 11
0.1357215801
 21
-0.9896530101
 31
0.0
  0
LINE
  5
53B
330
1F
100
AcDbEntity
  8
0
  6
Continuous
 62
     7
100
AcDbLine
 10
0.1357215801
 20
-0.9896530101
 30
0.0
 11
0.1358362574
 21
-0.9897845543
 31
0.0
  0
LINE
  5
53C
330
1F
100
AcDbEntity
  8
0
  6
Continuous
 62
     7
100
AcDbLine
 10
0.1358362574
 20
-0.9897845543
 30
0.0
 11
0.1515076632
 21
-0.9889897905
 31
0.0
  0
LINE
  5
53D
330
1F
100
AcDbEntity
  8
0
  6
Continuous
 62
     7
100
AcDbLine
 10
0.1515076632
 20
-0.9889897905
 30
0.0
 11
0.1666982896
 21
-0.9850566649
 31
0.0
  0
LINE
  5
53E
330
1F
100
AcDbEntity
  8
0
  6
Continuous
 62
     7
100
AcDbLine
 10
0.1666982896
 20
-0.9850566649
 30
0.0
 11
0.1667683282
 21
-0.9848968232
 31
0.0
  0
LINE
  5
53F
330
1F
100
AcDbEntity
  8
0
  6
Continuous
 62
     7
100
AcDbLine
 10
0.1667683282
 20
-0.9848968232
 30
0.0
 11
0.1708870752
 21
-0.9749535511
 31
0.0
  0
LINE
  5
540
330
1F
100
AcDbEntity
  8
0
  6
Continuous
 62
     7
100
AcDbLine
 10
0.1708870752
 20
-0.9749535511
 30
0.0
 11
0.1746777832
 21
-0.9652505305
 31
0.0
  0
LINE
  5
541
330
1F
100
AcDbEntity
  8
0
  6
Continuous
 62
     7
100
AcDbLine
 10
0.1746777832
 20
-0.9652505305
 30
0.0
 11
0.1781519343
 21
-0.9557968413
 31
0.0
  0
LINE
  5
542
330
1F
100
AcDbEntity
  8
0
  6
Continuous
 62
     7
100
AcDbLine
 10
0.1781519343
 20
-0.9557968413
 30
0.0
 11
0.1813212409
 21
-0.9466011957
 31
0.0
  0
LINE
  5
543
330
1F
100
AcDbEntity
  8
0
  6
Continuous
 62
     7
100
AcDbLine
 10
0.1813212409
 20
-0.9466011957
 30
0.0
 11
0.1841976359
 21
-0.9376719326
 31
0.0
  0
LINE
  5
544
330
1F
100
AcDbEntity
  8
0
  6
Continuous
 62
     7
100
AcDbLine
 10
0.1841976359
 20
-0.9376719326
 30
0.0
 11
0.1867932622
 21
-0.9290170123
 31
0.0
  0
LINE
  5
545
330
1F
100
AcDbEntity
  8
0
  6
Continuous
 62
     7
100
AcDbLine
 10
0.1867932622
 20
-0.9290170123
 30
0.0
 11
0.1891204625
 21
-0.9206440116
 31
0.0
  0
LINE
  5
546
330
1F
100
AcDbEntity
  8
0
  6
Continuous
 62
     7
100
AcDbLine
 10
0.1891204625
 20
-0.9206440116
 30
0.0
 11
0.1911917682
 21
-0.9125601188
 31
0.0
  0
LINE
  5
547
330
1F
100
AcDbEntity
  8
0
  6
Continuous
 62
     7
100
AcDbLine
 10
0.1911917682
 20
-0.9125601188
 30
0.0
 11
0.1930198892
 21
-0.9047721291
 31
0.0
  0
LINE
  5
548
330
1F
100
AcDbEntity
  8
0
  6
Continuous
 62
     7
100
AcDbLine
 10
0.1930198892
 20
-0.9047721291
 30
0.0
 11
0.194617703
 21
-0.8972864411
 31
0.0
  0
LINE
  5
549
330
1F
100
AcDbEntity
  8
0
  6
Continuous
 62
     7
100
AcDbLine
 10
0.194617703
 20
-0.8972864411
 30
0.0
 11
0.1959982436
 21
-0.8901090518
 31
0.0
  0
LINE
  5
54A
330
1F
100
AcDbEntity
  8
0
  6
Continuous
 62
     7
100
AcDbLine
 10
0.1959982436
 20
-0.8901090518
 30
0.0
 11
0.1971746907
 21
-0.883245554
 31
0.0
  0
LINE
  5
54B
330
1F
100
AcDbEntity
  8
0
  6
Continuous
 62
     7
100
AcDbLine
 10
0.1971746907
 20
-0.883245554
 30
0.0
 11
0.1981602593
 21
-0.8767018961
 31
0.0
  0
LINE
  5
54C
330
1F
100
AcDbEntity
  8
0
  6
Continuous
 62
     7
100
AcDbLine
 10
0.1981602593
 20
-0.8767018961
 30
0.0
 11
0.1989686639
 21
-0.8704807539
 31
0.0
  0
LINE
  5
54D
330
1F
100
AcDbEntity
  8
0
  6
Continuous
 62
     7
100
AcDbLine
 10
0.1989686639
 20
-0.8704807539
 30
0.0
 11
0.1997390656
 21
-0.8634377131
 31
0.0
  0
LINE
  5
54E
330
1F
100
AcDbEntity
  8
0
  6
Continuous
 62
     7
100
AcDbLine
 10
0.1997390656
 20
-0.8634377131
 30
0.0
 11
0.2001933977
 21
-0.8610557163
 31
0.0
  0
LINE
  5
54F
330
1F
100
AcDbEntity
  8
0
  6
Continuous
 62
     7
100
AcDbLine
 10
0.2001933977
 20
-0.8610557163
 30
0.0
 11
0.2008189778
 21
-0.8590494024
 31
0.0
  0
LINE
  5
550
330
1F
100
AcDbEntity
  8
0
  6
Continuous
 62
     7
100
AcDbLine
 10
0.2008189778
 20
-0.8590494024
 30
0.0
 11
0.2016005728
 21
-0.8574245606
 31
0.0
  0
LINE
  5
551
330
1F
100
AcDbEntity
  8
0
  6
Continuous
 62
     7
100
AcDbLine
 10
0.2016005728
 20
-0.8574245606
 30
0.0
 11
0.2025230904
 21
-0.8561865679
 31
0.0
  0
LINE
  5
552
330
1F
100
AcDbEntity
  8
0
  6
Continuous
 62
     7
100
AcDbLine
 10
0.2025230904
 20
-0.8561865679
 30
0.0
 11
0.2035710701
 21
-0.8553403058
 31
0.0
  0
LINE
  5
553
330
1F
100
AcDbEntity
  8
0
  6
Continuous
 62
     7
100
AcDbLine
 10
0.2035710701
 20
-0.8553403058
 30
0.0
 11
0.2047289711
 21
-0.8548901981
 31
0.0
  0
LINE
  5
554
330
1F
100
AcDbEntity
  8
0
  6
Continuous
 62
     7
100
AcDbLine
 10
0.2047289711
 20
-0.8548901981
 30
0.0
 11
0.2117143996
 21
-0.8532318517
 31
0.0
  0
LINE
  5
555
330
1F
100
AcDbEntity
  8
0
  6
Continuous
 62
     7
100
AcDbLine
 10
0.2117143996
 20
-0.8532318517
 30
0.0
 11
0.2289633233
 21
-0.8487657959
 31
0.0
  0
LINE
  5
556
330
1F
100
AcDbEntity
  8
0
  6
Continuous
 62
     7
100
AcDbLine
 10
0.2289633233
 20
-0.8487657959
 30
0.0
 11
0.2358758078
 21
-0.8468257233
 31
0.0
  0
LINE
  5
557
330
1F
100
AcDbEntity
  8
0
  6
Continuous
 62
     7
100
AcDbLine
 10
0.2358758078
 20
-0.8468257233
 30
0.0
 11
0.2371066528
 21
-0.8466573419
 31
0.0
  0
LINE
  5
558
330
1F
100
AcDbEntity
  8
0
  6
Continuous
 62
     7
100
AcDbLine
 10
0.2371066528
 20
-0.8466573419
 30
0.0
 11
0.2384336429
 21
-0.8468886817
 31
0.0
  0
LINE
  5
559
330
1F
100
AcDbEntity
  8
0
  6
Continuous
 62
     7
100
AcDbLine
 10
0.2384336429
 20
-0.8468886817
 30
0.0
 11
0.2398410433
 21
-0.8475234168
 31
0.0
  0
LINE
  5
55A
330
1F
100
AcDbEntity
  8
0
  6
Continuous
 62
     7
100
AcDbLine
 10
0.2398410433
 20
-0.8475234168
 30
0.0
 11
0.241313013
 21
-0.8485647469
 31
0.0
  0
LINE
  5
55B
330
1F
100
AcDbEntity
  8
0
  6
Continuous
 62
     7
100
AcDbLine
 10
0.241313013
 20
-0.8485647469
 30
0.0
 11
0.2428336171
 21
-0.8500153947
 31
0.0
  0
LINE
  5
55C
330
1F
100
AcDbEntity
  8
0
  6
Continuous
 62
     7
100
AcDbLine
 10
0.2428336171
 20
-0.8500153947
 30
0.0
 11
0.2443868405
 21
-0.8518776032
 31
0.0
  0
LINE
  5
55D
330
1F
100
AcDbEntity
  8
0
  6
Continuous
 62
     7
100
AcDbLine
 10
0.2443868405
 20
-0.8518776032
 30
0.0
 11
0.2484783271
 21
-0.8576616247
 31
0.0
  0
LINE
  5
55E
330
1F
100
AcDbEntity
  8
0
  6
Continuous
 62
     7
100
AcDbLine
 10
0.2484783271
 20
-0.8576616247
 30
0.0
 11
0.2522039409
 21
-0.8627082791
 31
0.0
  0
LINE
  5
55F
330
1F
100
AcDbEntity
  8
0
  6
Continuous
 62
     7
100
AcDbLine
 10
0.2522039409
 20
-0.8627082791
 30
0.0
 11
0.2562417772
 21
-0.8679520257
 31
0.0
  0
LINE
  5
560
330
1F
100
AcDbEntity
  8
0
  6
Continuous
 62
     7
100
AcDbLine
 10
0.2562417772
 20
-0.8679520257
 30
0.0
 11
0.2606012687
 21
-0.8733821698
 31
0.0
  0
LINE
  5
561
330
1F
100
AcDbEntity
  8
0
  6
Continuous
 62
     7
100
AcDbLine
 10
0.2606012687
 20
-0.8733821698
 30
0.0
 11
0.2652915407
 21
-0.8789877167
 31
0.0
  0
LINE
  5
562
330
1F
100
AcDbEntity
  8
0
  6
Continuous
 62
     7
100
AcDbLine
 10
0.2652915407
 20
-0.8789877167
 30
0.0
 11
0.2703214029
 21
-0.8847573805
 31
0.0
  0
LINE
  5
563
330
1F
100
AcDbEntity
  8
0
  6
Continuous
 62
     7
100
AcDbLine
 10
0.2703214029
 20
-0.8847573805
 30
0.0
 11
0.2756993409
 21
-0.8906795923
 31
0.0
  0
LINE
  5
564
330
1F
100
AcDbEntity
  8
0
  6
Continuous
 62
     7
100
AcDbLine
 10
0.2756993409
 20
-0.8906795923
 30
0.0
 11
0.2814335086
 21
-0.8967425072
 31
0.0
  0
LINE
  5
565
330
1F
100
AcDbEntity
  8
0
  6
Continuous
 62
     7
100
AcDbLine
 10
0.2814335086
 20
-0.8967425072
 30
0.0
 11
0.2875317226
 21
-0.9029340178
 31
0.0
  0
LINE
  5
566
330
1F
100
AcDbEntity
  8
0
  6
Continuous
 62
     7
100
AcDbLine
 10
0.2875317226
 20
-0.9029340178
 30
0.0
 11
0.2940014495
 21
-0.9092417555
 31
0.0
  0
LINE
  5
567
330
1F
100
AcDbEntity
  8
0
  6
Continuous
 62
     7
100
AcDbLine
 10
0.2940014495
 20
-0.9092417555
 30
0.0
 11
0.3008498046
 21
-0.9156531063
 31
0.0
  0
LINE
  5
568
330
1F
100
AcDbEntity
  8
0
  6
Continuous
 62
     7
100
AcDbLine
 10
0.3008498046
 20
-0.9156531063
 30
0.0
 11
0.3080835419
 21
-0.9221552172
 31
0.0
  0
LINE
  5
569
330
1F
100
AcDbEntity
  8
0
  6
Continuous
 62
     7
100
AcDbLine
 10
0.3080835419
 20
-0.9221552172
 30
0.0
 11
0.3157090481
 21
-0.9287350061
 31
0.0
  0
LINE
  5
56A
330
1F
100
AcDbEntity
  8
0
  6
Continuous
 62
     7
100
AcDbLine
 10
0.3157090481
 20
-0.9287350061
 30
0.0
 11
0.3237323358
 21
-0.9353791713
 31
0.0
  0
LINE
  5
56B
330
1F
100
AcDbEntity
  8
0
  6
Continuous
 62
     7
100
AcDbLine
 10
0.3237323358
 20
-0.9353791713
 30
0.0
 11
0.3321590377
 21
-0.9420742016
 31
0.0
  0
LINE
  5
56C
330
1F
100
AcDbEntity
  8
0
  6
Continuous
 62
     7
100
AcDbLine
 10
0.3321590377
 20
-0.9420742016
 30
0.0
 11
0.3322978472
 21
-0.9421799687
 31
0.0
  0
LINE
  5
56D
330
1F
100
AcDbEntity
  8
0
  6
Continuous
 62
     7
100
AcDbLine
 10
0.3322978472
 20
-0.9421799687
 30
0.0
 11
0.3474884736
 21
-0.938246843
 31
0.0
  0
LINE
  5
56E
330
1F
100
AcDbEntity
  8
0
  6
Continuous
 62
     7
100
AcDbLine
 10
0.3474884736
 20
-0.938246843
 30
0.0
 11
0.3615764147
 21
-0.9313363781
 31
0.0
  0
LINE
  5
56F
330
1F
100
AcDbEntity
  8
0
  6
Continuous
 62
     7
100
AcDbLine
 10
0.3615764147
 20
-0.9313363781
 30
0.0
 11
0.3616128437
 21
-0.9311657097
 31
0.0
  0
LINE
  5
570
330
1F
100
AcDbEntity
  8
0
  6
Continuous
 62
     7
100
AcDbLine
 10
0.3616128437
 20
-0.9311657097
 30
0.0
 11
0.3636457137
 21
-0.9205968793
 31
0.0
  0
LINE
  5
571
330
1F
100
AcDbEntity
  8
0
  6
Continuous
 62
     7
100
AcDbLine
 10
0.3636457137
 20
-0.9205968793
 30
0.0
 11
0.365405622
 21
-0.9103294162
 31
0.0
  0
LINE
  5
572
330
1F
100
AcDbEntity
  8
0
  6
Continuous
 62
     7
100
AcDbLine
 10
0.365405622
 20
-0.9103294162
 30
0.0
 11
0.3669056434
 21
-0.9003699031
 31
0.0
  0
LINE
  5
573
330
1F
100
AcDbEntity
  8
0
  6
Continuous
 62
     7
100
AcDbLine
 10
0.3669056434
 20
-0.9003699031
 30
0.0
 11
0.3681590042
 21
-0.8907245161
 31
0.0
  0
LINE
  5
574
330
1F
100
AcDbEntity
  8
0
  6
Continuous
 62
     7
100
AcDbLine
 10
0.3681590042
 20
-0.8907245161
 30
0.0
 11
0.3691790718
 21
-0.8813990215
 31
0.0
  0
LINE
  5
575
330
1F
100
AcDbEntity
  8
0
  6
Continuous
 62
     7
100
AcDbLine
 10
0.3691790718
 20
-0.8813990215
 30
0.0
 11
0.3699793429
 21
-0.8723987723
 31
0.0
  0
LINE
  5
576
330
1F
100
AcDbEntity
  8
0
  6
Continuous
 62
     7
100
AcDbLine
 10
0.3699793429
 20
-0.8723987723
 30
0.0
 11
0.3705734326
 21
-0.8637287054
 31
0.0
  0
LINE
  5
577
330
1F
100
AcDbEntity
  8
0
  6
Continuous
 62
     7
100
AcDbLine
 10
0.3705734326
 20
-0.8637287054
 30
0.0
 11
0.3709750629
 21
-0.8553933395
 31
0.0
  0
LINE
  5
578
330
1F
100
AcDbEntity
  8
0
  6
Continuous
 62
     7
100
AcDbLine
 10
0.3709750629
 20
-0.8553933395
 30
0.0
 11
0.3711980514
 21
-0.8473967724
 31
0.0
  0
LINE
  5
579
330
1F
100
AcDbEntity
  8
0
  6
Continuous
 62
     7
100
AcDbLine
 10
0.3711980514
 20
-0.8473967724
 30
0.0
 11
0.3712562999
 21
-0.8397426793
 31
0.0
  0
LINE
  5
57A
330
1F
100
AcDbEntity
  8
0
  6
Continuous
 62
     7
100
AcDbLine
 10
0.3712562999
 20
-0.8397426793
 30
0.0
 11
0.3711637829
 21
-0.8324343109
 31
0.0
  0
LINE
  5
57B
330
1F
100
AcDbEntity
  8
0
  6
Continuous
 62
     7
100
AcDbLine
 10
0.3711637829
 20
-0.8324343109
 30
0.0
 11
0.3709345361
 21
-0.8254744922
 31
0.0
  0
LINE
  5
57C
330
1F
100
AcDbEntity
  8
0
  6
Continuous
 62
     7
100
AcDbLine
 10
0.3709345361
 20
-0.8254744922
 30
0.0
 11
0.3705827014
 21
-0.8188663898
 31
0.0
  0
LINE
  5
57D
330
1F
100
AcDbEntity
  8
0
  6
Continuous
 62
     7
100
AcDbLine
 10
0.3705827014
 20
-0.8188663898
 30
0.0
 11
0.3701222512
 21
-0.8126098642
 31
0.0
  0
LINE
  5
57E
330
1F
100
AcDbEntity
  8
0
  6
Continuous
 62
     7
100
AcDbLine
 10
0.3701222512
 20
-0.8126098642
 30
0.0
 11
0.3694591291
 21
-0.805555914
 31
0.0
  0
LINE
  5
57F
330
1F
100
AcDbEntity
  8
0
  6
Continuous
 62
     7
100
AcDbLine
 10
0.3694591291
 20
-0.805555914
 30
0.0
 11
0.3694246685
 21
-0.8031312205
 31
0.0
  0
LINE
  5
580
330
1F
100
AcDbEntity
  8
0
  6
Continuous
 62
     7
100
AcDbLine
 10
0.3694246685
 20
-0.8031312205
 30
0.0
 11
0.3696335749
 21
-0.8010400477
 31
0.0
  0
LINE
  5
581
330
1F
100
AcDbEntity
  8
0
  6
Continuous
 62
     7
100
AcDbLine
 10
0.3696335749
 20
-0.8010400477
 30
0.0
 11
0.3700720924
 21
-0.7992911325
 31
0.0
  0
LINE
  5
582
330
1F
100
AcDbEntity
  8
0
  6
Continuous
 62
     7
100
AcDbLine
 10
0.3700720924
 20
-0.7992911325
 30
0.0
 11
0.3707265199
 21
-0.7978927802
 31
0.0
  0
LINE
  5
583
330
1F
100
AcDbEntity
  8
0
  6
Continuous
 62
     7
100
AcDbLine
 10
0.3707265199
 20
-0.7978927802
 30
0.0
 11
0.3715826961
 21
-0.7968528844
 31
0.0
  0
LINE
  5
584
330
1F
100
AcDbEntity
  8
0
  6
Continuous
 62
     7
100
AcDbLine
 10
0.3715826961
 20
-0.7968528844
 30
0.0
 11
0.3726262887
 21
-0.7961789067
 31
0.0
  0
LINE
  5
585
330
1F
100
AcDbEntity
  8
0
  6
Continuous
 62
     7
100
AcDbLine
 10
0.3726262887
 20
-0.7961789067
 30
0.0
 11
0.3791349024
 21
-0.7931483503
 31
0.0
  0
LINE
  5
586
330
1F
100
AcDbEntity
  8
0
  6
Continuous
 62
     7
100
AcDbLine
 10
0.3791349024
 20
-0.7931483503
 30
0.0
 11
0.3951317292
 21
-0.7853015321
 31
0.0
  0
LINE
  5
587
330
1F
100
AcDbEntity
  8
0
  6
Continuous
 62
     7
100
AcDbLine
 10
0.3951317292
 20
-0.7853015321
 30
0.0
 11
0.4015121811
 21
-0.7820097
 31
0.0
  0
LINE
  5
588
330
1F
100
AcDbEntity
  8
0
  6
Continuous
 62
     7
100
AcDbLine
 10
0.4015121811
 20
-0.7820097
 30
0.0
 11
0.4026839356
 21
-0.781596998
 31
0.0
  0
LINE
  5
589
330
1F
100
AcDbEntity
  8
0
  6
Continuous
 62
     7
100
AcDbLine
 10
0.4026839356
 20
-0.781596998
 30
0.0
 11
0.4040303305
 21
-0.7815564812
 31
0.0
  0
LINE
  5
58A
330
1F
100
AcDbEntity
  8
0
  6
Continuous
 62
     7
100
AcDbLine
 10
0.4040303305
 20
-0.7815564812
 30
0.0
 11
0.4055366926
 21
-0.7818949156
 31
0.0
  0
LINE
  5
58B
330
1F
100
AcDbEntity
  8
0
  6
Continuous
 62
     7
100
AcDbLine
 10
0.4055366926
 20
-0.7818949156
 30
0.0
 11
0.4071881492
 21
-0.7826186243
 31
0.0
  0
LINE
  5
58C
330
1F
100
AcDbEntity
  8
0
  6
Continuous
 62
     7
100
AcDbLine
 10
0.4071881492
 20
-0.7826186243
 30
0.0
 11
0.4089696397
 21
-0.7837334819
 31
0.0
  0
LINE
  5
58D
330
1F
100
AcDbEntity
  8
0
  6
Continuous
 62
     7
100
AcDbLine
 10
0.4089696397
 20
-0.7837334819
 30
0.0
 11
0.4108659284
 21
-0.7852449093
 31
0.0
  0
LINE
  5
58E
330
1F
100
AcDbEntity
  8
0
  6
Continuous
 62
     7
100
AcDbLine
 10
0.4108659284
 20
-0.7852449093
 30
0.0
 11
0.4160379769
 21
-0.7900869213
 31
0.0
  0
LINE
  5
58F
330
1F
100
AcDbEntity
  8
0
  6
Continuous
 62
     7
100
AcDbLine
 10
0.4160379769
 20
-0.7900869213
 30
0.0
 11
0.4207032113
 21
-0.7942803099
 31
0.0
  0
LINE
  5
590
330
1F
100
AcDbEntity
  8
0
  6
Continuous
 62
     7
100
AcDbLine
 10
0.4207032113
 20
-0.7942803099
 30
0.0
 11
0.4257139512
 21
-0.7986039062
 31
0.0
  0
LINE
  5
591
330
1F
100
AcDbEntity
  8
0
  6
Continuous
 62
     7
100
AcDbLine
 10
0.4257139512
 20
-0.7986039062
 30
0.0
 11
0.4310772836
 21
-0.8030453357
 31
0.0
  0
LINE
  5
592
330
1F
100
AcDbEntity
  8
0
  6
Continuous
 62
     7
100
AcDbLine
 10
0.4310772836
 20
-0.8030453357
 30
0.0
 11
0.4367999338
 21
-0.807591992
 31
0.0
  0
LINE
  5
593
330
1F
100
AcDbEntity
  8
0
  6
Continuous
 62
     7
100
AcDbLine
 10
0.4367999338
 20
-0.807591992
 30
0.0
 11
0.4428882592
 21
-0.8122310466
 31
0.0
  0
LINE
  5
594
330
1F
100
AcDbEntity
  8
0
  6
Continuous
 62
     7
100
AcDbLine
 10
0.4428882592
 20
-0.8122310466
 30
0.0
 11
0.449348243
 21
-0.8169494594
 31
0.0
  0
LINE
  5
595
330
1F
100
AcDbEntity
  8
0
  6
Continuous
 62
     7
100
AcDbLine
 10
0.449348243
 20
-0.8169494594
 30
0.0
 11
0.4561854877
 21
-0.8217339866
 31
0.0
  0
LINE
  5
596
330
1F
100
AcDbEntity
  8
0
  6
Continuous
 62
     7
100
AcDbLine
 10
0.4561854877
 20
-0.8217339866
 30
0.0
 11
0.4634052128
 21
-0.8265711952
 31
0.0
  0
LINE
  5
597
330
1F
100
AcDbEntity
  8
0
  6
Continuous
 62
     7
100
AcDbLine
 10
0.4634052128
 20
-0.8265711952
 30
0.0
 11
0.4710122423
 21
-0.8314474666
 31
0.0
  0
LINE
  5
598
330
1F
100
AcDbEntity
  8
0
  6
Continuous
 62
     7
100
AcDbLine
 10
0.4710122423
 20
-0.8314474666
 30
0.0
 11
0.4790110066
 21
-0.836349013
 31
0.0
  0
LINE
  5
599
330
1F
100
AcDbEntity
  8
0
  6
Continuous
 62
     7
100
AcDbLine
 10
0.4790110066
 20
-0.836349013
 30
0.0
 11
0.4874055343
 21
-0.8412618847
 31
0.0
  0
LINE
  5
59A
330
1F
100
AcDbEntity
  8
0
  6
Continuous
 62
     7
100
AcDbLine
 10
0.4874055343
 20
-0.8412618847
 30
0.0
 11
0.4961994476
 21
-0.8461719818
 31
0.0
  0
LINE
  5
59B
330
1F
100
AcDbEntity
  8
0
  6
Continuous
 62
     7
100
AcDbLine
 10
0.4961994476
 20
-0.8461719818
 30
0.0
 11
0.5053959588
 21
-0.8510650646
 31
0.0
  0
LINE
  5
59C
330
1F
100
AcDbEntity
  8
0
  6
Continuous
 62
     7
100
AcDbLine
 10
0.5053959588
 20
-0.8510650646
 30
0.0
 11
0.5149978653
 21
-0.8559267646
 31
0.0
  0
LINE
  5
59D
330
1F
100
AcDbEntity
  8
0
  6
Continuous
 62
     7
100
AcDbLine
 10
0.5149978653
 20
-0.8559267646
 30
0.0
 11
0.5151551241
 21
-0.8560024246
 31
0.0
  0
LINE
  5
59E
330
1F
100
AcDbEntity
  8
0
  6
Continuous
 62
     7
100
AcDbLine
 10
0.5151551241
 20
-0.8560024246
 30
0.0
 11
0.5292430652
 21
-0.8490919596
 31
0.0
  0
LINE
  5
59F
330
1F
100
AcDbEntity
  8
0
  6
Continuous
 62
     7
100
AcDbLine
 10
0.5292430652
 20
-0.8490919596
 30
0.0
 11
0.5416515588
 21
-0.8394870705
 31
0.0
  0
LINE
  5
5A0
330
1F
100
AcDbEntity
  8
0
  6
Continuous
 62
     7
100
AcDbLine
 10
0.5416515588
 20
-0.8394870705
 30
0.0
 11
0.5416528869
 21
-0.8393125626
 31
0.0
  0
LINE
  5
5A1
330
1F
100
AcDbEntity
  8
0
  6
Continuous
 62
     7
100
AcDbLine
 10
0.5416528869
 20
-0.8393125626
 30
0.0
 11
0.541516654
 21
-0.8285508631
 31
0.0
  0
LINE
  5
5A2
330
1F
100
AcDbEntity
  8
0
  6
Continuous
 62
     7
100
AcDbLine
 10
0.541516654
 20
-0.8285508631
 30
0.0
 11
0.5411737118
 21
-0.8181393086
 31
0.0
  0
LINE
  5
5A3
330
1F
100
AcDbEntity
  8
0
  6
Continuous
 62
     7
100
AcDbLine
 10
0.5411737118
 20
-0.8181393086
 30
0.0
 11
0.5406381923
 21
-0.8080817152
 31
0.0
  0
LINE
  5
5A4
330
1F
100
AcDbEntity
  8
0
  6
Continuous
 62
     7
100
AcDbLine
 10
0.5406381923
 20
-0.8080817152
 30
0.0
 11
0.5399242947
 21
-0.7983814702
 31
0.0
  0
LINE
  5
5A5
330
1F
100
AcDbEntity
  8
0
  6
Continuous
 62
     7
100
AcDbLine
 10
0.5399242947
 20
-0.7983814702
 30
0.0
 11
0.5390462732
 21
-0.789041531
 31
0.0
  0
LINE
  5
5A6
330
1F
100
AcDbEntity
  8
0
  6
Continuous
 62
     7
100
AcDbLine
 10
0.5390462732
 20
-0.789041531
 30
0.0
 11
0.5380184258
 21
-0.780064424
 31
0.0
  0
LINE
  5
5A7
330
1F
100
AcDbEntity
  8
0
  6
Continuous
 62
     7
100
AcDbLine
 10
0.5380184258
 20
-0.780064424
 30
0.0
 11
0.5368550828
 21
-0.7714522445
 31
0.0
  0
LINE
  5
5A8
330
1F
100
AcDbEntity
  8
0
  6
Continuous
 62
     7
100
AcDbLine
 10
0.5368550828
 20
-0.7714522445
 30
0.0
 11
0.5355705949
 21
-0.7632066565
 31
0.0
  0
LINE
  5
5A9
330
1F
100
AcDbEntity
  8
0
  6
Continuous
 62
     7
100
AcDbLine
 10
0.5355705949
 20
-0.7632066565
 30
0.0
 11
0.5341793217
 21
-0.7553288923
 31
0.0
  0
LINE
  5
5AA
330
1F
100
AcDbEntity
  8
0
  6
Continuous
 62
     7
100
AcDbLine
 10
0.5341793217
 20
-0.7553288923
 30
0.0
 11
0.5326956202
 21
-0.7478197536
 31
0.0
  0
LINE
  5
5AB
330
1F
100
AcDbEntity
  8
0
  6
Continuous
 62
     7
100
AcDbLine
 10
0.5326956202
 20
-0.7478197536
 30
0.0
 11
0.5311338333
 21
-0.7406796114
 31
0.0
  0
LINE
  5
5AC
330
1F
100
AcDbEntity
  8
0
  6
Continuous
 62
     7
100
AcDbLine
 10
0.5311338333
 20
-0.7406796114
 30
0.0
 11
0.529508278
 21
-0.7339084077
 31
0.0
  0
LINE
  5
5AD
330
1F
100
AcDbEntity
  8
0
  6
Continuous
 62
     7
100
AcDbLine
 10
0.529508278
 20
-0.7339084077
 30
0.0
 11
0.5278334442
 21
-0.7275063974
 31
0.0
  0
LINE
  5
5AE
330
1F
100
AcDbEntity
  8
0
  6
Continuous
 62
     7
100
AcDbLine
 10
0.5278334442
 20
-0.7275063974
 30
0.0
 11
0.52612299
 21
-0.7214706311
 31
0.0
  0
LINE
  5
5AF
330
1F
100
AcDbEntity
  8
0
  6
Continuous
 62
     7
100
AcDbLine
 10
0.52612299
 20
-0.7214706311
 30
0.0
 11
0.5240534923
 21
-0.7146945612
 31
0.0
  0
LINE
  5
5B0
330
1F
100
AcDbEntity
  8
0
  6
Continuous
 62
     7
100
AcDbLine
 10
0.5240534923
 20
-0.7146945612
 30
0.0
 11
0.5235316499
 21
-0.7123264382
 31
0.0
  0
LINE
  5
5B1
330
1F
100
AcDbEntity
  8
0
  6
Continuous
 62
     7
100
AcDbLine
 10
0.5235316499
 20
-0.7123264382
 30
0.0
 11
0.52331533
 21
-0.7102360192
 31
0.0
  0
LINE
  5
5B2
330
1F
100
AcDbEntity
  8
0
  6
Continuous
 62
     7
100
AcDbLine
 10
0.52331533
 20
-0.7102360192
 30
0.0
 11
0.523392817
 21
-0.7084346315
 31
0.0
  0
LINE
  5
5B3
330
1F
100
AcDbEntity
  8
0
  6
Continuous
 62
     7
100
AcDbLine
 10
0.523392817
 20
-0.7084346315
 30
0.0
 11
0.5237523621
 21
-0.7069331683
 31
0.0
  0
LINE
  5
5B4
330
1F
100
AcDbEntity
  8
0
  6
Continuous
 62
     7
100
AcDbLine
 10
0.5237523621
 20
-0.7069331683
 30
0.0
 11
0.5243816828
 21
-0.7057422122
 31
0.0
  0
LINE
  5
5B5
330
1F
100
AcDbEntity
  8
0
  6
Continuous
 62
     7
100
AcDbLine
 10
0.5243816828
 20
-0.7057422122
 30
0.0
 11
0.5252682423
 21
-0.7048719572
 31
0.0
  0
LINE
  5
5B6
330
1F
100
AcDbEntity
  8
0
  6
Continuous
 62
     7
100
AcDbLine
 10
0.5252682423
 20
-0.7048719572
 30
0.0
 11
0.5310335778
 21
-0.7005932622
 31
0.0
  0
LINE
  5
5B7
330
1F
100
AcDbEntity
  8
0
  6
Continuous
 62
     7
100
AcDbLine
 10
0.5310335778
 20
-0.7005932622
 30
0.0
 11
0.5451233958
 21
-0.6896869313
 31
0.0
  0
LINE
  5
5B8
330
1F
100
AcDbEntity
  8
0
  6
Continuous
 62
     7
100
AcDbLine
 10
0.5451233958
 20
-0.6896869313
 30
0.0
 11
0.5507105984
 21
-0.6851781077
 31
0.0
  0
LINE
  5
5B9
330
1F
100
AcDbEntity
  8
0
  6
Continuous
 62
     7
100
AcDbLine
 10
0.5507105984
 20
-0.6851781077
 30
0.0
 11
0.5517752908
 21
-0.6845379813
 31
0.0
  0
LINE
  5
5BA
330
1F
100
AcDbEntity
  8
0
  6
Continuous
 62
     7
100
AcDbLine
 10
0.5517752908
 20
-0.6845379813
 30
0.0
 11
0.5530859689
 21
-0.6842272665
 31
0.0
  0
LINE
  5
5BB
330
1F
100
AcDbEntity
  8
0
  6
Continuous
 62
     7
100
AcDbLine
 10
0.5530859689
 20
-0.6842272665
 30
0.0
 11
0.5546296221
 21
-0.6842555447
 31
0.0
  0
LINE
  5
5BC
330
1F
100
AcDbEntity
  8
0
  6
Continuous
 62
     7
100
AcDbLine
 10
0.5546296221
 20
-0.6842555447
 30
0.0
 11
0.5563929547
 21
-0.6846320033
 31
0.0
  0
LINE
  5
5BD
330
1F
100
AcDbEntity
  8
0
  6
Continuous
 62
     7
100
AcDbLine
 10
0.5563929547
 20
-0.6846320033
 30
0.0
 11
0.5583623972
 21
-0.6853654282
 31
0.0
  0
LINE
  5
5BE
330
1F
100
AcDbEntity
  8
0
  6
Continuous
 62
     7
100
AcDbLine
 10
0.5583623972
 20
-0.6853654282
 30
0.0
 11
0.5605241168
 21
-0.6864641966
 31
0.0
  0
LINE
  5
5BF
330
1F
100
AcDbEntity
  8
0
  6
Continuous
 62
     7
100
AcDbLine
 10
0.5605241168
 20
-0.6864641966
 30
0.0
 11
0.5665649831
 21
-0.6901659666
 31
0.0
  0
LINE
  5
5C0
330
1F
100
AcDbEntity
  8
0
  6
Continuous
 62
     7
100
AcDbLine
 10
0.5665649831
 20
-0.6901659666
 30
0.0
 11
0.5719788427
 21
-0.6933344114
 31
0.0
  0
LINE
  5
5C1
330
1F
100
AcDbEntity
  8
0
  6
Continuous
 62
     7
100
AcDbLine
 10
0.5719788427
 20
-0.6933344114
 30
0.0
 11
0.5777573461
 21
-0.696560849
 31
0.0
  0
LINE
  5
5C2
330
1F
100
AcDbEntity
  8
0
  6
Continuous
 62
     7
100
AcDbLine
 10
0.5777573461
 20
-0.696560849
 30
0.0
 11
0.583904944
 21
-0.6998317313
 31
0.0
  0
LINE
  5
5C3
330
1F
100
AcDbEntity
  8
0
  6
Continuous
 62
     7
100
AcDbLine
 10
0.583904944
 20
-0.6998317313
 30
0.0
 11
0.5904256864
 21
-0.7031333562
 31
0.0
  0
LINE
  5
5C4
330
1F
100
AcDbEntity
  8
0
  6
Continuous
 62
     7
100
AcDbLine
 10
0.5904256864
 20
-0.7031333562
 30
0.0
 11
0.5973232182
 21
-0.7064518782
 31
0.0
  0
LINE
  5
5C5
330
1F
100
AcDbEntity
  8
0
  6
Continuous
 62
     7
100
AcDbLine
 10
0.5973232182
 20
-0.7064518782
 30
0.0
 11
0.6046007752
 21
-0.7097733196
 31
0.0
  0
LINE
  5
5C6
330
1F
100
AcDbEntity
  8
0
  6
Continuous
 62
     7
100
AcDbLine
 10
0.6046007752
 20
-0.7097733196
 30
0.0
 11
0.6122611794
 21
-0.7130835801
 31
0.0
  0
LINE
  5
5C7
330
1F
100
AcDbEntity
  8
0
  6
Continuous
 62
     7
100
AcDbLine
 10
0.6122611794
 20
-0.7130835801
 30
0.0
 11
0.6203068392
 21
-0.7163684507
 31
0.0
  0
LINE
  5
5C8
330
1F
100
AcDbEntity
  8
0
  6
Continuous
 62
     7
100
AcDbLine
 10
0.6203068392
 20
-0.7163684507
 30
0.0
 11
0.6287397386
 21
-0.7196136208
 31
0.0
  0
LINE
  5
5C9
330
1F
100
AcDbEntity
  8
0
  6
Continuous
 62
     7
100
AcDbLine
 10
0.6287397386
 20
-0.7196136208
 30
0.0
 11
0.6375614418
 21
-0.7228046928
 31
0.0
  0
LINE
  5
5CA
330
1F
100
AcDbEntity
  8
0
  6
Continuous
 62
     7
100
AcDbLine
 10
0.6375614418
 20
-0.7228046928
 30
0.0
 11
0.6467730867
 21
-0.7259271918
 31
0.0
  0
LINE
  5
5CB
330
1F
100
AcDbEntity
  8
0
  6
Continuous
 62
     7
100
AcDbLine
 10
0.6467730867
 20
-0.7259271918
 30
0.0
 11
0.6563753834
 21
-0.7289665771
 31
0.0
  0
LINE
  5
5CC
330
1F
100
AcDbEntity
  8
0
  6
Continuous
 62
     7
100
AcDbLine
 10
0.6563753834
 20
-0.7289665771
 30
0.0
 11
0.6663686118
 21
-0.7319082541
 31
0.0
  0
LINE
  5
5CD
330
1F
100
AcDbEntity
  8
0
  6
Continuous
 62
     7
100
AcDbLine
 10
0.6663686118
 20
-0.7319082541
 30
0.0
 11
0.6767526198
 21
-0.7347375853
 31
0.0
  0
LINE
  5
5CE
330
1F
100
AcDbEntity
  8
0
  6
Continuous
 62
     7
100
AcDbLine
 10
0.6767526198
 20
-0.7347375853
 30
0.0
 11
0.6769218897
 21
-0.7347800405
 31
0.0
  0
LINE
  5
5CF
330
1F
100
AcDbEntity
  8
0
  6
Continuous
 62
     7
100
AcDbLine
 10
0.6769218897
 20
-0.7347800405
 30
0.0
 11
0.6893303834
 21
-0.7251751515
 31
0.0
  0
LINE
  5
5D0
330
1F
100
AcDbEntity
  8
0
  6
Continuous
 62
     7
100
AcDbLine
 10
0.6893303834
 20
-0.7251751515
 30
0.0
 11
0.6995514245
 21
-0.7132690637
 31
0.0
  0
LINE
  5
5D1
330
1F
100
AcDbEntity
  8
0
  6
Continuous
 62
     7
100
AcDbLine
 10
0.6995514245
 20
-0.7132690637
 30
0.0
 11
0.6995175972
 21
-0.7130978606
 31
0.0
  0
LINE
  5
5D2
330
1F
100
AcDbEntity
  8
0
  6
Continuous
 62
     7
100
AcDbLine
 10
0.6995175972
 20
-0.7130978606
 30
0.0
 11
0.6972178388
 21
-0.7025838772
 31
0.0
  0
LINE
  5
5D3
330
1F
100
AcDbEntity
  8
0
  6
Continuous
 62
     7
100
AcDbLine
 10
0.6972178388
 20
-0.7025838772
 30
0.0
 11
0.6947860861
 21
-0.6924544816
 31
0.0
  0
LINE
  5
5D4
330
1F
100
AcDbEntity
  8
0
  6
Continuous
 62
     7
100
AcDbLine
 10
0.6947860861
 20
-0.6924544816
 30
0.0
 11
0.6922369501
 21
-0.682710567
 31
0.0
  0
LINE
  5
5D5
330
1F
100
AcDbEntity
  8
0
  6
Continuous
 62
     7
100
AcDbLine
 10
0.6922369501
 20
-0.682710567
 30
0.0
 11
0.6895850211
 21
-0.6733525932
 31
0.0
  0
LINE
  5
5D6
330
1F
100
AcDbEntity
  8
0
  6
Continuous
 62
     7
100
AcDbLine
 10
0.6895850211
 20
-0.6733525932
 30
0.0
 11
0.6868448567
 21
-0.6643805874
 31
0.0
  0
LINE
  5
5D7
330
1F
100
AcDbEntity
  8
0
  6
Continuous
 62
     7
100
AcDbLine
 10
0.6868448567
 20
-0.6643805874
 30
0.0
 11
0.6840309711
 21
-0.6557941465
 31
0.0
  0
LINE
  5
5D8
330
1F
100
AcDbEntity
  8
0
  6
Continuous
 62
     7
100
AcDbLine
 10
0.6840309711
 20
-0.6557941465
 30
0.0
 11
0.6811578229
 21
-0.6475924381
 31
0.0
  0
LINE
  5
5D9
330
1F
100
AcDbEntity
  8
0
  6
Continuous
 62
     7
100
AcDbLine
 10
0.6811578229
 20
-0.6475924381
 30
0.0
 11
0.6782398038
 21
-0.6397742032
 31
0.0
  0
LINE
  5
5DA
330
1F
100
AcDbEntity
  8
0
  6
Continuous
 62
     7
100
AcDbLine
 10
0.6782398038
 20
-0.6397742032
 30
0.0
 11
0.6752912278
 21
-0.6323377586
 31
0.0
  0
LINE
  5
5DB
330
1F
100
AcDbEntity
  8
0
  6
Continuous
 62
     7
100
AcDbLine
 10
0.6752912278
 20
-0.6323377586
 30
0.0
 11
0.6723263193
 21
-0.6252809993
 31
0.0
  0
LINE
  5
5DC
330
1F
100
AcDbEntity
  8
0
  6
Continuous
 62
     7
100
AcDbLine
 10
0.6723263193
 20
-0.6252809993
 30
0.0
 11
0.6693592022
 21
-0.6186014017
 31
0.0
  0
LINE
  5
5DD
330
1F
100
AcDbEntity
  8
0
  6
Continuous
 62
     7
100
AcDbLine
 10
0.6693592022
 20
-0.6186014017
 30
0.0
 11
0.6664038888
 21
-0.6122960267
 31
0.0
  0
LINE
  5
5DE
330
1F
100
AcDbEntity
  8
0
  6
Continuous
 62
     7
100
AcDbLine
 10
0.6664038888
 20
-0.6122960267
 30
0.0
 11
0.6634746237
 21
-0.6063622075
 31
0.0
  0
LINE
  5
5DF
330
1F
100
AcDbEntity
  8
0
  6
Continuous
 62
     7
100
AcDbLine
 10
0.6634746237
 20
-0.6063622075
 30
0.0
 11
0.6605841918
 21
-0.6007943056
 31
0.0
  0
LINE
  5
5E0
330
1F
100
AcDbEntity
  8
0
  6
Continuous
 62
     7
100
AcDbLine
 10
0.6605841918
 20
-0.6007943056
 30
0.0
 11
0.6571930441
 21
-0.5945735291
 31
0.0
  0
LINE
  5
5E1
330
1F
100
AcDbEntity
  8
0
  6
Continuous
 62
     7
100
AcDbLine
 10
0.6571930441
 20
-0.5945735291
 30
0.0
 11
0.6562051841
 21
-0.5923589278
 31
0.0
  0
LINE
  5
5E2
330
1F
100
AcDbEntity
  8
0
  6
Continuous
 62
     7
100
AcDbLine
 10
0.6562051841
 20
-0.5923589278
 30
0.0
 11
0.6555724941
 21
-0.5903548447
 31
0.0
  0
LINE
  5
5E3
330
1F
100
AcDbEntity
  8
0
  6
Continuous
 62
     7
100
AcDbLine
 10
0.6555724941
 20
-0.5903548447
 30
0.0
 11
0.6552857782
 21
-0.5885747335
 31
0.0
  0
LINE
  5
5E4
330
1F
100
AcDbEntity
  8
0
  6
Continuous
 62
     7
100
AcDbLine
 10
0.6552857782
 20
-0.5885747335
 30
0.0
 11
0.6553357211
 21
-0.5870316294
 31
0.0
  0
LINE
  5
5E5
330
1F
100
AcDbEntity
  8
0
  6
Continuous
 62
     7
100
AcDbLine
 10
0.6553357211
 20
-0.5870316294
 30
0.0
 11
0.6557124218
 21
-0.5857383709
 31
0.0
  0
LINE
  5
5E6
330
1F
100
AcDbEntity
  8
0
  6
Continuous
 62
     7
100
AcDbLine
 10
0.6557124218
 20
-0.5857383709
 30
0.0
 11
0.6564056524
 21
-0.584707467
 31
0.0
  0
LINE
  5
5E7
330
1F
100
AcDbEntity
  8
0
  6
Continuous
 62
     7
100
AcDbLine
 10
0.6564056524
 20
-0.584707467
 30
0.0
 11
0.6611916761
 21
-0.5793558036
 31
0.0
  0
LINE
  5
5E8
330
1F
100
AcDbEntity
  8
0
  6
Continuous
 62
     7
100
AcDbLine
 10
0.6611916761
 20
-0.5793558036
 30
0.0
 11
0.6727976464
 21
-0.5658364664
 31
0.0
  0
LINE
  5
5E9
330
1F
100
AcDbEntity
  8
0
  6
Continuous
 62
     7
100
AcDbLine
 10
0.6727976464
 20
-0.5658364664
 30
0.0
 11
0.6773628592
 21
-0.5602952431
 31
0.0
  0
LINE
  5
5EA
330
1F
100
AcDbEntity
  8
0
  6
Continuous
 62
     7
100
AcDbLine
 10
0.6773628592
 20
-0.5602952431
 30
0.0
 11
0.6782769007
 21
-0.5594538991
 31
0.0
  0
LINE
  5
5EB
330
1F
100
AcDbEntity
  8
0
  6
Continuous
 62
     7
100
AcDbLine
 10
0.6782769007
 20
-0.5594538991
 30
0.0
 11
0.6794982028
 21
-0.5588857071
 31
0.0
  0
LINE
  5
5EC
330
1F
100
AcDbEntity
  8
0
  6
Continuous
 62
     7
100
AcDbLine
 10
0.6794982028
 20
-0.5588857071
 30
0.0
 11
0.6810159496
 21
-0.5586026714
 31
0.0
  0
LINE
  5
5ED
330
1F
100
AcDbEntity
  8
0
  6
Continuous
 62
     7
100
AcDbLine
 10
0.6810159496
 20
-0.5586026714
 30
0.0
 11
0.6828189673
 21
-0.5586164676
 31
0.0
  0
LINE
  5
5EE
330
1F
100
AcDbEntity
  8
0
  6
Continuous
 62
     7
100
AcDbLine
 10
0.6828189673
 20
-0.5586164676
 30
0.0
 11
0.6848957326
 21
-0.5589384334
 31
0.0
  0
LINE
  5
5EF
330
1F
100
AcDbEntity
  8
0
  6
Continuous
 62
     7
100
AcDbLine
 10
0.6848957326
 20
-0.5589384334
 30
0.0
 11
0.6872343821
 21
-0.5595795589
 31
0.0
  0
LINE
  5
5F0
330
1F
100
AcDbEntity
  8
0
  6
Continuous
 62
     7
100
AcDbLine
 10
0.6872343821
 20
-0.5595795589
 30
0.0
 11
0.6938967523
 21
-0.5619895361
 31
0.0
  0
LINE
  5
5F1
330
1F
100
AcDbEntity
  8
0
  6
Continuous
 62
     7
100
AcDbLine
 10
0.6938967523
 20
-0.5619895361
 30
0.0
 11
0.6998375932
 21
-0.5640033207
 31
0.0
  0
LINE
  5
5F2
330
1F
100
AcDbEntity
  8
0
  6
Continuous
 62
     7
100
AcDbLine
 10
0.6998375932
 20
-0.5640033207
 30
0.0
 11
0.7061472873
 21
-0.5660005088
 31
0.0
  0
LINE
  5
5F3
330
1F
100
AcDbEntity
  8
0
  6
Continuous
 62
     7
100
AcDbLine
 10
0.7061472873
 20
-0.5660005088
 30
0.0
 11
0.7128274673
 21
-0.5679669335
 31
0.0
  0
LINE
  5
5F4
330
1F
100
AcDbEntity
  8
0
  6
Continuous
 62
     7
100
AcDbLine
 10
0.7128274673
 20
-0.5679669335
 30
0.0
 11
0.7198793419
 21
-0.5698883582
 31
0.0
  0
LINE
  5
5F5
330
1F
100
AcDbEntity
  8
0
  6
Continuous
 62
     7
100
AcDbLine
 10
0.7198793419
 20
-0.5698883582
 30
0.0
 11
0.7273036945
 21
-0.571750487
 31
0.0
  0
LINE
  5
5F6
330
1F
100
AcDbEntity
  8
0
  6
Continuous
 62
     7
100
AcDbLine
 10
0.7273036945
 20
-0.571750487
 30
0.0
 11
0.7351008807
 21
-0.5735389768
 31
0.0
  0
LINE
  5
5F7
330
1F
100
AcDbEntity
  8
0
  6
Continuous
 62
     7
100
AcDbLine
 10
0.7351008807
 20
-0.5735389768
 30
0.0
 11
0.7432708265
 21
-0.575239448
 31
0.0
  0
LINE
  5
5F8
330
1F
100
AcDbEntity
  8
0
  6
Continuous
 62
     7
100
AcDbLine
 10
0.7432708265
 20
-0.575239448
 30
0.0
 11
0.7518130308
 21
-0.5768374977
 31
0.0
  0
LINE
  5
5F9
330
1F
100
AcDbEntity
  8
0
  6
Continuous
 62
     7
100
AcDbLine
 10
0.7518130308
 20
-0.5768374977
 30
0.0
 11
0.7607265561
 21
-0.5783187088
 31
0.0
  0
LINE
  5
5FA
330
1F
100
AcDbEntity
  8
0
  6
Continuous
 62
     7
100
AcDbLine
 10
0.7607265561
 20
-0.5783187088
 30
0.0
 11
0.7700100366
 21
-0.5796686636
 31
0.0
  0
LINE
  5
5FB
330
1F
100
AcDbEntity
  8
0
  6
Continuous
 62
     7
100
AcDbLine
 10
0.7700100366
 20
-0.5796686636
 30
0.0
 11
0.779661673
 21
-0.5808729543
 31
0.0
  0
LINE
  5
5FC
330
1F
100
AcDbEntity
  8
0
  6
Continuous
 62
     7
100
AcDbLine
 10
0.779661673
 20
-0.5808729543
 30
0.0
 11
0.789679234
 21
-0.5819171952
 31
0.0
  0
LINE
  5
5FD
330
1F
100
AcDbEntity
  8
0
  6
Continuous
 62
     7
100
AcDbLine
 10
0.789679234
 20
-0.5819171952
 30
0.0
 11
0.8000600556
 21
-0.5827870338
 31
0.0
  0
LINE
  5
5FE
330
1F
100
AcDbEntity
  8
0
  6
Continuous
 62
     7
100
AcDbLine
 10
0.8000600556
 20
-0.5827870338
 30
0.0
 11
0.8108010425
 21
-0.583468163
 31
0.0
  0
LINE
  5
5FF
330
1F
100
AcDbEntity
  8
0
  6
Continuous
 62
     7
100
AcDbLine
 10
0.8108010425
 20
-0.583468163
 30
0.0
 11
0.8109753936
 21
-0.5834756753
 31
0.0
  0
LINE
  5
600
330
1F
100
AcDbEntity
  8
0
  6
Continuous
 62
     7
100
AcDbLine
 10
0.8109753936
 20
-0.5834756753
 30
0.0
 11
0.8211964348
 21
-0.5715695875
 31
0.0
  0
LINE
  5
601
330
1F
100
AcDbEntity
  8
0
  6
Continuous
 62
     7
100
AcDbLine
 10
0.8211964348
 20
-0.5715695875
 30
0.0
 11
0.8288115727
 21
-0.5578497375
 31
0.0
  0
LINE
  5
602
330
1F
100
AcDbEntity
  8
0
  6
Continuous
 62
     7
100
AcDbLine
 10
0.8288115727
 20
-0.5578497375
 30
0.0
 11
0.8287439749
 21
-0.5576888484
 31
0.0
  0
LINE
  5
603
330
1F
100
AcDbEntity
  8
0
  6
Continuous
 62
     7
100
AcDbLine
 10
0.8287439749
 20
-0.5576888484
 30
0.0
 11
0.8243748434
 21
-0.5478530248
 31
0.0
  0
LINE
  5
604
330
1F
100
AcDbEntity
  8
0
  6
Continuous
 62
     7
100
AcDbLine
 10
0.8243748434
 20
-0.5478530248
 30
0.0
 11
0.8199538365
 21
-0.5384204868
 31
0.0
  0
LINE
  5
605
330
1F
100
AcDbEntity
  8
0
  6
Continuous
 62
     7
100
AcDbLine
 10
0.8199538365
 20
-0.5384204868
 30
0.0
 11
0.8154954459
 21
-0.529389168
 31
0.0
  0
LINE
  5
606
330
1F
100
AcDbEntity
  8
0
  6
Continuous
 62
     7
100
AcDbLine
 10
0.8154954459
 20
-0.529389168
 30
0.0
 11
0.8110140557
 21
-0.5207565818
 31
0.0
  0
LINE
  5
607
330
1F
100
AcDbEntity
  8
0
  6
Continuous
 62
     7
100
AcDbLine
 10
0.8110140557
 20
-0.5207565818
 30
0.0
 11
0.8065239312
 21
-0.5125198246
 31
0.0
  0
LINE
  5
608
330
1F
100
AcDbEntity
  8
0
  6
Continuous
 62
     7
100
AcDbLine
 10
0.8065239312
 20
-0.5125198246
 30
0.0
 11
0.8020392081
 21
-0.5046755796
 31
0.0
  0
LINE
  5
609
330
1F
100
AcDbEntity
  8
0
  6
Continuous
 62
     7
100
AcDbLine
 10
0.8020392081
 20
-0.5046755796
 30
0.0
 11
0.7975738816
 21
-0.4972201211
 31
0.0
  0
LINE
  5
60A
330
1F
100
AcDbEntity
  8
0
  6
Continuous
 62
     7
100
AcDbLine
 10
0.7975738816
 20
-0.4972201211
 30
0.0
 11
0.7931417955
 21
-0.4901493189
 31
0.0
  0
LINE
  5
60B
330
1F
100
AcDbEntity
  8
0
  6
Continuous
 62
     7
100
AcDbLine
 10
0.7931417955
 20
-0.4901493189
 30
0.0
 11
0.7887566317
 21
-0.4834586428
 31
0.0
  0
LINE
  5
60C
330
1F
100
AcDbEntity
  8
0
  6
Continuous
 62
     7
100
AcDbLine
 10
0.7887566317
 20
-0.4834586428
 30
0.0
 11
0.7844318998
 21
-0.4771431674
 31
0.0
  0
LINE
  5
60D
330
1F
100
AcDbEntity
  8
0
  6
Continuous
 62
     7
100
AcDbLine
 10
0.7844318998
 20
-0.4771431674
 30
0.0
 11
0.7801809267
 21
-0.4711975778
 31
0.0
  0
LINE
  5
60E
330
1F
100
AcDbEntity
  8
0
  6
Continuous
 62
     7
100
AcDbLine
 10
0.7801809267
 20
-0.4711975778
 30
0.0
 11
0.7760168461
 21
-0.4656161745
 31
0.0
  0
LINE
  5
60F
330
1F
100
AcDbEntity
  8
0
  6
Continuous
 62
     7
100
AcDbLine
 10
0.7760168461
 20
-0.4656161745
 30
0.0
 11
0.7719530742
 21
-0.4603934776
 31
0.0
  0
LINE
  5
610
330
1F
100
AcDbEntity
  8
0
  6
Continuous
 62
     7
100
AcDbLine
 10
0.7719530742
 20
-0.4603934776
 30
0.0
 11
0.7680009992
 21
-0.4555213907
 31
0.0
  0
LINE
  5
611
330
1F
100
AcDbEntity
  8
0
  6
Continuous
 62
     7
100
AcDbLine
 10
0.7680009992
 20
-0.4555213907
 30
0.0
 11
0.7634270353
 21
-0.4501105869
 31
0.0
  0
LINE
  5
612
330
1F
100
AcDbEntity
  8
0
  6
Continuous
 62
     7
100
AcDbLine
 10
0.7634270353
 20
-0.4501105869
 30
0.0
 11
0.762013601
 21
-0.4481401733
 31
0.0
  0
LINE
  5
613
330
1F
100
AcDbEntity
  8
0
  6
Continuous
 62
     7
100
AcDbLine
 10
0.762013601
 20
-0.4481401733
 30
0.0
 11
0.7609904432
 21
-0.4463044735
 31
0.0
  0
LINE
  5
614
330
1F
100
AcDbEntity
  8
0
  6
Continuous
 62
     7
100
AcDbLine
 10
0.7609904432
 20
-0.4463044735
 30
0.0
 11
0.7603512627
 21
-0.4446185168
 31
0.0
  0
LINE
  5
615
330
1F
100
AcDbEntity
  8
0
  6
Continuous
 62
     7
100
AcDbLine
 10
0.7603512627
 20
-0.4446185168
 30
0.0
 11
0.7600895586
 21
-0.4430969466
 31
0.0
  0
LINE
  5
616
330
1F
100
AcDbEntity
  8
0
  6
Continuous
 62
     7
100
AcDbLine
 10
0.7600895586
 20
-0.4430969466
 30
0.0
 11
0.7601982173
 21
-0.441754332
 31
0.0
  0
LINE
  5
617
330
1F
100
AcDbEntity
  8
0
  6
Continuous
 62
     7
100
AcDbLine
 10
0.7601982173
 20
-0.441754332
 30
0.0
 11
0.7606697379
 21
-0.4406049844
 31
0.0
  0
LINE
  5
618
330
1F
100
AcDbEntity
  8
0
  6
Continuous
 62
     7
100
AcDbLine
 10
0.7606697379
 20
-0.4406049844
 30
0.0
 11
0.7642805096
 21
-0.4343994504
 31
0.0
  0
LINE
  5
619
330
1F
100
AcDbEntity
  8
0
  6
Continuous
 62
     7
100
AcDbLine
 10
0.7642805096
 20
-0.4343994504
 30
0.0
 11
0.7729274824
 21
-0.4188205902
 31
0.0
  0
LINE
  5
61A
330
1F
100
AcDbEntity
  8
0
  6
Continuous
 62
     7
100
AcDbLine
 10
0.7729274824
 20
-0.4188205902
 30
0.0
 11
0.7762838049
 21
-0.4124738254
 31
0.0
  0
LINE
  5
61B
330
1F
100
AcDbEntity
  8
0
  6
Continuous
 62
     7
100
AcDbLine
 10
0.7762838049
 20
-0.4124738254
 30
0.0
 11
0.7770097747
 21
-0.4114657086
 31
0.0
  0
LINE
  5
61C
330
1F
100
AcDbEntity
  8
0
  6
Continuous
 62
     7
100
AcDbLine
 10
0.7770097747
 20
-0.4114657086
 30
0.0
 11
0.7780917004
 21
-0.4106633012
 31
0.0
  0
LINE
  5
61D
330
1F
100
AcDbEntity
  8
0
  6
Continuous
 62
     7
100
AcDbLine
 10
0.7780917004
 20
-0.4106633012
 30
0.0
 11
0.7795214042
 21
-0.410080539
 31
0.0
  0
LINE
  5
61E
330
1F
100
AcDbEntity
  8
0
  6
Continuous
 62
     7
100
AcDbLine
 10
0.7795214042
 20
-0.410080539
 30
0.0
 11
0.7812902911
 21
-0.4097311081
 31
0.0
  0
LINE
  5
61F
330
1F
100
AcDbEntity
  8
0
  6
Continuous
 62
     7
100
AcDbLine
 10
0.7812902911
 20
-0.4097311081
 30
0.0
 11
0.7833893562
 21
-0.4096284334
 31
0.0
  0
LINE
  5
620
330
1F
100
AcDbEntity
  8
0
  6
Continuous
 62
     7
100
AcDbLine
 10
0.7833893562
 20
-0.4096284334
 30
0.0
 11
0.785809191
 21
-0.4097856684
 31
0.0
  0
LINE
  5
621
330
1F
100
AcDbEntity
  8
0
  6
Continuous
 62
     7
100
AcDbLine
 10
0.785809191
 20
-0.4097856684
 30
0.0
 11
0.7928203069
 21
-0.4108051879
 31
0.0
  0
LINE
  5
622
330
1F
100
AcDbEntity
  8
0
  6
Continuous
 62
     7
100
AcDbLine
 10
0.7928203069
 20
-0.4108051879
 30
0.0
 11
0.7990449103
 21
-0.4115818678
 31
0.0
  0
LINE
  5
623
330
1F
100
AcDbEntity
  8
0
  6
Continuous
 62
     7
100
AcDbLine
 10
0.7990449103
 20
-0.4115818678
 30
0.0
 11
0.8056274757
 21
-0.4122680412
 31
0.0
  0
LINE
  5
624
330
1F
100
AcDbEntity
  8
0
  6
Continuous
 62
     7
100
AcDbLine
 10
0.8056274757
 20
-0.4122680412
 30
0.0
 11
0.8125667503
 21
-0.4128495028
 31
0.0
  0
LINE
  5
625
330
1F
100
AcDbEntity
  8
0
  6
Continuous
 62
     7
100
AcDbLine
 10
0.8125667503
 20
-0.4128495028
 30
0.0
 11
0.8198610526
 21
-0.4133120638
 31
0.0
  0
LINE
  5
626
330
1F
100
AcDbEntity
  8
0
  6
Continuous
 62
     7
100
AcDbLine
 10
0.8198610526
 20
-0.4133120638
 30
0.0
 11
0.827508272
 21
-0.4136415635
 31
0.0
  0
LINE
  5
627
330
1F
100
AcDbEntity
  8
0
  6
Continuous
 62
     7
100
AcDbLine
 10
0.827508272
 20
-0.4136415635
 30
0.0
 11
0.8355058697
 21
-0.4138238808
 31
0.0
  0
LINE
  5
628
330
1F
100
AcDbEntity
  8
0
  6
Continuous
 62
     7
100
AcDbLine
 10
0.8355058697
 20
-0.4138238808
 30
0.0
 11
0.8438508786
 21
-0.4138449453
 31
0.0
  0
LINE
  5
629
330
1F
100
AcDbEntity
  8
0
  6
Continuous
 62
     7
100
AcDbLine
 10
0.8438508786
 20
-0.4138449453
 30
0.0
 11
0.8525399085
 21
-0.4136907498
 31
0.0
  0
LINE
  5
62A
330
1F
100
AcDbEntity
  8
0
  6
Continuous
 62
     7
100
AcDbLine
 10
0.8525399085
 20
-0.4136907498
 30
0.0
 11
0.8615691391
 21
-0.413347361
 31
0.0
  0
LINE
  5
62B
330
1F
100
AcDbEntity
  8
0
  6
Continuous
 62
     7
100
AcDbLine
 10
0.8615691391
 20
-0.413347361
 30
0.0
 11
0.87093433
 21
-0.4128009312
 31
0.0
  0
LINE
  5
62C
330
1F
100
AcDbEntity
  8
0
  6
Continuous
 62
     7
100
AcDbLine
 10
0.87093433
 20
-0.4128009312
 30
0.0
 11
0.8806308189
 21
-0.4120377099
 31
0.0
  0
LINE
  5
62D
330
1F
100
AcDbEntity
  8
0
  6
Continuous
 62
     7
100
AcDbLine
 10
0.8806308189
 20
-0.4120377099
 30
0.0
 11
0.8906535238
 21
-0.4110440548
 31
0.0
  0
LINE
  5
62E
330
1F
100
AcDbEntity
  8
0
  6
Continuous
 62
     7
100
AcDbLine
 10
0.8906535238
 20
-0.4110440548
 30
0.0
 11
0.9009969467
 21
-0.4098064438
 31
0.0
  0
LINE
  5
62F
330
1F
100
AcDbEntity
  8
0
  6
Continuous
 62
     7
100
AcDbLine
 10
0.9009969467
 20
-0.4098064438
 30
0.0
 11
0.9116551752
 21
-0.4083114855
 31
0.0
  0
LINE
  5
630
330
1F
100
AcDbEntity
  8
0
  6
Continuous
 62
     7
100
AcDbLine
 10
0.9116551752
 20
-0.4083114855
 30
0.0
 11
0.9118274696
 21
-0.4082837474
 31
0.0
  0
LINE
  5
631
330
1F
100
AcDbEntity
  8
0
  6
Continuous
 62
     7
100
AcDbLine
 10
0.9118274696
 20
-0.4082837474
 30
0.0
 11
0.9194426076
 21
-0.3945638974
 31
0.0
  0
LINE
  5
632
330
1F
100
AcDbEntity
  8
0
  6
Continuous
 62
     7
100
AcDbLine
 10
0.9194426076
 20
-0.3945638974
 30
0.0
 11
0.9241400777
 21
-0.3795919776
 31
0.0
  0
LINE
  5
633
330
1F
100
AcDbEntity
  8
0
  6
Continuous
 62
     7
100
AcDbLine
 10
0.9241400777
 20
-0.3795919776
 30
0.0
 11
0.9240414769
 21
-0.3794479893
 31
0.0
  0
LINE
  5
634
330
1F
100
AcDbEntity
  8
0
  6
Continuous
 62
     7
100
AcDbLine
 10
0.9240414769
 20
-0.3794479893
 30
0.0
 11
0.9177818451
 21
-0.3706930053
 31
0.0
  0
LINE
  5
635
330
1F
100
AcDbEntity
  8
0
  6
Continuous
 62
     7
100
AcDbLine
 10
0.9177818451
 20
-0.3706930053
 30
0.0
 11
0.9115525805
 21
-0.3623434939
 31
0.0
  0
LINE
  5
636
330
1F
100
AcDbEntity
  8
0
  6
Continuous
 62
     7
100
AcDbLine
 10
0.9115525805
 20
-0.3623434939
 30
0.0
 11
0.9053674623
 21
-0.3543945142
 31
0.0
  0
LINE
  5
637
330
1F
100
AcDbEntity
  8
0
  6
Continuous
 62
     7
100
AcDbLine
 10
0.9053674623
 20
-0.3543945142
 30
0.0
 11
0.8992400796
 21
-0.3468407348
 31
0.0
  0
LINE
  5
638
330
1F
100
AcDbEntity
  8
0
  6
Continuous
 62
     7
100
AcDbLine
 10
0.8992400796
 20
-0.3468407348
 30
0.0
 11
0.8931838212
 21
-0.3396764399
 31
0.0
  0
LINE
  5
639
330
1F
100
AcDbEntity
  8
0
  6
Continuous
 62
     7
100
AcDbLine
 10
0.8931838212
 20
-0.3396764399
 30
0.0
 11
0.8872118657
 21
-0.3328955352
 31
0.0
  0
LINE
  5
63A
330
1F
100
AcDbEntity
  8
0
  6
Continuous
 62
     7
100
AcDbLine
 10
0.8872118657
 20
-0.3328955352
 30
0.0
 11
0.8813371719
 21
-0.326491554
 31
0.0
  0
LINE
  5
63B
330
1F
100
AcDbEntity
  8
0
  6
Continuous
 62
     7
100
AcDbLine
 10
0.8813371719
 20
-0.326491554
 30
0.0
 11
0.8755724688
 21
-0.3204576639
 31
0.0
  0
LINE
  5
63C
330
1F
100
AcDbEntity
  8
0
  6
Continuous
 62
     7
100
AcDbLine
 10
0.8755724688
 20
-0.3204576639
 30
0.0
 11
0.8699302464
 21
-0.3147866733
 31
0.0
  0
LINE
  5
63D
330
1F
100
AcDbEntity
  8
0
  6
Continuous
 62
     7
100
AcDbLine
 10
0.8699302464
 20
-0.3147866733
 30
0.0
 11
0.8644227462
 21
-0.3094710382
 31
0.0
  0
LINE
  5
63E
330
1F
100
AcDbEntity
  8
0
  6
Continuous
 62
     7
100
AcDbLine
 10
0.8644227462
 20
-0.3094710382
 30
0.0
 11
0.8590619523
 21
-0.3045028698
 31
0.0
  0
LINE
  5
63F
330
1F
100
AcDbEntity
  8
0
  6
Continuous
 62
     7
100
AcDbLine
 10
0.8590619523
 20
-0.3045028698
 30
0.0
 11
0.8538595825
 21
-0.2998739414
 31
0.0
  0
LINE
  5
640
330
1F
100
AcDbEntity
  8
0
  6
Continuous
 62
     7
100
AcDbLine
 10
0.8538595825
 20
-0.2998739414
 30
0.0
 11
0.8488276751
 21
-0.2955761847
 31
0.0
  0
LINE
  5
641
330
1F
100
AcDbEntity
  8
0
  6
Continuous
 62
     7
100
AcDbLine
 10
0.8488276751
 20
-0.2955761847
 30
0.0
 11
0.8439757554
 21
-0.2915993765
 31
0.0
  0
LINE
  5
642
330
1F
100
AcDbEntity
  8
0
  6
Continuous
 62
     7
100
AcDbLine
 10
0.8439757554
 20
-0.2915993765
 30
0.0
 11
0.8384062341
 21
-0.2872200643
 31
0.0
  0
LINE
  5
643
330
1F
100
AcDbEntity
  8
0
  6
Continuous
 62
     7
100
AcDbLine
 10
0.8384062341
 20
-0.2872200643
 30
0.0
 11
0.8366250915
 21
-0.2855745075
 31
0.0
  0
LINE
  5
644
330
1F
100
AcDbEntity
  8
0
  6
Continuous
 62
     7
100
AcDbLine
 10
0.8366250915
 20
-0.2855745075
 30
0.0
 11
0.8352533541
 21
-0.2839823447
 31
0.0
  0
LINE
  5
645
330
1F
100
AcDbEntity
  8
0
  6
Continuous
 62
     7
100
AcDbLine
 10
0.8352533541
 20
-0.2839823447
 30
0.0
 11
0.8342878771
 21
-0.2824595657
 31
0.0
  0
LINE
  5
646
330
1F
100
AcDbEntity
  8
0
  6
Continuous
 62
     7
100
AcDbLine
 10
0.8342878771
 20
-0.2824595657
 30
0.0
 11
0.8337252403
 21
-0.2810218228
 31
0.0
  0
LINE
  5
647
330
1F
100
AcDbEntity
  8
0
  6
Continuous
 62
     7
100
AcDbLine
 10
0.8337252403
 20
-0.2810218228
 30
0.0
 11
0.8335614084
 21
-0.2796848187
 31
0.0
  0
LINE
  5
648
330
1F
100
AcDbEntity
  8
0
  6
Continuous
 62
     7
100
AcDbLine
 10
0.8335614084
 20
-0.2796848187
 30
0.0
 11
0.833791915
 21
-0.278464082
 31
0.0
  0
LINE
  5
649
330
1F
100
AcDbEntity
  8
0
  6
Continuous
 62
     7
100
AcDbLine
 10
0.833791915
 20
-0.278464082
 30
0.0
 11
0.8360796091
 21
-0.2716587326
 31
0.0
  0
LINE
  5
64A
330
1F
100
AcDbEntity
  8
0
  6
Continuous
 62
     7
100
AcDbLine
 10
0.8360796091
 20
-0.2716587326
 30
0.0
 11
0.8414135764
 21
-0.2546581498
 31
0.0
  0
LINE
  5
64B
330
1F
100
AcDbEntity
  8
0
  6
Continuous
 62
     7
100
AcDbLine
 10
0.8414135764
 20
-0.2546581498
 30
0.0
 11
0.8434236005
 21
-0.2477656809
 31
0.0
  0
LINE
  5
64C
330
1F
100
AcDbEntity
  8
0
  6
Continuous
 62
     7
100
AcDbLine
 10
0.8434236005
 20
-0.2477656809
 30
0.0
 11
0.8439317772
 21
-0.2466320637
 31
0.0
  0
LINE
  5
64D
330
1F
100
AcDbEntity
  8
0
  6
Continuous
 62
     7
100
AcDbLine
 10
0.8439317772
 20
-0.2466320637
 30
0.0
 11
0.8448300324
 21
-0.2456282915
 31
0.0
  0
LINE
  5
64E
330
1F
100
AcDbEntity
  8
0
  6
Continuous
 62
     7
100
AcDbLine
 10
0.8448300324
 20
-0.2456282915
 30
0.0
 11
0.8461131609
 21
-0.2447696613
 31
0.0
  0
LINE
  5
64F
330
1F
100
AcDbEntity
  8
0
  6
Continuous
 62
     7
100
AcDbLine
 10
0.8461131609
 20
-0.2447696613
 30
0.0
 11
0.8477754987
 21
-0.2440713089
 31
0.0
  0
LINE
  5
650
330
1F
100
AcDbEntity
  8
0
  6
Continuous
 62
     7
100
AcDbLine
 10
0.8477754987
 20
-0.2440713089
 30
0.0
 11
0.8498109275
 21
-0.2435481973
 31
0.0
  0
LINE
  5
651
330
1F
100
AcDbEntity
  8
0
  6
Continuous
 62
     7
100
AcDbLine
 10
0.8498109275
 20
-0.2435481973
 30
0.0
 11
0.8522128793
 21
-0.2432151045
 31
0.0
  0
LINE
  5
652
330
1F
100
AcDbEntity
  8
0
  6
Continuous
 62
     7
100
AcDbLine
 10
0.8522128793
 20
-0.2432151045
 30
0.0
 11
0.8592857051
 21
-0.2428024271
 31
0.0
  0
LINE
  5
653
330
1F
100
AcDbEntity
  8
0
  6
Continuous
 62
     7
100
AcDbLine
 10
0.8592857051
 20
-0.2428024271
 30
0.0
 11
0.8655392349
 21
-0.2423102049
 31
0.0
  0
LINE
  5
654
330
1F
100
AcDbEntity
  8
0
  6
Continuous
 62
     7
100
AcDbLine
 10
0.8655392349
 20
-0.2423102049
 30
0.0
 11
0.8721251805
 21
-0.2416572716
 31
0.0
  0
LINE
  5
655
330
1F
100
AcDbEntity
  8
0
  6
Continuous
 62
     7
100
AcDbLine
 10
0.8721251805
 20
-0.2416572716
 30
0.0
 11
0.8790394551
 21
-0.2408299649
 31
0.0
  0
LINE
  5
656
330
1F
100
AcDbEntity
  8
0
  6
Continuous
 62
     7
100
AcDbLine
 10
0.8790394551
 20
-0.2408299649
 30
0.0
 11
0.8862775555
 21
-0.2398147251
 31
0.0
  0
LINE
  5
657
330
1F
100
AcDbEntity
  8
0
  6
Continuous
 62
     7
100
AcDbLine
 10
0.8862775555
 20
-0.2398147251
 30
0.0
 11
0.8938345636
 21
-0.2385981059
 31
0.0
  0
LINE
  5
658
330
1F
100
AcDbEntity
  8
0
  6
Continuous
 62
     7
100
AcDbLine
 10
0.8938345636
 20
-0.2385981059
 30
0.0
 11
0.9017051503
 21
-0.2371667866
 31
0.0
  0
LINE
  5
659
330
1F
100
AcDbEntity
  8
0
  6
Continuous
 62
     7
100
AcDbLine
 10
0.9017051503
 20
-0.2371667866
 30
0.0
 11
0.9098835766
 21
-0.2355075819
 31
0.0
  0
LINE
  5
65A
330
1F
100
AcDbEntity
  8
0
  6
Continuous
 62
     7
100
AcDbLine
 10
0.9098835766
 20
-0.2355075819
 30
0.0
 11
0.9183637022
 21
-0.2336074539
 31
0.0
  0
LINE
  5
65B
330
1F
100
AcDbEntity
  8
0
  6
Continuous
 62
     7
100
AcDbLine
 10
0.9183637022
 20
-0.2336074539
 30
0.0
 11
0.9271389802
 21
-0.2314535236
 31
0.0
  0
LINE
  5
65C
330
1F
100
AcDbEntity
  8
0
  6
Continuous
 62
     7
100
AcDbLine
 10
0.9271389802
 20
-0.2314535236
 30
0.0
 11
0.9362024697
 21
-0.2290330801
 31
0.0
  0
LINE
  5
65D
330
1F
100
AcDbEntity
  8
0
  6
Continuous
 62
     7
100
AcDbLine
 10
0.9362024697
 20
-0.2290330801
 30
0.0
 11
0.9455468355
 21
-0.2263335931
 31
0.0
  0
LINE
  5
65E
330
1F
100
AcDbEntity
  8
0
  6
Continuous
 62
     7
100
AcDbLine
 10
0.9455468355
 20
-0.2263335931
 30
0.0
 11
0.9551643538
 21
-0.2233427226
 31
0.0
  0
LINE
  5
65F
330
1F
100
AcDbEntity
  8
0
  6
Continuous
 62
     7
100
AcDbLine
 10
0.9551643538
 20
-0.2233427226
 30
0.0
 11
0.9650469169
 21
-0.2200483299
 31
0.0
  0
LINE
  5
660
330
1F
100
AcDbEntity
  8
0
  6
Continuous
 62
     7
100
AcDbLine
 10
0.9650469169
 20
-0.2200483299
 30
0.0
 11
0.975186038
 21
-0.2164384878
 31
0.0
  0
LINE
  5
661
330
1F
100
AcDbEntity
  8
0
  6
Continuous
 62
     7
100
AcDbLine
 10
0.975186038
 20
-0.2164384878
 30
0.0
 11
0.9753492219
 21
-0.2163766349
 31
0.0
  0
ENDSEC
  0
SECTION
  2
OBJECTS
  0
DICTIONARY
  5
C
330
0
100
AcDbDictionary
281
     1
  3
ACAD_GROUP
350
D
  3
ACAD_LAYOUT
350
1A
  3
ACAD_MLINESTYLE
350
17
  3
ACAD_PLOTSETTINGS
350
19
  3
ACAD_PLOTSTYLENAME
350
E
  3
ACAD_SCALELIST
350
47
  0
DICTIONARY
  5
D
102
{ACAD_REACTORS
330
C
102
}
330
C
100
AcDbDictionary
281
     1
  0
DICTIONARY
  5
1A
102
{ACAD_REACTORS
330
C
102
}
330
C
100
AcDbDictionary
281
     1
  3
Layout1
350
1E
  3
Layout2
350
26
  3
Model
350
22
  0
DICTIONARY
  5
17
102
{ACAD_REACTORS
330
C
102
}
330
C
100
AcDbDictionary
281
     1
  3
Standard
350
18
  0
DICTIONARY
  5
19
102
{ACAD_REACTORS
330
C
102
}
330
C
100
AcDbDictionary
281
     1
  0
ACDBDICTIONARYWDFLT
  5
E
102
{ACAD_REACTORS
330
C
102
}
330
C
100
AcDbDictionary
281
     1
  3
Normal
350
F
100
AcDbDictionaryWithDefault
340
F
  0
DICTIONARY
  5
47
102
{ACAD_REACTORS
330
C
102
}
330
C
100
AcDbDictionary
281
     1
  3
A0
350
48
  3
A1
350
49
  3
A2
350
4A
  3
A3
350
4B
  3
A4
350
4C
  3
A5
350
4D
  3
A6
350
4E
  3
A7
350
4F
  3
A8
350
50
  3
A9
350
51
  3
B0
350
52
  3
B1
350
53
  3
B2
350
54
  3
B3
350
55
  3
B4
350
56
  3
B5
350
57
  3
B6
350
58
  3
B7
350
59
  3
B8
350
5A
  3
B9
350
5B
  3
C0
350
5C
  3
C1
350
5D
  3
C2
350
5E
  3
C3
350
5F
  3
C4
350
60
  3
C5
350
61
  3
C6
350
62
  3
C7
350
63
  3
C8
350
64
  3
C9
350
65
  3
D0
350
66
  3
D1
350
67
  3
D2
350
68
  0
LAYOUT
  5
1E
102
{ACAD_REACTORS
330
1A
102
}
330
1A
100
AcDbPlotSettings
  1

  2
none_device
  4

  6

 40
0.0
 41
0.0
 42
0.0
 43
0.0
 44
0.0
 45
0.0
 46
0.0
 47
0.0
 48
0.0
 49
0.0
140
0.0
141
0.0
142
1.0
143
1.0
 70
   688
 72
     0
 73
     0
 74
     5
  7

 75
    16
147
1.0
148
0.0
149
0.0
100
AcDbLayout
  1
Layout1
 70
     1
 71
     1
 10
0.0
 20
0.0
 11
12.0
 21
9.0
 12
0.0
 22
0.0
 32
0.0
 14
1.0000000000E+20
 24
1.0000000000E+20
 34
1.0000000000E+20
 15
-1.0000000000E+20
 25
-1.0000000000E+20
 35
-1.0000000000E+20
146
0.0
 13
0.0
 23
0.0
 33
0.0
 16
1.0
 26
0.0
 36
0.0
 17
0.0
 27
1.0
 37
0.0
 76
     0
330
1B
  0
LAYOUT
  5
26
102
{ACAD_REACTORS
330
1A
102
}
330
1A
100
AcDbPlotSettings
  1

  2
none_device
  4

  6

 40
0.0
 41
0.0
 42
0.0
 43
0.0
 44
0.0
 45
0.0
 46
0.0
 47
0.0
 48
0.0
 49
0.0
140
0.0
141
0.0
142
1.0
143
1.0
 70
   688
 72
     0
 73
     0
 74
     5
  7

 75
    16
147
1.0
148
0.0
149
0.0
100
AcDbLayout
  1
Layout2
 70
     1
 71
     2
 10
0.0
 20
0.0
 11
0.0
 21
0.0
 12
0.0
 22
0.0
 32
0.0
 14
0.0
 24
0.0
 34
0.0
 15
0.0
 25
0.0
 35
0.0
146
0.0
 13
0.0
 23
0.0
 33
0.0
 16
1.0
 26
0.0
 36
0.0
 17
0.0
 27
1.0
 37
0.0
 76
     0
330
23
  0
LAYOUT
  5
22
102
{ACAD_REACTORS
330
1A
102
}
330
1A
100
AcDbPlotSettings
  1

  2
none_device
  4
ANSI_A_(11.00_x_8.50_Inches)
  6

 40
6.35
 41
19.05
 42
6.35000508
 43
19.05000254
 44
279.4
 45
215.9
 46
133.0754861394
 47
88.89999873
 48
0.0
 49
0.0
140
0.0
141
0.0
142
4.2106858899
143
1.0
 70
  1696
 72
     0
 73
     0
 74
     0
  7

 75
     0
147
0.5913241897
148
-39.4088153714
149
0.0
100
AcDbLayout
  1
Model
 70
     1
 71
     0
 10
0.0
 20
0.0
 11
12.0
 21
9.0
 12
0.0
 22
0.0
 32
0.0
 14
-0.9953941665
 24
-0.9992433798
 34
0.0
 15
1.0005275497
 25
0.9992433798
 35
0.0
146
0.0
 13
0.0
 23
0.0
 33
0.0
 16
1.0
 26
0.0
 36
0.0
 17
0.0
 27
1.0
 37
0.0
 76
     0
330
1F
331
29
  0
MLINESTYLE
  5
18
102
{ACAD_REACTORS
330
17
102
}
330
17
100
AcDbMlineStyle
  2
Standard
 70
     0
  3

 62
   256
 51
90.0
 52
90.0
 71
     2
 49
0.5
 62
   256
  6
BYLAYER
 49
-0.5
 62
   256
  6
BYLAYER
  0
ACDBPLACEHOLDER
  5
F
102
{ACAD_REACTORS
330
E
102
}
330
E
  0
SCALE
  5
48
102
{ACAD_REACTORS
330
47
102
}
330
47
100
AcDbScale
 70
     0
300
1:1
140
1.0
141
1.0
290
     1
  0
SCALE
  5
49
102
{ACAD_REACTORS
330
47
102
}
330
47
100
AcDbScale
 70
     0
300
1:2
140
1.0
141
2.0
290
     0
  0
SCALE
  5
4A
102
{ACAD_REACTORS
330
47
102
}
330
47
100
AcDbScale
 70
     0
300
1:4
140
1.0
141
4.0
290
     0
  0
SCALE
  5
4B
102
{ACAD_REACTORS
330
47
102
}
330
47
100
AcDbScale
 70
     0
300
1:5
140
1.0
141
5.0
290
     0
  0
SCALE
  5
4C
102
{ACAD_REACTORS
330
47
102
}
330
47
100
AcDbScale
 70
     0
300
1:8
140
1.0
141
8.0
290
     0
  0
SCALE
  5
4D
102
{ACAD_REACTORS
330
47
102
}
330
47
100
AcDbScale
 70
     0
300
1:10
140
1.0
141
10.0
290
     0
  0
SCALE
  5
4E
102
{ACAD_REACTORS
330
47
102
}
330
47
100
AcDbScale
 70
     0
300
1:16
140
1.0
141
16.0
290
     0
  0
SCALE
  5
4F
102
{ACAD_REACTORS
330
47
102
}
330
47
100
AcDbScale
 70
     0
300
1:20
140
1.0
141
20.0
290
     0
  0
SCALE
  5
50
102
{ACAD_REACTORS
330
47
102
}
330
47
100
AcDbScale
 70
     0
300
1:30
140
1.0
141
30.0
290
     0
  0
SCALE
  5
51
102
{ACAD_REACTORS
330
47
102
}
330
47
100
AcDbScale
 70
     0
300
1:40
140
1.0
141
40.0
290
     0
  0
SCALE
  5
52
102
{ACAD_REACTORS
330
47
102
}
330
47
100
AcDbScale
 70
     0
300
1:50
140
1.0
141
50.0
290
     0
  0
SCALE
  5
53
102
{ACAD_REACTORS
330
47
102
}
330
47
100
AcDbScale
 70
     0
300
1:100
140
1.0
141
100.0
290
     0
  0
SCALE
  5
54
102
{ACAD_REACTORS
330
47
102
}
330
47
100
AcDbScale
 70
     0
300
2:1
140
2.0
141
1.0
290
     0
  0
SCALE
  5
55
102
{ACAD_REACTORS
330
47
102
}
330
47
100
AcDbScale
 70
     0
300
4:1
140
4.0
141
1.0
290
     0
  0
SCALE
  5
56
102
{ACAD_REACTORS
330
47
102
}
330
47
100
AcDbScale
 70
     0
300
8:1
140
8.0
141
1.0
290
     0
  0
SCALE
  5
57
102
{ACAD_REACTORS
330
47
102
}
330
47
100
AcDbScale
 70
     0
300
10:1
140
10.0
141
1.0
290
     0
  0
SCALE
  5
58
102
{ACAD_REACTORS
330
47
102
}
330
47
100
AcDbScale
 70
     0
300
100:1
140
100.0
141
1.0
290
     0
  0
SCALE
  5
59
102
{ACAD_REACTORS
330
47
102
}
330
47
100
AcDbScale
 70
     0
300
1/128" = 1'-0"
140
0.0078125
141
12.0
290
     0
  0
SCALE
  5
5A
102
{ACAD_REACTORS
330
47
102
}
330
47
100
AcDbScale
 70
     0
300
1/64" = 1'-0"
140
0.015625
141
12.0
290
     0
  0
SCALE
  5
5B
102
{ACAD_REACTORS
330
47
102
}
330
47
100
AcDbScale
 70
     0
300
1/32" = 1'-0"
140
0.03125
141
12.0
290
     0
  0
SCALE
  5
5C
102
{ACAD_REACTORS
330
47
102
}
330
47
100
AcDbScale
 70
     0
300
1/16" = 1'-0"
140
0.0625
141
12.0
290
     0
  0
SCALE
  5
5D
102
{ACAD_REACTORS
330
47
102
}
330
47
100
AcDbScale
 70
     0
300
3/32" = 1'-0"
140
0.09375
141
12.0
290
     0
  0
SCALE
  5
5E
102
{ACAD_REACTORS
330
47
102
}
330
47
100
AcDbScale
 70
     0
300
1/8" = 1'-0"
140
0.125
141
12.0
290
     0
  0
SCALE
  5
5F
102
{ACAD_REACTORS
330
47
102
}
330
47
100
AcDbScale
 70
     0
300
3/16" = 1'-0"
140
0.1875
141
12.0
290
     0
  0
SCALE
  5
60
102
{ACAD_REACTORS
330
47
102
}
330
47
100
AcDbScale
 70
     0
300
1/4" = 1'-0"
140
0.25
141
12.0
290
     0
  0
SCALE
  5
61
102
{ACAD_REACTORS
330
47
102
}
330
47
100
AcDbScale
 70
     0
300
3/8" = 1'-0"
140
0.375
141
12.0
290
     0
  0
SCALE
  5
62
102
{ACAD_REACTORS
330
47
102
}
330
47
100
AcDbScale
 70
     0
300
1/2" = 1'-0"
140
0.5
141
12.0
290
     0
  0
SCALE
  5
63
102
{ACAD_REACTORS
330
47
102
}
330
47
100
AcDbScale
 70
     0
300
3/4" = 1'-0"
140
0.75
141
12.0
290
     0
  0
SCALE
  5
64
102
{ACAD_REACTORS
330
47
102
}
330
47
100
AcDbScale
 70
     0
300
1" = 1'-0"
140
1.0
141
12.0
290
     0
  0
SCALE
  5
65
102
{ACAD_REACTORS
330
47
102
}
330
47
100
AcDbScale
 70
     0
300
1-1/2" = 1'-0"
140
1.5
141
12.0
290
     0
  0
SCALE
  5
66
102
{ACAD_REACTORS
330
47
102
}
330
47
100
AcDbScale
 70
     0
300
3" = 1'-0"
140
3.0
141
12.0
290
     0
  0
SCALE
  5
67
102
{ACAD_REACTORS
330
47
102
}
330
47
100
AcDbScale
 70
     0
300
6" = 1'-0"
140
6.0
141
12.0
290
     0
  0
SCALE
  5
68
102
{ACAD_REACTORS
330
47
102
}
330
47
100
AcDbScale
 70
     0
300
1'-0" = 1'-0"
140
12.0
141
12.0
290
     0
  0
ENDSEC
  0
EOF
