  0
SECTION
  2
HEADER
  9
$ACADVER
  1
AC1032
  9
$ACADMAINTVER
 90
      251
  9
$DWGCODEPAGE
  3
ANSI_1252
  9
$REQUIREDVERSIONS
160
                 0
  9
$INSBASE
 10
0.0
 20
0.0
 30
0.0
  9
$EXTMIN
 10
1.000000000000000E+20
 20
1.000000000000000E+20
 30
1.000000000000000E+20
  9
$EXTMAX
 10
-1.000000000000000E+20
 20
-1.000000000000000E+20
 30
-1.000000000000000E+20
  9
$LIMMIN
 10
0.0
 20
0.0
  9
$LIMMAX
 10
12.0
 20
9.0
  9
$ORTHOMODE
 70
     0
  9
$REGENMODE
 70
     1
  9
$FILLMODE
 70
     1
  9
$QTEXTMODE
 70
     0
  9
$MIRRTEXT
 70
     0
  9
$LTSCALE
 40
1.0
  9
$ATTMODE
 70
     1
  9
$TEXTSIZE
 40
0.2
  9
$TRACEWID
 40
0.05
  9
$TEXTSTYLE
  7
Standard
  9
$CLAYER
  8
0
  9
$CELTYPE
  6
ByLayer
  9
$CECOLOR
 62
   256
  9
$CELTSCALE
 40
1.0
  9
$DISPSILH
 70
     0
  9
$DIMSCALE
 40
1.0
  9
$DIMASZ
 40
0.18
  9
$DIMEXO
 40
0.0625
  9
$DIMDLI
 40
0.38
  9
$DIMRND
 40
0.0
  9
$DIMDLE
 40
0.0
  9
$DIMEXE
 40
0.18
  9
$DIMTP
 40
0.0
  9
$DIMTM
 40
0.0
  9
$DIMTXT
 40
0.18
  9
$DIMCEN
 40
0.09
  9
$DIMTSZ
 40
0.0
  9
$DIMTOL
 70
     0
  9
$DIMLIM
 70
     0
  9
$DIMTIH
 70
     1
  9
$DIMTOH
 70
     1
  9
$DIMSE1
 70
     0
  9
$DIMSE2
 70
     0
  9
$DIMTAD
 70
     0
  9
$DIMZIN
 70
     0
  9
$DIMBLK
  1

  9
$DIMASO
 70
     1
  9
$DIMSHO
 70
     1
  9
$DIMPOST
  1

  9
$DIMAPOST
  1

  9
$DIMALT
 70
     0
  9
$DIMALTD
 70
     2
  9
$DIMALTF
 40
25.4
  9
$DIMLFAC
 40
1.0
  9
$DIMTOFL
 70
     0
  9
$DIMTVP
 40
0.0
  9
$DIMTIX
 70
     0
  9
$DIMSOXD
 70
     0
  9
$DIMSAH
 70
     0
  9
$DIMBLK1
  1

  9
$DIMBLK2
  1

  9
$DIMSTYLE
  2
Standard
  9
$DIMCLRD
 70
     0
  9
$DIMCLRE
 70
     0
  9
$DIMCLRT
 70
     0
  9
$DIMTFAC
 40
1.0
  9
$DIMGAP
 40
0.09
  9
$DIMJUST
 70
     0
  9
$DIMSD1
 70
     0
  9
$DIMSD2
 70
     0
  9
$DIMTOLJ
 70
     1
  9
$DIMTZIN
 70
     0
  9
$DIMALTZ
 70
     0
  9
$DIMALTTZ
 70
     0
  9
$DIMUPT
 70
     0
  9
$DIMDEC
 70
     4
  9
$DIMTDEC
 70
     4
  9
$DIMALTU
 70
     2
  9
$DIMALTTD
 70
     2
  9
$DIMTXSTY
  7
Standard
  9
$DIMAUNIT
 70
     0
  9
$DIMADEC
 70
     0
  9
$DIMALTRND
 40
0.0
  9
$DIMAZIN
 70
     0
  9
$DIMDSEP
 70
    46
  9
$DIMATFIT
 70
     3
  9
$DIMFRAC
 70
     0
  9
$DIMLDRBLK
  1

  9
$DIMLUNIT
 70
     2
  9
$DIMLWD
 70
    -2
  9
$DIMLWE
 70
    -2
  9
$DIMTMOVE
 70
     0
  9
$DIMFXL
 40
1.0
  9
$DIMFXLON
 70
     0
  9
$DIMJOGANG
 40
0.7853981633974483
  9
$DIMTFILL
 70
     0
  9
$DIMTFILLCLR
 70
     0
  9
$DIMARCSYM
 70
     0
  9
$DIMLTYPE
  6

  9
$DIMLTEX1
  6

  9
$DIMLTEX2
  6

  9
$DIMTXTDIRECTION
 70
     0
  9
$LUNITS
 70
     2
  9
$LUPREC
 70
     4
  9
$SKETCHINC
 40
0.1
  9
$FILLETRAD
 40
0.0
  9
$AUNITS
 70
     0
  9
$AUPREC
 70
     0
  9
$MENU
  1
.
  9
$ELEVATION
 40
0.0
  9
$PELEVATION
 40
0.0
  9
$THICKNESS
 40
0.0
  9
$LIMCHECK
 70
     0
  9
$CHAMFERA
 40
0.0
  9
$CHAMFERB
 40
0.0
  9
$CHAMFERC
 40
0.0
  9
$CHAMFERD
 40
0.0
  9
$SKPOLY
 70
     0
  9
$TDCREATE
 40
2460131.504826389
  9
$TDUCREATE
 40
2460131.629826389
  9
$TDUPDATE
 40
2460131.504826389
  9
$TDUUPDATE
 40
2460131.629826389
  9
$TDINDWG
 40
0.0000115741
  9
$TDUSRTIMER
 40
0.0000115741
  9
$USRTIMER
 70
     1
  9
$ANGBASE
 50
0.0
  9
$ANGDIR
 70
     0
  9
$PDMODE
 70
     0
  9
$PDSIZE
 40
0.0
  9
$PLINEWID
 40
0.0
  9
$SPLFRAME
 70
     0
  9
$SPLINETYPE
 70
     6
  9
$SPLINESEGS
 70
     8
  9
$HANDSEED
  5
39C
  9
$SURFTAB1
 70
     6
  9
$SURFTAB2
 70
     6
  9
$SURFTYPE
 70
     6
  9
$SURFU
 70
     6
  9
$SURFV
 70
     6
  9
$UCSBASE
  2

  9
$UCSNAME
  2

  9
$UCSORG
 10
0.0
 20
0.0
 30
0.0
  9
$UCSXDIR
 10
1.0
 20
0.0
 30
0.0
  9
$UCSYDIR
 10
0.0
 20
1.0
 30
0.0
  9
$UCSORTHOREF
  2

  9
$UCSORTHOVIEW
 70
     0
  9
$UCSORGTOP
 10
0.0
 20
0.0
 30
0.0
  9
$UCSORGBOTTOM
 10
0.0
 20
0.0
 30
0.0
  9
$UCSORGLEFT
 10
0.0
 20
0.0
 30
0.0
  9
$UCSORGRIGHT
 10
0.0
 20
0.0
 30
0.0
  9
$UCSORGFRONT
 10
0.0
 20
0.0
 30
0.0
  9
$UCSORGBACK
 10
0.0
 20
0.0
 30
0.0
  9
$PUCSBASE
  2

  9
$PUCSNAME
  2

  9
$PUCSORG
 10
0.0
 20
0.0
 30
0.0
  9
$PUCSXDIR
 10
1.0
 20
0.0
 30
0.0
  9
$PUCSYDIR
 10
0.0
 20
1.0
 30
0.0
  9
$PUCSORTHOREF
  2

  9
$PUCSORTHOVIEW
 70
     0
  9
$PUCSORGTOP
 10
0.0
 20
0.0
 30
0.0
  9
$PUCSORGBOTTOM
 10
0.0
 20
0.0
 30
0.0
  9
$PUCSORGLEFT
 10
0.0
 20
0.0
 30
0.0
  9
$PUCSORGRIGHT
 10
0.0
 20
0.0
 30
0.0
  9
$PUCSORGFRONT
 10
0.0
 20
0.0
 30
0.0
  9
$PUCSORGBACK
 10
0.0
 20
0.0
 30
0.0
  9
$USERI1
 70
     0
  9
$USERI2
 70
     0
  9
$USERI3
 70
     0
  9
$USERI4
 70
     0
  9
$USERI5
 70
     0
  9
$USERR1
 40
0.0
  9
$USERR2
 40
0.0
  9
$USERR3
 40
0.0
  9
$USERR4
 40
0.0
  9
$USERR5
 40
0.0
  9
$WORLDVIEW
 70
     1
  9
$SHADEDGE
 70
     3
  9
$SHADEDIF
 70
    70
  9
$TILEMODE
 70
     1
  9
$MAXACTVP
 70
    64
  9
$PINSBASE
 10
0.0
 20
0.0
 30
0.0
  9
$PLIMCHECK
 70
     0
  9
$PEXTMIN
 10
1.000000000000000E+20
 20
1.000000000000000E+20
 30
1.000000000000000E+20
  9
$PEXTMAX
 10
-1.000000000000000E+20
 20
-1.000000000000000E+20
 30
-1.000000000000000E+20
  9
$PLIMMIN
 10
0.0
 20
0.0
  9
$PLIMMAX
 10
12.0
 20
9.0
  9
$UNITMODE
 70
     0
  9
$VISRETAIN
 70
     1
  9
$PLINEGEN
 70
     0
  9
$PSLTSCALE
 70
     1
  9
$TREEDEPTH
 70
  3020
  9
$CMLSTYLE
  2
Standard
  9
$CMLJUST
 70
     0
  9
$CMLSCALE
 40
1.0
  9
$PROXYGRAPHICS
 70
     1
  9
$MEASUREMENT
 70
     0
  9
$CELWEIGHT
370
    -1
  9
$ENDCAPS
280
     0
  9
$JOINSTYLE
280
     0
  9
$LWDISPLAY
290
     1
  9
$INSUNITS
 70
     0
  9
$HYPERLINKBASE
  1

  9
$STYLESHEET
  1

  9
$XEDIT
290
     1
  9
$CEPSNTYPE
380
     0
  9
$PSTYLEMODE
290
     1
  9
$FINGERPRINTGUID
  2
{043E3699-3711-474E-B07C-F1DBFF452D69}
  9
$VERSIONGUID
  2
{64A3F179-0F3B-0249-B7F6-3FC4BE682A46}
  9
$EXTNAMES
290
     1
  9
$PSVPSCALE
 40
0.0
  9
$OLESTARTUP
290
     0
  9
$SORTENTS
280
   127
  9
$INDEXCTL
280
     0
  9
$HIDETEXT
280
     1
  9
$XCLIPFRAME
280
     2
  9
$HALOGAP
280
     0
  9
$OBSCOLOR
 70
   257
  9
$OBSLTYPE
280
     0
  9
$INTERSECTIONDISPLAY
280
     0
  9
$INTERSECTIONCOLOR
 70
   257
  9
$DIMASSOC
280
     2
  9
$PROJECTNAME
  1

  9
$CAMERADISPLAY
290
     0
  9
$LENSLENGTH
 40
50.0
  9
$CAMERAHEIGHT
 40
0.0
  9
$STEPSPERSEC
 40
2.0
  9
$STEPSIZE
 40
6.0
  9
$3DDWFPREC
 40
2.0
  9
$PSOLWIDTH
 40
0.25
  9
$PSOLHEIGHT
 40
4.0
  9
$LOFTANG1
 40
1.570796326794896
  9
$LOFTANG2
 40
1.570796326794896
  9
$LOFTMAG1
 40
0.0
  9
$LOFTMAG2
 40
0.0
  9
$LOFTPARAM
 70
     7
  9
$LOFTNORMALS
280
     1
  9
$LATITUDE
 40
37.795
  9
$LONGITUDE
 40
-122.394
  9
$NORTHDIRECTION
 40
0.0
  9
$TIMEZONE
 70
 -8000
  9
$LIGHTGLYPHDISPLAY
280
     1
  9
$TILEMODELIGHTSYNCH
280
     1
  9
$CMATERIAL
347
11
  9
$SOLIDHIST
280
     0
  9
$SHOWHIST
280
     1
  9
$DWFFRAME
280
     2
  9
$DGNFRAME
280
     0
  9
$REALWORLDSCALE
290
     1
  9
$INTERFERECOLOR
 62
     1
  9
$INTERFEREOBJVS
345
33
  9
$INTERFEREVPVS
346
30
  9
$CSHADOW
280
     0
  9
$SHADOWPLANELOCATION
 40
0.0
  0
ENDSEC
  0
SECTION
  2
CLASSES
  0
CLASS
  1
ACDBDICTIONARYWDFLT
  2
AcDbDictionaryWithDefault
  3
ObjectDBX Classes
 90
        0
 91
        1
280
     0
281
     0
  0
CLASS
  1
MATERIAL
  2
AcDbMaterial
  3
ObjectDBX Classes
 90
     1153
 91
        3
280
     0
281
     0
  0
CLASS
  1
VISUALSTYLE
  2
AcDbVisualStyle
  3
ObjectDBX Classes
 90
     4095
 91
       24
280
     0
281
     0
  0
CLASS
  1
SCALE
  2
AcDbScale
  3
ObjectDBX Classes
 90
     1153
 91
       17
280
     0
281
     0
  0
CLASS
  1
TABLESTYLE
  2
AcDbTableStyle
  3
ObjectDBX Classes
 90
     4095
 91
        1
280
     0
281
     0
  0
CLASS
  1
MLEADERSTYLE
  2
AcDbMLeaderStyle
  3
ACDB_MLEADERSTYLE_CLASS
 90
     4095
 91
        1
280
     0
281
     0
  0
CLASS
  1
ACDBSECTIONVIEWSTYLE
  2
AcDbSectionViewStyle
  3
ObjectDBX Classes
 90
     1025
 91
        1
280
     0
281
     0
  0
CLASS
  1
ACDBDETAILVIEWSTYLE
  2
AcDbDetailViewStyle
  3
ObjectDBX Classes
 90
     1025
 91
        1
280
     0
281
     0
  0
CLASS
  1
DICTIONARYVAR
  2
AcDbDictionaryVar
  3
ObjectDBX Classes
 90
        0
 91
        5
280
     0
281
     0
  0
CLASS
  1
CELLSTYLEMAP
  2
AcDbCellStyleMap
  3
ObjectDBX Classes
 90
     1152
 91
        1
280
     0
281
     0
  0
ENDSEC
  0
SECTION
  2
TABLES
  0
TABLE
  2
VPORT
  5
8
330
0
100
AcDbSymbolTable
 70
     1
  0
VPORT
  5
57
330
8
100
AcDbSymbolTableRecord
100
AcDbViewportTableRecord
  2
*Active
 70
     0
 10
0.0
 20
0.0
 11
1.0
 21
1.0
 12
0.0
 22
0.0
 13
0.0
 23
0.0
 14
1.0
 24
1.0
 15
0.0
 25
0.0
 16
0.0
 26
0.0
 36
1.0
 17
848.2986112800226
 27
1558.807677210227
 37
0.0
 40
2767.805549966358
 41
1.323529411764705
 42
50.0
 43
0.0
 44
0.0
 50
0.0
 51
0.0
 71
     0
 72
   100
 73
     1
 74
     1
 75
     0
 76
     0
 77
     0
 78
     0
281
     0
 65
     1
110
0.0
120
0.0
130
0.0
111
1.0
121
0.0
131
0.0
112
0.0
122
1.0
132
0.0
 79
     0
146
0.0
 60
     3
 61
     5
292
     1
282
     1
141
0.0
142
0.0
 63
   250
421
  3355443
  0
ENDTAB
  0
TABLE
  2
LTYPE
  5
5
330
0
100
AcDbSymbolTable
 70
     1
  0
LTYPE
  5
5B
330
5
100
AcDbSymbolTableRecord
100
AcDbLinetypeTableRecord
  2
ByBlock
 70
     0
  3

 72
    65
 73
     0
 40
0.0
  0
LTYPE
  5
5C
330
5
100
AcDbSymbolTableRecord
100
AcDbLinetypeTableRecord
  2
ByLayer
 70
     0
  3

 72
    65
 73
     0
 40
0.0
  0
LTYPE
  5
5D
330
5
100
AcDbSymbolTableRecord
100
AcDbLinetypeTableRecord
  2
Continuous
 70
     0
  3
Solid line
 72
    65
 73
     0
 40
0.0
  0
ENDTAB
  0
TABLE
  2
LAYER
  5
2
330
0
100
AcDbSymbolTable
 70
     2
  0
LAYER
  5
54
330
2
100
AcDbSymbolTableRecord
100
AcDbLayerTableRecord
  2
0
 70
     0
 62
     7
  6
Continuous
370
    -3
390
F
347
21
348
0
  0
LAYER
  5
78
330
2
100
AcDbSymbolTableRecord
100
AcDbLayerTableRecord
  2
Camada 1
 70
     0
 62
     7
  6
Continuous
370
     0
390
F
347
21
348
0
  0
ENDTAB
  0
TABLE
  2
STYLE
  5
3
330
0
100
AcDbSymbolTable
 70
     2
  0
STYLE
  5
55
330
3
100
AcDbSymbolTableRecord
100
AcDbTextStyleTableRecord
  2
Standard
 70
     0
 40
0.0
 41
1.0
 50
0.0
 71
     0
 42
0.2
  3
txt
  4

  0
STYLE
  5
5A
330
3
100
AcDbSymbolTableRecord
100
AcDbTextStyleTableRecord
  2
Annotative
 70
     0
 40
0.0
 41
1.0
 50
0.0
 71
     0
 42
0.2
  3
txt
  4

1001
AcadAnnotative
1000
AnnotativeData
1002
{
1070
     1
1070
     1
1002
}
  0
ENDTAB
  0
TABLE
  2
VIEW
  5
6
330
0
100
AcDbSymbolTable
 70
     0
  0
ENDTAB
  0
TABLE
  2
UCS
  5
7
330
0
100
AcDbSymbolTable
 70
     0
  0
ENDTAB
  0
TABLE
  2
APPID
  5
9
330
0
100
AcDbSymbolTable
 70
     2
  0
APPID
  5
56
330
9
100
AcDbSymbolTableRecord
100
AcDbRegAppTableRecord
  2
ACAD
 70
     0
  0
APPID
  5
5E
330
9
100
AcDbSymbolTableRecord
100
AcDbRegAppTableRecord
  2
AcadAnnotative
 70
     0
  0
ENDTAB
  0
TABLE
  2
DIMSTYLE
  5
A
330
0
100
AcDbSymbolTable
 70
     2
100
AcDbDimStyleTable
 71
     0
  0
DIMSTYLE
105
58
330
A
100
AcDbSymbolTableRecord
100
AcDbDimStyleTableRecord
  2
Standard
 70
     0
340
55
  0
DIMSTYLE
105
59
330
A
100
AcDbSymbolTableRecord
100
AcDbDimStyleTableRecord
  2
Annotative
 70
     0
340
55
1001
AcadAnnotative
1000
AnnotativeData
1002
{
1070
     1
1070
     1
1002
}
  0
ENDTAB
  0
TABLE
  2
BLOCK_RECORD
  5
1
330
0
100
AcDbSymbolTable
 70
     3
  0
BLOCK_RECORD
  5
70
330
1
100
AcDbSymbolTableRecord
100
AcDbBlockTableRecord
  2
*Model_Space
340
73
 70
     0
280
     1
281
     0
  0
BLOCK_RECORD
  5
6C
330
1
100
AcDbSymbolTableRecord
100
AcDbBlockTableRecord
  2
*Paper_Space
340
6F
 70
     0
280
     1
281
     0
  0
BLOCK_RECORD
  5
74
330
1
100
AcDbSymbolTableRecord
100
AcDbBlockTableRecord
  2
*Paper_Space0
340
77
 70
     0
280
     1
281
     0
  0
BLOCK_RECORD
  5
7C
330
1
100
AcDbSymbolTableRecord
100
AcDbBlockTableRecord
  2
Block_0
340
0
102
{BLKREFS
331
7D
102
}
 70
     0
280
     1
281
     0
  0
BLOCK_RECORD
  5
22F
330
1
100
AcDbSymbolTableRecord
100
AcDbBlockTableRecord
  2
Block_1
340
0
102
{BLKREFS
331
230
102
}
 70
     0
280
     1
281
     0
  0
ENDTAB
  0
ENDSEC
  0
SECTION
  2
BLOCKS
  0
BLOCK
  5
71
330
70
100
AcDbEntity
  8
0
100
AcDbBlockBegin
  2
*Model_Space
 70
     0
 10
0.0
 20
0.0
 30
0.0
  3
*Model_Space
  1

  0
ENDBLK
  5
72
330
70
100
AcDbEntity
  8
0
100
AcDbBlockEnd
  0
BLOCK
  5
6D
330
6C
100
AcDbEntity
 67
     1
  8
0
100
AcDbBlockBegin
  2
*Paper_Space
 70
     0
 10
0.0
 20
0.0
 30
0.0
  3
*Paper_Space
  1

  0
ENDBLK
  5
6E
330
6C
100
AcDbEntity
 67
     1
  8
0
100
AcDbBlockEnd
  0
BLOCK
  5
75
330
74
100
AcDbEntity
 67
     1
  8
0
100
AcDbBlockBegin
  2
*Paper_Space0
 70
     0
 10
0.0
 20
0.0
 30
0.0
  3
*Paper_Space0
  1

  0
ENDBLK
  5
76
330
74
100
AcDbEntity
 67
     1
  8
0
100
AcDbBlockEnd
  0
BLOCK
  5
7E
330
7C
100
AcDbEntity
  8
0
100
AcDbBlockBegin
  2
Block_0
 70
     0
 10
0.0
 20
0.0
 30
0.0
  3
Block_0
  1

  0
LWPOLYLINE
  5
80
330
7C
100
AcDbEntity
  8
Camada 1
 62
    18
420
        0
370
    70
100
AcDbPolyline
 90
        4
 70
     0
 43
0.0
 10
13.77061347724248
 20
1550.488393082139
 10
17.74173606314889
 20
1551.732021431917
 10
22.36679534706673
 20
1551.253882542271
 10
27.33303476294896
 20
1549.14859184495
  0
LINE
  5
81
330
7C
100
AcDbEntity
  8
Camada 1
 62
    18
420
        0
370
    70
100
AcDbLine
 10
13.77061347724248
 20
1550.488393082139
 30
0.0
 11
10.57140485609489
 21
1548.638135750221
 31
0.0
  0
LWPOLYLINE
  5
82
330
7C
100
AcDbEntity
  8
Camada 1
 62
    18
420
        0
370
    70
100
AcDbPolyline
 90
        6
 70
     0
 43
0.0
 10
-47.49978978766285
 20
1462.772489939394
 10
-49.7006693265239
 20
1465.132814002122
 10
-53.35923002833897
 20
1466.791504287048
 10
-57.85979019990918
 20
1467.461210223685
 10
-62.44338222670467
 20
1467.014609811288
 10
-66.33157029836275
 20
1465.547486573354
  0
LWPOLYLINE
  5
83
330
7C
100
AcDbEntity
  8
Camada 1
 62
    18
420
        0
370
    70
100
AcDbPolyline
 90
        6
 70
     0
 43
0.0
 10
57.99213360578687
 20
1401.881424470283
 10
55.79125406692583
 20
1404.24174853301
 10
52.12957845377696
 20
1405.900438817937
 10
47.62892094122981
 20
1406.538606277326
 10
43.04854116674687
 20
1406.123933706093
 10
39.16035309508698
 20
1404.656421104243
  0
LWPOLYLINE
  5
84
330
7C
100
AcDbEntity
  8
Camada 1
 62
    18
420
        0
370
    70
100
AcDbPolyline
 90
        3
 70
     0
 43
0.0
 10
171.2860338200753
 20
1377.321127335882
 10
166.4473110868957
 20
1377.416910859377
 10
162.2305972105632
 20
1376.045181781022
  0
LWPOLYLINE
  5
85
330
7C
100
AcDbEntity
  8
Camada 1
 62
    18
420
        0
370
    70
100
AcDbPolyline
 90
        3
 70
     0
 43
0.0
 10
-84.55097870915324
 20
1535.113969469326
 10
-87.49184437160421
 20
1538.239782992187
 10
-88.70704915546685
 20
1542.32265302217
  0
LWPOLYLINE
  5
86
330
7C
100
AcDbEntity
  8
Camada 1
 62
    18
420
        0
370
    70
100
AcDbPolyline
 90
        4
 70
     0
 43
0.0
 10
-577.8014226530249
 20
1332.665758463211
 10
-582.1106591300522
 20
1335.919283350732
 10
-584.8218487521708
 20
1339.682874969064
 10
-585.7436678248368
 20
1343.733817157883
  0
LINE
  5
87
330
7C
100
AcDbEntity
  8
Camada 1
 62
    18
420
        0
370
    70
100
AcDbLine
 10
-585.7436678248368
 20
1347.433942457801
 30
0.0
 11
-585.7436678248368
 21
1343.733817157883
 31
0.0
  0
LINE
  5
88
330
7C
100
AcDbEntity
  8
Camada 1
 62
    18
420
        0
370
    70
100
AcDbLine
 10
-66.33157029836275
 20
1465.547486573354
 30
0.0
 11
-433.9504856125504
 21
1253.306773063509
 31
0.0
  0
LINE
  5
89
330
7C
100
AcDbEntity
  8
Camada 1
 62
    18
420
        0
370
    70
100
AcDbLine
 10
-66.33157029836275
 20
1465.547486573354
 30
0.0
 11
-66.33157029836275
 21
1469.247222509354
 31
0.0
  0
LINE
  5
8A
330
7C
100
AcDbEntity
  8
Camada 1
 62
    18
420
        0
370
    70
100
AcDbLine
 10
-577.8014226530249
 20
1358.502001152473
 30
0.0
 11
-152.6407989512327
 21
1603.978818587497
 31
0.0
  0
LWPOLYLINE
  5
8B
330
7C
100
AcDbEntity
  8
Camada 1
 62
    18
420
        0
370
    70
100
AcDbPolyline
 90
        7
 70
     0
 43
0.0
 10
-577.8014226530249
 20
1358.502001152473
 10
-582.1106591300522
 20
1355.248476264952
 10
-584.8218487521708
 20
1351.484884646621
 10
-585.7436678248368
 20
1347.433942457801
 10
-584.8218487521708
 20
1343.383000268982
 10
-582.1106591300522
 20
1339.587480809486
 10
-577.8014226530249
 20
1336.365883763129
  0
LINE
  5
8C
330
7C
100
AcDbEntity
  8
Camada 1
 62
    18
420
        0
370
    70
100
AcDbLine
 10
-96.05931065257573
 20
1593.453143828718
 30
0.0
 11
-114.2818339746982
 21
1603.978818587497
 31
0.0
  0
LWPOLYLINE
  5
8D
330
7C
100
AcDbEntity
  8
Camada 1
 62
    18
420
        0
370
    70
100
AcDbPolyline
 90
        7
 70
     0
 43
0.0
 10
-114.2818339746982
 20
1603.978818587497
 10
-119.8988951772608
 20
1606.466854014887
 10
-126.4408903638204
 20
1608.029760776316
 10
-133.4613164629654
 20
1608.540216871043
 10
-140.4818399030901
 20
1608.029760776316
 10
-147.0238350896515
 20
1606.466854014887
 10
-152.6407989512327
 20
1603.978818587497
  0
LINE
  5
8E
330
7C
100
AcDbEntity
  8
Camada 1
 62
    18
420
        0
370
    70
100
AcDbLine
 10
-88.70704915546685
 20
1542.32265302217
 30
0.0
 11
-552.226589163305
 21
1274.709328833886
 31
0.0
  0
LINE
  5
8F
330
7C
100
AcDbEntity
  8
Camada 1
 62
    18
420
        0
370
    70
100
AcDbLine
 10
-88.70704915546685
 20
1542.32265302217
 30
0.0
 11
-88.70704915546685
 21
1580.726394849121
 31
0.0
  0
LWPOLYLINE
  5
90
330
7C
100
AcDbEntity
  8
Camada 1
 62
    18
420
        0
370
    70
100
AcDbPolyline
 90
        4
 70
     0
 43
0.0
 10
-88.70704915546685
 20
1580.726394849121
 10
-89.69272391046434
 20
1585.542826498072
 10
-92.38478603017666
 20
1590.199618941197
 10
-96.05931065257573
 20
1593.453143828718
  0
LINE
  5
91
330
7C
100
AcDbEntity
  8
Camada 1
 62
    18
420
        0
370
    70
100
AcDbLine
 10
-559.5788506604121
 20
1325.839819640433
 30
0.0
 11
-96.05931065257573
 21
1593.453143828718
 31
0.0
  0
LINE
  5
92
330
7C
100
AcDbEntity
  8
Camada 1
 62
    18
420
        0
370
    70
100
AcDbLine
 10
-88.70704915546685
 20
1580.726394849121
 30
0.0
 11
-552.226589163305
 21
1313.113070660836
 31
0.0
  0
LWPOLYLINE
  5
93
330
7C
100
AcDbEntity
  8
Camada 1
 62
    18
420
        0
370
    70
100
AcDbPolyline
 90
        3
 70
     0
 43
0.0
 10
-433.9504856125504
 20
1253.306773063509
 10
-435.6729342388271
 20
1252.030827508651
 10
-436.7988773447996
 20
1250.531776429551
  0
LINE
  5
94
330
7C
100
AcDbEntity
  8
Camada 1
 62
    18
420
        0
370
    70
100
AcDbLine
 10
-433.9504856125504
 20
1257.006898363427
 30
0.0
 11
-433.9504856125504
 21
1253.306773063509
 31
0.0
  0
LINE
  5
95
330
7C
100
AcDbEntity
  8
Camada 1
 62
    18
420
        0
370
    70
100
AcDbLine
 10
-559.5788506604121
 20
1325.839819640433
 30
0.0
 11
-577.8014226530249
 21
1336.365883763129
 31
0.0
  0
LINE
  5
96
330
7C
100
AcDbEntity
  8
Camada 1
 62
    18
420
        0
370
    70
100
AcDbLine
 10
-577.8014226530249
 20
1336.365883763129
 30
0.0
 11
-577.8014226530249
 21
1332.665758463211
 31
0.0
  0
LINE
  5
97
330
7C
100
AcDbEntity
  8
Camada 1
 62
    18
420
        0
370
    70
100
AcDbLine
 10
-559.5788506604121
 20
1322.139694340515
 30
0.0
 11
-577.8014226530249
 21
1332.665758463211
 31
0.0
  0
LWPOLYLINE
  5
98
330
7C
100
AcDbEntity
  8
Camada 1
 62
    18
420
        0
370
    70
100
AcDbPolyline
 90
        3
 70
     0
 43
0.0
 10
-555.4226828731198
 20
1314.931010787671
 10
-556.641099909295
 20
1319.045808658821
 10
-559.5788506604121
 20
1322.139694340515
  0
LINE
  5
99
330
7C
100
AcDbEntity
  8
Camada 1
 62
    18
420
        0
370
    70
100
AcDbLine
 10
-555.4226828731198
 20
1276.559586165803
 30
0.0
 11
-555.4226828731198
 21
1314.931010787671
 31
0.0
  0
LWPOLYLINE
  5
9A
330
7C
100
AcDbEntity
  8
Camada 1
 62
    18
420
        0
370
    70
100
AcDbPolyline
 90
        3
 70
     0
 43
0.0
 10
-550.6764340701456
 20
1265.873882837281
 10
-554.121331322699
 20
1270.977665056721
 10
-555.4226828731198
 20
1276.559586165803
  0
LWPOLYLINE
  5
9B
330
7C
100
AcDbEntity
  8
Camada 1
 62
    18
420
        0
370
    70
100
AcDbPolyline
 90
        3
 70
     0
 43
0.0
 10
-548.0705187169896
 20
1267.500645281042
 10
-551.008172127129
 20
1270.626848167819
 10
-552.226589163305
 20
1274.709328833886
  0
LINE
  5
9C
330
7C
100
AcDbEntity
  8
Camada 1
 62
    18
420
        0
370
    70
100
AcDbLine
 10
-552.226589163305
 20
1274.709328833886
 30
0.0
 11
-552.226589163305
 21
1313.113070660836
 31
0.0
  0
LWPOLYLINE
  5
9D
330
7C
100
AcDbEntity
  8
Camada 1
 62
    18
420
        0
370
    70
100
AcDbPolyline
 90
        4
 70
     0
 43
0.0
 10
-552.226589163305
 20
1313.113070660836
 10
-553.2122639183008
 20
1317.929502309787
 10
-555.904326038014
 20
1322.586294752912
 10
-559.5788506604121
 20
1325.839819640433
  0
LWPOLYLINE
  5
9E
330
7C
100
AcDbEntity
  8
Camada 1
 62
    18
420
        0
370
    70
100
AcDbPolyline
 90
        4
 70
     0
 43
0.0
 10
-548.0705187169896
 20
1226.896218597191
 10
-555.2568138446276
 20
1232.318889864365
 10
-559.7734352777588
 20
1238.602444751251
 10
-561.3108387026486
 20
1245.364527891698
  0
LINE
  5
9F
330
7C
100
AcDbEntity
  8
Camada 1
 62
    18
420
        0
370
    70
100
AcDbLine
 10
-561.3108387026486
 20
1249.064653191616
 30
0.0
 11
-561.3108387026486
 21
1245.364527891698
 31
0.0
  0
LINE
  5
A0
330
7C
100
AcDbEntity
  8
Camada 1
 62
    18
420
        0
370
    70
100
AcDbLine
 10
-548.0705187169896
 20
1226.896218597191
 30
0.0
 11
-534.0072780934942
 21
1218.79472358347
 31
0.0
  0
LINE
  5
A1
330
7C
100
AcDbEntity
  8
Camada 1
 62
    18
420
        0
370
    70
100
AcDbLine
 10
-548.0705187169896
 20
1230.596343897109
 30
0.0
 11
-548.0705187169896
 21
1226.896218597191
 31
0.0
  0
LINE
  5
A2
330
7C
100
AcDbEntity
  8
Camada 1
 62
    18
420
        0
370
    70
100
AcDbLine
 10
39.16035309508698
 20
1404.656421104243
 30
0.0
 11
-328.4585622191016
 21
1192.384169117151
 31
0.0
  0
LINE
  5
A3
330
7C
100
AcDbEntity
  8
Camada 1
 62
    18
420
        0
370
    70
100
AcDbLine
 10
39.16035309508698
 20
1404.656421104243
 30
0.0
 11
39.16035309508698
 21
1408.324618562996
 31
0.0
  0
LWPOLYLINE
  5
A4
330
7C
100
AcDbEntity
  8
Camada 1
 62
    18
420
        0
370
    70
100
AcDbPolyline
 90
        4
 70
     0
 43
0.0
 10
-525.1910082697841
 20
1239.336006370217
 10
-521.2198856838776
 20
1240.548096242747
 10
-516.5916141476473
 20
1240.10149583035
 10
-511.6284896430989
 20
1237.996205133027
  0
LINE
  5
A5
330
7C
100
AcDbEntity
  8
Camada 1
 62
    18
420
        0
370
    70
100
AcDbLine
 10
-525.1910082697841
 20
1239.336006370217
 30
0.0
 11
-528.3870046386209
 21
1237.486138402218
 31
0.0
  0
LWPOLYLINE
  5
A6
330
7C
100
AcDbEntity
  8
Camada 1
 62
    18
420
        0
370
    70
100
AcDbPolyline
 90
        3
 70
     0
 43
0.0
 10
-328.4585622191016
 20
1192.384169117151
 10
-330.1842230976908
 20
1191.108223562291
 10
-331.3069539513481
 20
1189.641100324357
  0
LINE
  5
A7
330
7C
100
AcDbEntity
  8
Camada 1
 62
    18
420
        0
370
    70
100
AcDbLine
 10
-328.4585622191016
 20
1196.083905053153
 30
0.0
 11
-328.4585622191016
 21
1192.384169117151
 31
0.0
  0
LINE
  5
A8
330
7C
100
AcDbEntity
  8
Camada 1
 62
    18
420
        0
370
    70
100
AcDbLine
 10
162.2305972105632
 20
1376.045181781022
 30
0.0
 11
-278.9102516878584
 21
1121.350173619326
 31
0.0
  0
LINE
  5
A9
330
7C
100
AcDbEntity
  8
Camada 1
 62
    18
420
        0
370
    70
100
AcDbLine
 10
162.2305972105632
 20
1376.045181781022
 30
0.0
 11
162.2305972105632
 21
1379.713379239774
 31
0.0
  0
LWPOLYLINE
  5
AA
330
7C
100
AcDbEntity
  8
Camada 1
 62
    18
420
        0
370
    70
100
AcDbPolyline
 90
        3
 70
     0
 43
0.0
 10
-278.9102516878584
 20
1121.350173619326
 10
-280.0234431255585
 20
1120.552756318028
 10
-280.8560005203335
 20
1119.659555493235
  0
LINE
  5
AB
330
7C
100
AcDbEntity
  8
Camada 1
 62
    18
420
        0
370
    70
100
AcDbLine
 10
-278.9102516878584
 20
1125.018371078079
 30
0.0
 11
-278.9102516878584
 21
1121.350173619326
 31
0.0
  0
LWPOLYLINE
  5
AC
330
7C
100
AcDbEntity
  8
Camada 1
 62
    18
420
        0
370
    70
100
AcDbPolyline
 90
        3
 70
     0
 43
0.0
 10
0.7981758662399443
 20
1522.769965219794
 10
3.739041528690904
 20
1525.86385090149
 10
4.954343653533214
 20
1529.946720931474
  0
LINE
  5
AD
330
7C
100
AcDbEntity
  8
Camada 1
 62
    18
420
        0
370
    70
100
AcDbLine
 10
1139.778061834959
 20
906.8768474114158
 30
0.0
 11
27.33303476294896
 21
1549.14859184495
 31
0.0
  0
LINE
  5
AE
330
7C
100
AcDbEntity
  8
Camada 1
 62
    18
420
        0
370
    70
100
AcDbLine
 10
27.33303476294896
 20
1549.14859184495
 30
0.0
 11
24.13382614179955
 21
1547.298723876948
 31
0.0
  0
LINE
  5
AF
330
7C
100
AcDbEntity
  8
Camada 1
 62
    18
420
        0
370
    70
100
AcDbLine
 10
1158.957544323226
 20
867.388727076598
 30
0.0
 11
1158.957544323226
 21
873.6722819634842
 31
0.0
  0
LWPOLYLINE
  5
B0
330
7C
100
AcDbEntity
  8
Camada 1
 62
    18
420
        0
370
    70
100
AcDbPolyline
 90
        3
 70
     0
 43
0.0
 10
1151.605380167096
 20
858.330175555754
 10
1154.542936236256
 20
861.4559890786139
 10
1155.761450613411
 20
865.5388591085984
  0
LWPOLYLINE
  5
B1
330
7C
100
AcDbEntity
  8
Camada 1
 62
    18
420
        0
370
    70
100
AcDbPolyline
 90
        3
 70
     0
 43
0.0
 10
1154.294327375476
 20
856.7988072715724
 10
1157.681598768367
 20
861.8706616498448
 10
1158.957544323226
 20
867.388727076598
  0
LWPOLYLINE
  5
B2
330
7C
100
AcDbEntity
  8
Camada 1
 62
    18
420
        0
370
    70
100
AcDbPolyline
 90
        7
 70
     0
 43
0.0
 10
1139.778061834959
 20
906.8768474114158
 10
1144.741088998528
 20
903.2725056349946
 10
1149.366148282447
 20
898.392218303713
 10
1153.340580461644
 20
892.5552638292238
 10
1156.38657438159
 20
886.2078532600079
 10
1158.303607625214
 20
879.7646591672956
 10
1158.957544323226
 20
873.6722819634842
  0
LINE
  5
B3
330
7C
100
AcDbEntity
  8
Camada 1
 62
    18
420
        0
370
    70
100
AcDbLine
 10
1136.578853213809
 20
905.0265900794993
 30
0.0
 11
1139.778061834959
 21
906.8768474114158
 31
0.0
  0
LINE
  5
B4
330
7C
100
AcDbEntity
  8
Camada 1
 62
    18
420
        0
370
    70
100
AcDbLine
 10
1158.957544323226
 20
873.6722819634842
 30
0.0
 11
1155.761450613411
 21
871.8224139954845
 31
0.0
  0
LINE
  5
B5
330
7C
100
AcDbEntity
  8
Camada 1
 62
    18
420
        0
370
    70
100
AcDbLine
 10
1155.761450613411
 20
865.5388591085984
 30
0.0
 11
1155.761450613411
 21
871.8224139954845
 31
0.0
  0
LWPOLYLINE
  5
B6
330
7C
100
AcDbEntity
  8
Camada 1
 62
    18
420
        0
370
    70
100
AcDbPolyline
 90
        7
 70
     0
 43
0.0
 10
1155.761450613411
 20
871.8224139954845
 10
1155.107513915398
 20
877.914401835379
 10
1153.190675353733
 20
884.3895237692549
 10
1150.141371840495
 20
890.7050064973054
 10
1146.170054572631
 20
896.5423503357115
 10
1141.545189970671
 20
901.422637666994
 10
1136.578853213809
 20
905.0265900794993
  0
LINE
  5
B7
330
7C
100
AcDbEntity
  8
Camada 1
 62
    18
420
        0
370
    70
100
AcDbLine
 10
1136.578853213809
 20
905.0265900794993
 30
0.0
 11
24.13382614179955
 21
1547.298723876948
 31
0.0
  0
LWPOLYLINE
  5
B8
330
7C
100
AcDbEntity
  8
Camada 1
 62
    18
420
        0
370
    70
100
AcDbPolyline
 90
        7
 70
     0
 43
0.0
 10
24.13382614179955
 20
1547.298723876948
 10
19.17070163725111
 20
1549.435553051519
 10
14.54564235333328
 20
1549.882153463915
 10
10.57140485609489
 20
1548.638135750221
 10
7.525216254189217
 20
1545.831211275096
 10
5.608280351544635
 20
1541.589091403204
 10
4.954343653533214
 20
1536.23027581836
  0
LINE
  5
B9
330
7C
100
AcDbEntity
  8
Camada 1
 62
    18
420
        0
370
    70
100
AcDbLine
 10
4.954343653533214
 20
1529.946720931474
 30
0.0
 11
4.954343653533214
 21
1536.23027581836
 31
0.0
  0
LINE
  5
BA
330
7C
100
AcDbEntity
  8
Camada 1
 62
    18
420
        0
370
    70
100
AcDbLine
 10
1155.761450613411
 20
865.5388591085984
 30
0.0
 11
4.954343653533214
 21
1529.946720931474
 31
0.0
  0
LINE
  5
BB
330
7C
100
AcDbEntity
  8
Camada 1
 62
    18
420
        0
370
    70
100
AcDbLine
 10
473.0926157816429
 20
1203.930756065385
 30
0.0
 11
816.9229532442287
 21
1005.437703724593
 31
0.0
  0
LWPOLYLINE
  5
BC
330
7C
100
AcDbEntity
  8
Camada 1
 62
    18
420
        0
370
    70
100
AcDbPolyline
 90
        4
 70
     0
 43
0.0
 10
1210.697194977372
 20
828.8257354077396
 10
1209.772066311412
 20
824.7747932189195
 10
1207.060925359783
 20
820.9788843955065
 10
1202.751640212267
 20
817.7253595079855
  0
LINE
  5
BD
330
7C
100
AcDbEntity
  8
Camada 1
 62
    18
420
        0
370
    70
100
AcDbLine
 10
1210.697194977372
 20
828.8257354077396
 30
0.0
 11
1210.697194977372
 21
832.4935435025762
 31
0.0
  0
LWPOLYLINE
  5
BE
330
7C
100
AcDbEntity
  8
Camada 1
 62
    18
420
        0
370
    70
100
AcDbPolyline
 90
        3
 70
     0
 43
0.0
 10
-531.8509807230912
 20
1214.041758252932
 10
-533.4458153256855
 20
1215.860087743685
 10
-534.0072780934942
 20
1218.79472358347
  0
LINE
  5
BF
330
7C
100
AcDbEntity
  8
Camada 1
 62
    18
420
        0
370
    70
100
AcDbLine
 10
-531.8509807230912
 20
1214.041758252932
 30
0.0
 11
618.9528166434956
 21
549.6019685888931
 31
0.0
  0
LINE
  5
C0
330
7C
100
AcDbEntity
  8
Camada 1
 62
    18
420
        0
370
    70
100
AcDbLine
 10
-511.6284896430989
 20
1237.996205133027
 30
0.0
 11
600.8164400879323
 21
595.7244606994972
 31
0.0
  0
LINE
  5
C1
330
7C
100
AcDbEntity
  8
Camada 1
 62
    18
420
        0
370
    70
100
AcDbLine
 10
-511.6284896430989
 20
1237.996205133027
 30
0.0
 11
-514.8245833529144
 21
1236.146337165027
 31
0.0
  0
LINE
  5
C2
330
7C
100
AcDbEntity
  8
Camada 1
 62
    18
420
        0
370
    70
100
AcDbLine
 10
619.9959225762004
 20
556.2044125235115
 30
0.0
 11
619.9959225762004
 21
562.4883567743126
 31
0.0
  0
LWPOLYLINE
  5
C3
330
7C
100
AcDbEntity
  8
Camada 1
 62
    18
420
        0
370
    70
100
AcDbPolyline
 90
        4
 70
     0
 43
0.0
 10
624.151993022513
 20
550.1124246836188
 10
620.4775657410955
 20
549.1553681764962
 10
617.7855036213823
 20
550.6863470967582
 10
616.7998288663848
 20
554.3864723966762
  0
LWPOLYLINE
  5
C4
330
7C
100
AcDbEntity
  8
Camada 1
 62
    18
420
        0
370
    70
100
AcDbPolyline
 90
        3
 70
     0
 43
0.0
 10
624.151993022513
 20
553.8121606196182
 10
621.2144369533534
 20
553.5251994130485
 10
619.9959225762004
 20
556.2044125235115
  0
LINE
  5
C5
330
7C
100
AcDbEntity
  8
Camada 1
 62
    18
420
        0
370
    70
100
AcDbLine
 10
624.151993022513
 20
550.1124246836188
 30
0.0
 11
645.5707073954317
 21
537.7684204340876
 31
0.0
  0
LINE
  5
C6
330
7C
100
AcDbEntity
  8
Camada 1
 62
    18
420
        0
370
    70
100
AcDbLine
 10
624.151993022513
 20
550.1124246836188
 30
0.0
 11
624.151993022513
 21
553.8121606196182
 31
0.0
  0
LINE
  5
C7
330
7C
100
AcDbEntity
  8
Camada 1
 62
    18
420
        0
370
    70
100
AcDbLine
 10
714.703633570215
 20
537.2579643393582
 30
0.0
 11
770.0571654167397
 21
569.2185120735957
 31
0.0
  0
LINE
  5
C8
330
7C
100
AcDbEntity
  8
Camada 1
 62
    18
420
        0
370
    70
100
AcDbLine
 10
-514.8245833529144
 20
1236.146337165027
 30
0.0
 11
597.6203463781167
 21
593.8745927314958
 31
0.0
  0
LWPOLYLINE
  5
C9
330
7C
100
AcDbEntity
  8
Camada 1
 62
    18
420
        0
370
    70
100
AcDbPolyline
 90
        7
 70
     0
 43
0.0
 10
-514.8245833529144
 20
1236.146337165027
 10
-519.7909201097754
 20
1238.25162786235
 10
-524.4158820527145
 20
1238.698228274748
 10
-528.3870046386209
 20
1237.486138402218
 10
-531.4364054928383
 20
1234.647286085928
 10
-533.3533413954819
 20
1230.436704691282
 10
-534.0072780934942
 20
1225.078278470356
  0
LINE
  5
CA
330
7C
100
AcDbEntity
  8
Camada 1
 62
    18
420
        0
370
    70
100
AcDbLine
 10
-534.0072780934942
 20
1218.79472358347
 30
0.0
 11
-534.0072780934942
 21
1225.078278470356
 31
0.0
  0
LINE
  5
CB
330
7C
100
AcDbEntity
  8
Camada 1
 62
    18
420
        0
370
    70
100
AcDbLine
 10
-534.0072780934942
 20
1218.79472358347
 30
0.0
 11
616.7998288663848
 21
554.3864723966762
 31
0.0
  0
LINE
  5
CC
330
7C
100
AcDbEntity
  8
Camada 1
 62
    18
420
        0
370
    70
100
AcDbLine
 10
616.7998288663848
 20
554.3864723966762
 30
0.0
 11
616.7998288663848
 21
560.6380994423998
 31
0.0
  0
LWPOLYLINE
  5
CD
330
7C
100
AcDbEntity
  8
Camada 1
 62
    18
420
        0
370
    70
100
AcDbPolyline
 90
        7
 70
     0
 43
0.0
 10
616.7998288663848
 20
560.6380994423998
 10
616.146086850329
 20
566.7624044873737
 10
614.2290536067076
 20
573.2055985800834
 10
611.1828650048019
 20
579.5530091493019
 10
607.2086275075634
 20
585.3580357826249
 10
602.5835682236438
 20
590.2383231139065
 10
597.6203463781167
 20
593.8745927314958
  0
LINE
  5
CE
330
7C
100
AcDbEntity
  8
Camada 1
 62
    18
420
        0
370
    70
100
AcDbLine
 10
619.9959225762004
 20
562.4883567743126
 30
0.0
 11
616.7998288663848
 21
560.6380994423998
 31
0.0
  0
LWPOLYLINE
  5
CF
330
7C
100
AcDbEntity
  8
Camada 1
 62
    18
420
        0
370
    70
100
AcDbPolyline
 90
        7
 70
     0
 43
0.0
 10
600.8164400879323
 20
595.7244606994972
 10
605.7796619334594
 20
592.088191081908
 10
610.407836128711
 20
587.2082931145414
 10
614.3789587146175
 20
581.4028771173034
 10
617.428262227856
 20
575.0554665480849
 10
619.3419858781871
 20
568.6122724553752
 10
619.9959225762004
 20
562.4883567743126
  0
LINE
  5
D0
330
7C
100
AcDbEntity
  8
Camada 1
 62
    18
420
        0
370
    70
100
AcDbLine
 10
597.6203463781167
 20
593.8745927314958
 30
0.0
 11
600.8164400879323
 21
595.7244606994972
 31
0.0
  0
LINE
  5
D1
330
7C
100
AcDbEntity
  8
Camada 1
 62
    18
420
        0
370
    70
100
AcDbLine
 10
645.5707073954317
 20
537.7684204340876
 30
0.0
 11
645.5707073954317
 21
541.4681563700869
 31
0.0
  0
LWPOLYLINE
  5
D2
330
7C
100
AcDbEntity
  8
Camada 1
 62
    18
420
        0
370
    70
100
AcDbPolyline
 90
        8
 70
     0
 43
0.0
 10
709.5044571911976
 20
537.7684204340876
 10
701.5877153559268
 20
534.1321508164983
 10
692.468423064085
 20
531.5802597067813
 10
682.5996052326918
 20
530.2725809927141
 10
672.4755593539367
 20
530.2725809927141
 10
662.6067415225452
 20
531.5802597067813
 10
653.4843343193697
 20
534.1321508164983
 10
645.5707073954317
 20
537.7684204340876
  0
LINE
  5
D3
330
7C
100
AcDbEntity
  8
Camada 1
 62
    18
420
        0
370
    70
100
AcDbLine
 10
-66.33157029836275
 20
1469.247222509354
 30
0.0
 11
-433.9504856125504
 21
1257.006898363427
 31
0.0
  0
LWPOLYLINE
  5
D4
330
7C
100
AcDbEntity
  8
Camada 1
 62
    18
420
        0
370
    70
100
AcDbPolyline
 90
        8
 70
     0
 43
0.0
 10
-66.33157029836275
 20
1469.247222509354
 10
-62.07338916490789
 20
1470.778590793537
 10
-57.07512456688164
 20
1471.097479841272
 10
-52.32576085257278
 20
1470.140423334148
 10
-48.76921349691929
 20
1468.098988319156
 10
-47.1074083006606
 20
1465.355919526362
 10
-47.67198597980132
 20
1462.485139368907
 10
-50.34818151991203
 20
1459.997493305434
  0
LINE
  5
D5
330
7C
100
AcDbEntity
  8
Camada 1
 62
    18
420
        0
370
    70
100
AcDbLine
 10
-417.9670968340988
 20
1247.756779795591
 30
0.0
 11
-50.34818151991203
 21
1459.997493305434
 31
0.0
  0
LWPOLYLINE
  5
D6
330
7C
100
AcDbEntity
  8
Camada 1
 62
    18
420
        0
370
    70
100
AcDbPolyline
 90
        8
 70
     0
 43
0.0
 10
-417.9670968340988
 20
1247.756779795591
 10
-422.2252779675545
 20
1246.225800875328
 10
-427.2235425655808
 20
1245.906911827591
 10
-431.9696940275771
 20
1246.863578970798
 10
-435.5262413832305
 20
1248.90501398579
 10
-437.1880465794893
 20
1251.648082778584
 10
-436.6266811526602
 20
1254.550790777205
 10
-433.9504856125504
 20
1257.006898363427
  0
LWPOLYLINE
  5
D7
330
7C
100
AcDbEntity
  8
Camada 1
 62
    18
420
        0
370
    70
100
AcDbPolyline
 90
        8
 70
     0
 43
0.0
 10
39.16035309508698
 20
1408.324618562996
 10
43.41853422854183
 20
1409.887525324427
 10
48.41679882656809
 20
1410.206414372161
 10
53.16304762954406
 20
1409.249747228954
 10
56.71949764421788
 20
1407.176384372798
 10
58.38130284047747
 20
1404.465243421168
 10
57.8199374136484
 20
1401.562535422548
 10
55.14383921451827
 20
1399.106427836325
  0
LINE
  5
D8
330
7C
100
AcDbEntity
  8
Camada 1
 62
    18
420
        0
370
    70
100
AcDbLine
 10
-312.4751734406491
 20
1186.866103690398
 30
0.0
 11
55.14383921451827
 21
1399.106427836325
 31
0.0
  0
LWPOLYLINE
  5
D9
330
7C
100
AcDbEntity
  8
Camada 1
 62
    18
420
        0
370
    70
100
AcDbPolyline
 90
        8
 70
     0
 43
0.0
 10
-312.4751734406491
 20
1186.866103690398
 10
-316.733354574104
 20
1185.303196928967
 10
-321.7315218311524
 20
1184.983918517315
 10
-326.480982886439
 20
1185.940975024439
 10
-330.0374329011129
 20
1188.014337880596
 10
-331.6992380973725
 20
1190.757406673389
 10
-331.1347577592105
 20
1193.628186830845
 10
-328.4585622191016
 20
1196.083905053153
  0
LINE
  5
DA
330
7C
100
AcDbEntity
  8
Camada 1
 62
    18
420
        0
370
    70
100
AcDbLine
 10
39.16035309508698
 20
1408.324618562996
 30
0.0
 11
-328.4585622191016
 21
1196.083905053153
 31
0.0
  0
LINE
  5
DB
330
7C
100
AcDbEntity
  8
Camada 1
 62
    18
420
        0
370
    70
100
AcDbLine
 10
0.7981758662399443
 20
1522.769965219794
 30
0.0
 11
-20.61722891338559
 21
1535.113969469326
 31
0.0
  0
LWPOLYLINE
  5
DC
330
7C
100
AcDbEntity
  8
Camada 1
 62
    18
420
        0
370
    70
100
AcDbPolyline
 90
        8
 70
     0
 43
0.0
 10
-20.61722891338559
 20
1535.113969469326
 10
-28.53397074865734
 20
1538.782166928079
 10
-37.65326304049995
 20
1541.302130196633
 10
-47.52208087189138
 20
1542.609614228741
 10
-57.64612675064745
 20
1542.609614228741
 10
-67.51815683435143
 20
1541.302130196633
 10
-76.63735178521529
 20
1538.782166928079
 10
-84.55097870915324
 20
1535.113969469326
  0
LINE
  5
DD
330
7C
100
AcDbEntity
  8
Camada 1
 62
    18
420
        0
370
    70
100
AcDbLine
 10
-84.55097870915324
 20
1535.113969469326
 30
0.0
 11
-548.0705187169896
 21
1267.500645281042
 31
0.0
  0
LWPOLYLINE
  5
DE
330
7C
100
AcDbEntity
  8
Camada 1
 62
    18
420
        0
370
    70
100
AcDbPolyline
 90
        8
 70
     0
 43
0.0
 10
-548.0705187169896
 20
1267.500645281042
 10
-554.3828865337082
 20
1262.939636361412
 10
-558.7750088544908
 20
1257.676604300064
 10
-561.0268950664313
 20
1251.966971826319
 10
-561.0268950664313
 20
1246.130017351831
 10
-558.7750088544908
 20
1240.452312719251
 10
-554.3828865337082
 20
1235.157352816738
 10
-548.0705187169896
 20
1230.596343897109
  0
LINE
  5
DF
330
7C
100
AcDbEntity
  8
Camada 1
 62
    18
420
        0
370
    70
100
AcDbLine
 10
-548.0705187169896
 20
1230.596343897109
 30
0.0
 11
-534.0072780934942
 21
1222.494459519471
 31
0.0
  0
LINE
  5
E0
330
7C
100
AcDbEntity
  8
Camada 1
 62
    18
420
        0
370
    70
100
AcDbLine
 10
619.9799586556173
 20
556.2363403646777
 30
0.0
 11
624.151993022513
 21
553.8121606196182
 31
0.0
  0
LINE
  5
E1
330
7C
100
AcDbEntity
  8
Camada 1
 62
    18
420
        0
370
    70
100
AcDbLine
 10
624.151993022513
 20
553.8121606196182
 30
0.0
 11
645.5707073954317
 21
541.4681563700869
 31
0.0
  0
LWPOLYLINE
  5
E2
330
7C
100
AcDbEntity
  8
Camada 1
 62
    18
420
        0
370
    70
100
AcDbPolyline
 90
        8
 70
     0
 43
0.0
 10
645.5707073954317
 20
541.4681563700869
 10
653.4843343193697
 20
537.8003482752538
 10
662.6067415225452
 20
535.2803850066993
 10
672.4755593539367
 20
533.972511610671
 10
682.5996052326918
 20
533.972511610671
 10
692.468423064085
 20
535.2803850066993
 10
701.5877153559268
 20
537.8003482752538
 10
709.5044571911976
 20
541.4681563700869
  0
LINE
  5
E3
330
7C
100
AcDbEntity
  8
Camada 1
 62
    18
420
        0
370
    70
100
AcDbLine
 10
709.5044571911976
 20
541.4681563700869
 30
0.0
 11
713.6605276375121
 21
543.8604082739803
 31
0.0
  0
LINE
  5
E4
330
7C
100
AcDbEntity
  8
Camada 1
 62
    18
420
        0
370
    70
100
AcDbLine
 10
1168.698845471916
 20
848.4738173696941
 30
0.0
 11
1151.605380167096
 21
858.330175555754
 31
0.0
  0
LINE
  5
E5
330
7C
100
AcDbEntity
  8
Camada 1
 62
    18
420
        0
370
    70
100
AcDbLine
 10
1151.605380167096
 20
858.330175555754
 30
0.0
 11
0.7981758662399443
 21
1522.769965219794
 31
0.0
  0
LINE
  5
E6
330
7C
100
AcDbEntity
  8
Camada 1
 62
    18
420
        0
370
    70
100
AcDbLine
 10
162.2305972105632
 20
1379.713379239774
 30
0.0
 11
-278.9102516878584
 21
1125.018371078079
 31
0.0
  0
LWPOLYLINE
  5
E7
330
7C
100
AcDbEntity
  8
Camada 1
 62
    18
420
        0
370
    70
100
AcDbPolyline
 90
        3
 70
     0
 43
0.0
 10
162.2305972105632
 20
1379.713379239774
 10
166.6067556107627
 20
1381.116646795379
 10
171.5985957041648
 20
1380.957396953469
  0
LINE
  5
E8
330
7C
100
AcDbEntity
  8
Camada 1
 62
    18
420
        0
370
    70
100
AcDbLine
 10
435.7000520462324
 20
1229.224614818753
 30
0.0
 11
863.6292965478478
 21
982.1529627811351
 31
0.0
  0
LWPOLYLINE
  5
E9
330
7C
100
AcDbEntity
  8
Camada 1
 62
    18
420
        0
370
    70
100
AcDbPolyline
 90
        3
 70
     0
 43
0.0
 10
1123.086420092121
 20
827.5817176940435
 10
1122.282772968158
 20
826.7843003927483
 10
1121.236552124122
 20
826.0507387737815
  0
LINE
  5
EA
330
7C
100
AcDbEntity
  8
Camada 1
 62
    18
420
        0
370
    70
100
AcDbLine
 10
680.0956058847205
 20
571.3553412481669
 30
0.0
 11
1121.236552124122
 21
826.0507387737815
 31
0.0
  0
LWPOLYLINE
  5
EB
330
7C
100
AcDbEntity
  8
Camada 1
 62
    18
420
        0
370
    70
100
AcDbPolyline
 90
        3
 70
     0
 43
0.0
 10
680.0956058847205
 20
571.3553412481669
 10
675.955499358989
 20
569.9840015337286
 10
671.1900743831193
 20
570.0159293748948
  0
LINE
  5
EC
330
7C
100
AcDbEntity
  8
Camada 1
 62
    18
420
        0
370
    70
100
AcDbLine
 10
408.3676785072448
 20
720.8551213208993
 30
0.0
 11
-13.43726094939484
 21
964.3866766283453
 31
0.0
  0
LWPOLYLINE
  5
ED
330
7C
100
AcDbEntity
  8
Camada 1
 62
    18
420
        0
370
    70
100
AcDbPolyline
 90
        3
 70
     0
 43
0.0
 10
-281.0569123013247
 20
1119.62762765207
 10
-281.3312191806035
 20
1122.498407809525
 10
-278.9102516878584
 20
1125.018371078079
  0
LINE
  5
EE
330
7C
100
AcDbEntity
  8
Camada 1
 62
    18
420
        0
370
    70
100
AcDbLine
 10
716.8566213473277
 20
542.0105403059787
 30
0.0
 11
761.5215296359556
 21
567.78292731291
 31
0.0
  0
LINE
  5
EF
330
7C
100
AcDbEntity
  8
Camada 1
 62
    18
420
        0
370
    70
100
AcDbLine
 10
716.8566213473277
 20
580.3823542917634
 30
0.0
 11
721.0126917936413
 21
582.806534036823
 31
0.0
  0
LWPOLYLINE
  5
F0
330
7C
100
AcDbEntity
  8
Camada 1
 62
    18
420
        0
370
    70
100
AcDbPolyline
 90
        3
 70
     0
 43
0.0
 10
1179.33315276344
 20
854.6300502558361
 10
1181.715865251375
 20
855.0766506682331
 10
1184.529019549166
 20
854.0876663199442
  0
LINE
  5
F1
330
7C
100
AcDbEntity
  8
Camada 1
 62
    18
420
        0
370
    70
100
AcDbLine
 10
1179.33315276344
 20
854.6300502558361
 30
0.0
 11
715.8135154146229
 21
587.0167260675516
 31
0.0
  0
LINE
  5
F2
330
7C
100
AcDbEntity
  8
Camada 1
 62
    18
420
        0
370
    70
100
AcDbLine
 10
721.0126917936413
 20
582.806534036823
 30
0.0
 11
739.2321975454096
 21
572.280469914127
 31
0.0
  0
LWPOLYLINE
  5
F3
330
7C
100
AcDbEntity
  8
Camada 1
 62
    18
420
        0
370
    70
100
AcDbPolyline
 90
        4
 70
     0
 43
0.0
 10
713.6605276375121
 20
582.2322222597649
 10
714.6428927992173
 20
585.932347559683
 10
717.3351496008891
 20
587.4633264799485
 10
721.0126917936413
 20
586.4743421316598
  0
LINE
  5
F4
330
7C
100
AcDbEntity
  8
Camada 1
 62
    18
420
        0
370
    70
100
AcDbLine
 10
713.6605276375121
 20
543.8604082739803
 30
0.0
 11
713.6605276375121
 21
582.2322222597649
 31
0.0
  0
LWPOLYLINE
  5
F5
330
7C
100
AcDbEntity
  8
Camada 1
 62
    18
420
        0
370
    70
100
AcDbPolyline
 90
        3
 70
     0
 43
0.0
 10
709.5044571911976
 20
541.4681563700869
 10
712.4422079423165
 20
541.149267322351
 10
713.6605276375121
 20
543.8604082739803
  0
LINE
  5
F6
330
7C
100
AcDbEntity
  8
Camada 1
 62
    18
420
        0
370
    70
100
AcDbLine
 10
709.5044571911976
 20
537.7684204340876
 30
0.0
 11
709.5044571911976
 21
541.4681563700869
 31
0.0
  0
LWPOLYLINE
  5
F7
330
7C
100
AcDbEntity
  8
Camada 1
 62
    18
420
        0
370
    70
100
AcDbPolyline
 90
        4
 70
     0
 43
0.0
 10
709.5044571911976
 20
537.7684204340876
 10
713.178884472617
 20
536.7794360857951
 10
715.8709465923284
 20
538.3423428472269
 10
716.8566213473277
 20
542.0105403059787
  0
LINE
  5
F8
330
7C
100
AcDbEntity
  8
Camada 1
 62
    18
420
        0
370
    70
100
AcDbLine
 10
716.8566213473277
 20
542.0105403059787
 30
0.0
 11
716.8566213473277
 21
580.3823542917634
 31
0.0
  0
LWPOLYLINE
  5
F9
330
7C
100
AcDbEntity
  8
Camada 1
 62
    18
420
        0
370
    70
100
AcDbPolyline
 90
        3
 70
     0
 43
0.0
 10
716.8566213473277
 20
580.3823542917634
 10
718.0718261311895
 20
583.0934952433927
 10
721.0126917936413
 20
582.806534036823
  0
LINE
  5
FA
330
7C
100
AcDbEntity
  8
Camada 1
 62
    18
420
        0
370
    70
100
AcDbLine
 10
1202.751640212267
 20
817.7253595079855
 30
0.0
 11
777.5942774332779
 21
572.280469914127
 31
0.0
  0
LINE
  5
FB
330
7C
100
AcDbEntity
  8
Camada 1
 62
    18
420
        0
370
    70
100
AcDbLine
 10
1202.751640212267
 20
817.7253595079855
 30
0.0
 11
1202.751640212267
 21
821.4254848079034
 31
0.0
  0
LINE
  5
FC
330
7C
100
AcDbEntity
  8
Camada 1
 62
    18
420
        0
370
    70
100
AcDbLine
 10
739.2321975454096
 20
572.280469914127
 30
0.0
 11
739.2321975454096
 21
575.980595214045
 31
0.0
  0
LWPOLYLINE
  5
FD
330
7C
100
AcDbEntity
  8
Camada 1
 62
    18
420
        0
370
    70
100
AcDbPolyline
 90
        7
 70
     0
 43
0.0
 10
777.5942774332779
 20
572.280469914127
 10
771.974198660363
 20
569.7924344867387
 10
765.4321061328219
 20
568.229527725307
 10
758.4116800336778
 20
567.6875331533302
 10
751.3912539345337
 20
568.229527725307
 10
744.8491614069926
 20
569.7924344867387
 10
739.2321975454096
 20
572.280469914127
  0
LINE
  5
FE
330
7C
100
AcDbEntity
  8
Camada 1
 62
    18
420
        0
370
    70
100
AcDbLine
 10
777.5942774332779
 20
575.980595214045
 30
0.0
 11
777.5942774332779
 21
572.280469914127
 31
0.0
  0
LINE
  5
FF
330
7C
100
AcDbEntity
  8
Camada 1
 62
    18
420
        0
370
    70
100
AcDbLine
 10
1202.751640212267
 20
821.4254848079034
 30
0.0
 11
777.5942774332779
 21
575.980595214045
 31
0.0
  0
LWPOLYLINE
  5
100
330
7C
100
AcDbEntity
  8
Camada 1
 62
    18
420
        0
370
    70
100
AcDbPolyline
 90
        7
 70
     0
 43
0.0
 10
1202.751640212267
 20
821.4254848079034
 10
1207.060925359783
 20
824.6790096954246
 10
1209.772066311412
 20
828.4429906776749
 10
1210.697194977372
 20
832.4935435025762
 10
1209.772066311412
 20
836.5444856913963
 10
1207.060925359783
 20
840.3403945148093
 10
1202.751640212267
 20
843.5939194023294
  0
LINE
  5
101
330
7C
100
AcDbEntity
  8
Camada 1
 62
    18
420
        0
370
    70
100
AcDbLine
 10
1184.529019549166
 20
854.0876663199442
 30
0.0
 11
1202.751640212267
 21
843.5939194023294
 31
0.0
  0
LINE
  5
102
330
7C
100
AcDbEntity
  8
Camada 1
 62
    18
420
        0
370
    70
100
AcDbLine
 10
1184.529019549166
 20
854.0876663199442
 30
0.0
 11
721.0126917936413
 21
586.4743421316598
 31
0.0
  0
LINE
  5
103
330
7C
100
AcDbEntity
  8
Camada 1
 62
    18
420
        0
370
    70
100
AcDbLine
 10
721.0126917936413
 20
586.4743421316598
 30
0.0
 11
739.2321975454096
 21
575.980595214045
 31
0.0
  0
LWPOLYLINE
  5
104
330
7C
100
AcDbEntity
  8
Camada 1
 62
    18
420
        0
370
    70
100
AcDbPolyline
 90
        7
 70
     0
 43
0.0
 10
739.2321975454096
 20
575.980595214045
 10
744.8491614069926
 20
573.4925597866568
 10
751.3912539345337
 20
571.8977251840624
 10
758.4116800336778
 20
571.3872690893331
 10
765.4321061328219
 20
571.8977251840624
 10
771.974198660363
 20
573.4925597866568
 10
777.5942774332779
 20
575.980595214045
  0
LWPOLYLINE
  5
105
330
7C
100
AcDbEntity
  8
Camada 1
 62
    18
420
        0
370
    70
100
AcDbPolyline
 90
        3
 70
     0
 43
0.0
 10
171.3019977406575
 20
1376.109037463352
 10
171.2892460723869
 20
1376.204820986848
 10
171.2860338200753
 20
1376.332142987592
  0
LINE
  5
106
330
7C
100
AcDbEntity
  8
Camada 1
 62
    18
420
        0
370
    70
100
AcDbLine
 10
171.2860338200753
 20
1380.000340446345
 30
0.0
 11
171.2860338200753
 21
1376.332142987592
 31
0.0
  0
LINE
  5
107
330
7C
100
AcDbEntity
  8
Camada 1
 62
    18
420
        0
370
    70
100
AcDbLine
 10
172.6097737957034
 20
1378.150472478345
 30
0.0
 11
172.6097737957034
 21
1376.395998669924
 31
0.0
  0
LWPOLYLINE
  5
108
330
7C
100
AcDbEntity
  8
Camada 1
 62
    18
420
        0
370
    70
100
AcDbPolyline
 90
        8
 70
     0
 43
0.0
 10
146.9233388733719
 20
1289.828329717378
 10
149.0285322297159
 20
1293.751949905451
 10
153.1463476712188
 20
1297.100868952552
 10
158.865422219942
 20
1299.556976538776
 10
165.6211781967449
 20
1300.864849934799
 10
172.7405027307186
 20
1300.864849934799
 10
179.5185497917482
 20
1299.620832221105
 10
185.2855161022189
 20
1297.196652476048
  0
LWPOLYLINE
  5
109
330
7C
100
AcDbEntity
  8
Camada 1
 62
    18
420
        0
370
    70
100
AcDbPolyline
 90
        8
 70
     0
 43
0.0
 10
87.78684455366329
 20
1255.667097126237
 10
89.89203791000546
 20
1259.622255791561
 10
94.00673844017637
 20
1262.971564202577
 10
99.72581298889963
 20
1265.427671788801
 10
106.4815689657007
 20
1266.703227979744
 10
113.6008934996744
 20
1266.73515582091
 10
120.3820554720387
 20
1265.491138107215
 10
126.1458095301977
 20
1263.066958362157
  0
LWPOLYLINE
  5
10A
330
7C
100
AcDbEntity
  8
Camada 1
 62
    18
420
        0
370
    70
100
AcDbPolyline
 90
        3
 70
     0
 43
0.0
 10
455.6514484992567
 20
1243.992798813344
 10
454.6178819825099
 20
1240.994696655144
 10
451.6803259133512
 20
1238.442805545424
  0
LINE
  5
10B
330
7C
100
AcDbEntity
  8
Camada 1
 62
    18
420
        0
370
    70
100
AcDbLine
 10
455.6514484992567
 20
1243.992798813344
 30
0.0
 11
455.6514484992567
 21
1247.692924113261
 31
0.0
  0
LINE
  5
10C
330
7C
100
AcDbEntity
  8
Camada 1
 62
    18
420
        0
370
    70
100
AcDbLine
 10
434.0987929390112
 20
1228.299875516711
 30
0.0
 11
451.6803259133512
 21
1238.442805545424
 31
0.0
  0
LINE
  5
10D
330
7C
100
AcDbEntity
  8
Camada 1
 62
    18
420
        0
370
    70
100
AcDbLine
 10
451.6803259133512
 20
1238.442805545424
 30
0.0
 11
451.6803259133512
 21
1242.142930845342
 31
0.0
  0
LWPOLYLINE
  5
10E
330
7C
100
AcDbEntity
  8
Camada 1
 62
    18
420
        0
370
    70
100
AcDbPolyline
 90
        3
 70
     0
 43
0.0
 10
434.0987929390112
 20
1228.299875516711
 10
433.4448562409979
 20
1227.853275104314
 10
432.9122064030225
 20
1227.374746850752
  0
LINE
  5
10F
330
7C
100
AcDbEntity
  8
Camada 1
 62
    18
420
        0
370
    70
100
AcDbLine
 10
434.0987929390112
 20
1231.999611452713
 30
0.0
 11
434.0987929390112
 21
1228.299875516711
 31
0.0
  0
LWPOLYLINE
  5
110
330
7C
100
AcDbEntity
  8
Camada 1
 62
    18
420
        0
370
    70
100
AcDbPolyline
 90
        8
 70
     0
 43
0.0
 10
28.64723532261905
 20
1221.537792376263
 10
30.75242867896304
 20
1225.461023200422
 10
34.86703186815339
 20
1228.809942247523
 10
40.5893186691892
 20
1231.266049833745
 10
47.34186239367955
 20
1232.57392322977
 10
54.46439917996485
 20
1232.605851070935
 10
61.24244624099538
 20
1231.329905516076
 10
67.00620029915353
 20
1228.905725771017
  0
LWPOLYLINE
  5
111
330
7C
100
AcDbEntity
  8
Camada 1
 62
    18
420
        0
370
    70
100
AcDbPolyline
 90
        8
 70
     0
 43
0.0
 10
-30.49247124940393
 20
1187.408098262372
 10
-28.38727789305995
 20
1191.331329086531
 10
-24.26936511057647
 20
1194.680637497548
 10
-18.55029056185322
 20
1197.136745083771
 10
-11.79463192603089
 20
1198.412690638632
 10
-4.67530739205722
 20
1198.444618479797
 10
2.102739668973299
 20
1197.200600766103
 10
7.869705979443097
 20
1194.776421021043
  0
LWPOLYLINE
  5
112
330
7C
100
AcDbEntity
  8
Camada 1
 62
    18
420
        0
370
    70
100
AcDbPolyline
 90
        3
 70
     0
 43
0.0
 10
478.0906856977107
 20
1198.763507527533
 10
475.7718288921068
 20
1201.793537526896
 10
473.0766518610598
 20
1203.96268390655
  0
LWPOLYLINE
  5
113
330
7C
100
AcDbEntity
  8
Camada 1
 62
    18
420
        0
370
    70
100
AcDbPolyline
 90
        8
 70
     0
 43
0.0
 10
-89.62886822813379
 20
1153.246865671234
 10
-87.52377221277038
 20
1157.170096495392
 10
-83.40907168259946
 20
1160.519404906409
 10
-77.6899971338762
 20
1162.975512492631
 10
-70.9342411570733
 20
1164.282996524741
 10
-63.81491662310145
 20
1164.314924365905
 10
-57.03365730975747
 20
1163.038978811047
 10
-51.26990325159932
 20
1160.646726907152
  0
LWPOLYLINE
  5
114
330
7C
100
AcDbEntity
  8
Camada 1
 62
    18
420
        0
370
    70
100
AcDbPolyline
 90
        6
 70
     0
 43
0.0
 10
535.718492181385
 20
964.6736378349151
 10
538.3945903805152
 20
958.7408998369301
 10
539.5110914115066
 20
952.5527391096238
 10
538.972017068906
 20
946.5880732704745
 10
536.8285687077514
 20
941.3888968914571
 10
533.2561547724935
 20
937.3379547026379
  0
LWPOLYLINE
  5
115
330
7C
100
AcDbEntity
  8
Camada 1
 62
    18
420
        0
370
    70
100
AcDbPolyline
 90
        3
 70
     0
 43
0.0
 10
386.1867842674865
 20
1145.719293070654
 10
383.8679274618826
 20
1148.749323070019
 10
381.1725557488781
 20
1150.886541608506
  0
LWPOLYLINE
  5
116
330
7C
100
AcDbEntity
  8
Camada 1
 62
    18
420
        0
370
    70
100
AcDbPolyline
 90
        3
 70
     0
 43
0.0
 10
-271.4113946761308
 20
1117.012270223938
 10
-272.9423735963965
 20
1117.71390400174
 10
-274.4095941753094
 20
1118.000865208309
  0
LWPOLYLINE
  5
117
330
7C
100
AcDbEntity
  8
Camada 1
 62
    18
420
        0
370
    70
100
AcDbPolyline
 90
        3
 70
     0
 43
0.0
 10
176.1247565532548
 20
1375.40740368555
 10
173.3115049144844
 20
1376.364070828758
 10
170.9255801742365
 20
1375.917470416362
  0
LINE
  5
118
330
7C
100
AcDbEntity
  8
Camada 1
 62
    18
420
        0
370
    70
100
AcDbLine
 10
170.9255801742365
 20
1375.917470416362
 30
0.0
 11
-275.0922464621754
 21
1118.415537779541
 31
0.0
  0
LWPOLYLINE
  5
119
330
7C
100
AcDbEntity
  8
Camada 1
 62
    18
420
        0
370
    70
100
AcDbPolyline
 90
        8
 70
     0
 43
0.0
 10
-110.4096098236205
 20
1126.485494316014
 10
-116.1733638817804
 20
1128.909674061072
 10
-122.9514109428101
 20
1130.153691774767
 10
-130.0739477290963
 20
1130.121763933601
 10
-136.8264914535866
 20
1128.845818378741
 10
-142.5486809136437
 20
1126.389710792518
 10
-146.6633814438128
 20
1123.040791745417
 10
-148.7685748001568
 20
1119.117560921259
  0
LWPOLYLINE
  5
11A
330
7C
100
AcDbEntity
  8
Camada 1
 62
    18
420
        0
370
    70
100
AcDbPolyline
 90
        6
 70
     0
 43
0.0
 10
476.578785609362
 20
930.5124052437777
 10
479.2548838084922
 20
924.6112057230412
 10
480.3713848394836
 20
918.3915065184855
 10
479.8354254082169
 20
912.4587685205005
 10
477.6888621357293
 20
907.2276643003169
 10
474.1164482004724
 20
903.208649952664
  0
LWPOLYLINE
  5
11B
330
7C
100
AcDbEntity
  8
Camada 1
 62
    18
420
        0
370
    70
100
AcDbPolyline
 90
        3
 70
     0
 43
0.0
 10
327.0503872887557
 20
1111.557671115598
 10
324.7282208898596
 20
1114.588090478879
 10
322.0361587701463
 20
1116.756847494615
  0
LINE
  5
11C
330
7C
100
AcDbEntity
  8
Camada 1
 62
    18
420
        0
370
    70
100
AcDbLine
 10
415.9750707107377
 20
1162.720089763311
 30
0.0
 11
535.718492181385
 21
964.6736378349151
 31
0.0
  0
LINE
  5
11D
330
7C
100
AcDbEntity
  8
Camada 1
 62
    18
420
        0
370
    70
100
AcDbLine
 10
185.2855161022189
 20
1297.196652476048
 30
0.0
 11
413.1395279877406
 21
1165.654725603096
 31
0.0
  0
LWPOLYLINE
  5
11E
330
7C
100
AcDbEntity
  8
Camada 1
 62
    18
420
        0
370
    70
100
AcDbPolyline
 90
        3
 70
     0
 43
0.0
 10
413.1395279877406
 20
1169.354850903014
 10
415.8347050187858
 20
1167.185704523361
 10
418.1537565063499
 20
1164.155674523997
  0
LINE
  5
11F
330
7C
100
AcDbEntity
  8
Camada 1
 62
    18
420
        0
370
    70
100
AcDbLine
 10
185.2855161022189
 20
1297.196652476048
 30
0.0
 11
185.2855161022189
 21
1300.896777775965
 31
0.0
  0
LWPOLYLINE
  5
120
330
7C
100
AcDbEntity
  8
Camada 1
 62
    18
420
        0
370
    70
100
AcDbPolyline
 90
        3
 70
     0
 43
0.0
 10
415.9750707107377
 20
1162.720089763311
 10
414.6640824033802
 20
1164.442635730566
 10
413.1395279877406
 20
1165.654725603096
  0
LINE
  5
121
330
7C
100
AcDbEntity
  8
Camada 1
 62
    18
420
        0
370
    70
100
AcDbLine
 10
535.718492181385
 20
964.6736378349151
 30
0.0
 11
537.8969832950369
 21
966.1088332316849
 31
0.0
  0
LWPOLYLINE
  5
122
330
7C
100
AcDbEntity
  8
Camada 1
 62
    18
420
        0
370
    70
100
AcDbPolyline
 90
        6
 70
     0
 43
0.0
 10
417.4392737192984
 20
896.382711129886
 10
420.1153719184285
 20
890.449973131901
 10
421.2316782674625
 20
884.2622017685107
 10
420.6959135181523
 20
878.2975359293605
 10
418.5524651569985
 20
873.0983595503429
 10
414.9767416284494
 20
869.0474173615248
  0
LWPOLYLINE
  5
123
330
7C
100
AcDbEntity
  8
Camada 1
 62
    18
420
        0
370
    70
100
AcDbPolyline
 90
        3
 70
     0
 43
0.0
 10
267.9106807167336
 20
1077.428366365625
 10
265.5918239111288
 20
1080.458396364988
 10
262.8964521981252
 20
1082.595614903476
  0
LINE
  5
124
330
7C
100
AcDbEntity
  8
Camada 1
 62
    18
420
        0
370
    70
100
AcDbLine
 10
356.835558820675
 20
1128.590785013337
 30
0.0
 11
476.578785609362
 21
930.5124052437777
 31
0.0
  0
LINE
  5
125
330
7C
100
AcDbEntity
  8
Camada 1
 62
    18
420
        0
370
    70
100
AcDbLine
 10
126.1458095301977
 20
1263.066958362157
 30
0.0
 11
353.9998214157176
 21
1131.525031489206
 31
0.0
  0
LWPOLYLINE
  5
126
330
7C
100
AcDbEntity
  8
Camada 1
 62
    18
420
        0
370
    70
100
AcDbPolyline
 90
        3
 70
     0
 43
0.0
 10
353.9998214157176
 20
1135.193228947958
 10
356.6951931287221
 20
1133.056399773386
 10
359.0171648456599
 20
1130.025980410105
  0
LINE
  5
127
330
7C
100
AcDbEntity
  8
Camada 1
 62
    18
420
        0
370
    70
100
AcDbLine
 10
126.1458095301977
 20
1263.066958362157
 30
0.0
 11
126.1458095301977
 21
1266.767083662075
 31
0.0
  0
LWPOLYLINE
  5
128
330
7C
100
AcDbEntity
  8
Camada 1
 62
    18
420
        0
370
    70
100
AcDbPolyline
 90
        3
 70
     0
 43
0.0
 10
356.835558820675
 20
1128.590785013337
 10
355.5245705133175
 20
1130.312941616677
 10
353.9998214157176
 20
1131.525031489206
  0
LINE
  5
129
330
7C
100
AcDbEntity
  8
Camada 1
 62
    18
420
        0
370
    70
100
AcDbLine
 10
476.578785609362
 20
930.5124052437777
 30
0.0
 11
478.7574714049733
 21
931.9476006405448
 31
0.0
  0
LWPOLYLINE
  5
12A
330
7C
100
AcDbEntity
  8
Camada 1
 62
    18
420
        0
370
    70
100
AcDbPolyline
 90
        6
 70
     0
 43
0.0
 10
358.3026820586092
 20
862.2214785387468
 10
360.9787802577394
 20
856.3206683819272
 10
362.0952812887308
 20
850.1325076546208
 10
361.5562069461303
 20
844.1678418154706
 10
359.4127585849756
 20
838.9367375952861
 10
355.8403446497195
 20
834.9177232476321
  0
LWPOLYLINE
  5
12B
330
7C
100
AcDbEntity
  8
Camada 1
 62
    18
420
        0
370
    70
100
AcDbPolyline
 90
        3
 70
     0
 43
0.0
 10
208.7709741447106
 20
1043.29906161565
 10
206.4521173391067
 20
1046.297163773849
 10
203.7568429670809
 20
1048.466310153501
  0
LINE
  5
12C
330
7C
100
AcDbEntity
  8
Camada 1
 62
    18
420
        0
370
    70
100
AcDbLine
 10
297.6958522486521
 20
1094.429163058281
 30
0.0
 11
417.4392737192984
 21
896.382711129886
 31
0.0
  0
LINE
  5
12D
330
7C
100
AcDbEntity
  8
Camada 1
 62
    18
420
        0
370
    70
100
AcDbLine
 10
67.00620029915353
 20
1228.905725771017
 30
0.0
 11
294.8634244369878
 21
1097.363798898066
 31
0.0
  0
LWPOLYLINE
  5
12E
330
7C
100
AcDbEntity
  8
Camada 1
 62
    18
420
        0
370
    70
100
AcDbPolyline
 90
        3
 70
     0
 43
0.0
 10
294.8634244369878
 20
1101.063924197984
 10
297.558601468033
 20
1098.926705659497
 10
299.8774582736369
 20
1095.896675660132
  0
LINE
  5
12F
330
7C
100
AcDbEntity
  8
Camada 1
 62
    18
420
        0
370
    70
100
AcDbLine
 10
67.00620029915353
 20
1228.905725771017
 30
0.0
 11
67.00620029915353
 21
1232.605851070935
 31
0.0
  0
LWPOLYLINE
  5
130
330
7C
100
AcDbEntity
  8
Camada 1
 62
    18
420
        0
370
    70
100
AcDbPolyline
 90
        3
 70
     0
 43
0.0
 10
297.6958522486521
 20
1094.429163058281
 10
296.3848639412945
 20
1096.151709025537
 10
294.8634244369878
 20
1097.363798898066
  0
LINE
  5
131
330
7C
100
AcDbEntity
  8
Camada 1
 62
    18
420
        0
370
    70
100
AcDbLine
 10
417.4392737192984
 20
896.382711129886
 30
0.0
 11
419.6208797442841
 21
897.8182958905717
 31
0.0
  0
LWPOLYLINE
  5
132
330
7C
100
AcDbEntity
  8
Camada 1
 62
    18
420
        0
370
    70
100
AcDbPolyline
 90
        6
 70
     0
 43
0.0
 10
299.1629754865862
 20
828.0917844248579
 10
301.8392683676748
 20
822.1590464268702
 10
302.9555747167078
 20
815.9712750634826
 10
302.4196152854411
 20
810.0066092243324
 10
300.2730520129535
 20
804.8074328453148
 10
296.7006380776965
 20
800.7564906564947
  0
LWPOLYLINE
  5
133
330
7C
100
AcDbEntity
  8
Camada 1
 62
    18
420
        0
370
    70
100
AcDbPolyline
 90
        3
 70
     0
 43
0.0
 10
149.6345771659798
 20
1009.137439660594
 10
147.3125081080634
 20
1012.167859023874
 10
144.6172337360385
 20
1014.304688198445
  0
LINE
  5
134
330
7C
100
AcDbEntity
  8
Camada 1
 62
    18
420
        0
370
    70
100
AcDbLine
 10
238.5593579289416
 20
1060.299858308306
 30
0.0
 11
358.3026820586092
 21
862.2214785387468
 31
0.0
  0
LINE
  5
135
330
7C
100
AcDbEntity
  8
Camada 1
 62
    18
420
        0
370
    70
100
AcDbLine
 10
7.869705979443097
 20
1194.776421021043
 30
0.0
 11
235.7237178649648
 21
1063.234494148092
 31
0.0
  0
LWPOLYLINE
  5
136
330
7C
100
AcDbEntity
  8
Camada 1
 62
    18
420
        0
370
    70
100
AcDbPolyline
 90
        3
 70
     0
 43
0.0
 10
235.7237178649648
 20
1066.902302242928
 10
238.4189922369897
 20
1064.765473068356
 10
240.7378490425945
 20
1061.735053705076
  0
LINE
  5
137
330
7C
100
AcDbEntity
  8
Camada 1
 62
    18
420
        0
370
    70
100
AcDbLine
 10
7.869705979443097
 20
1194.776421021043
 30
0.0
 11
7.869705979443097
 21
1198.476156957045
 31
0.0
  0
LWPOLYLINE
  5
138
330
7C
100
AcDbEntity
  8
Camada 1
 62
    18
420
        0
370
    70
100
AcDbPolyline
 90
        3
 70
     0
 43
0.0
 10
238.5593579289416
 20
1060.299858308306
 10
237.2483696215841
 20
1062.022404275563
 10
235.7237178649648
 20
1063.234494148092
  0
LINE
  5
139
330
7C
100
AcDbEntity
  8
Camada 1
 62
    18
420
        0
370
    70
100
AcDbLine
 10
358.3026820586092
 20
862.2214785387468
 30
0.0
 11
360.4811731722612
 21
863.6566739355158
 31
0.0
  0
LWPOLYLINE
  5
13A
330
7C
100
AcDbEntity
  8
Camada 1
 62
    18
420
        0
370
    70
100
AcDbPolyline
 90
        3
 70
     0
 43
0.0
 10
816.9324926601857
 20
1005.437703724593
 10
814.2373156291405
 20
1006.3943708678
 10
811.9182641415763
 20
1006.043553978899
  0
LWPOLYLINE
  5
13B
330
7C
100
AcDbEntity
  8
Camada 1
 62
    18
420
        0
370
    70
100
AcDbPolyline
 90
        3
 70
     0
 43
0.0
 10
237.5609315056736
 20
766.62718590652
 10
238.6422924431881
 20
767.5519252085614
 10
239.6342943618311
 20
768.6047652391826
  0
LWPOLYLINE
  5
13C
330
7C
100
AcDbEntity
  8
Camada 1
 62
    18
420
        0
370
    70
100
AcDbPolyline
 90
        4
 70
     0
 43
0.0
 10
-13.43726094939484
 20
964.3866766283453
 10
-16.47702504667541
 20
965.4071994538835
 10
-19.98889289289309
 20
965.4071994538835
 10
-23.02865699017366
 20
964.3866766283453
  0
LINE
  5
13D
330
7C
100
AcDbEntity
  8
Camada 1
 62
    18
420
        0
370
    70
100
AcDbLine
 10
179.4196513569195
 20
1026.170553558332
 30
0.0
 11
299.1629754865862
 21
828.0917844248579
 31
0.0
  0
LINE
  5
13E
330
7C
100
AcDbEntity
  8
Camada 1
 62
    18
420
        0
370
    70
100
AcDbLine
 10
-51.26990325159932
 20
1160.646726907152
 30
0.0
 11
176.5841086339205
 21
1029.072872193036
 31
0.0
  0
LWPOLYLINE
  5
13F
330
7C
100
AcDbEntity
  8
Camada 1
 62
    18
420
        0
370
    70
100
AcDbPolyline
 90
        3
 70
     0
 43
0.0
 10
176.5841086339205
 20
1032.772997492954
 10
179.2793830059472
 20
1030.635778954466
 10
181.6014520638637
 20
1027.605748955102
  0
LINE
  5
140
330
7C
100
AcDbEntity
  8
Camada 1
 62
    18
420
        0
370
    70
100
AcDbLine
 10
-51.26990325159932
 20
1160.646726907152
 30
0.0
 11
-51.26990325159932
 21
1164.314924365905
 31
0.0
  0
LWPOLYLINE
  5
141
330
7C
100
AcDbEntity
  8
Camada 1
 62
    18
420
        0
370
    70
100
AcDbPolyline
 90
        3
 70
     0
 43
0.0
 10
179.4196513569195
 20
1026.170553558332
 10
178.1087603905416
 20
1027.860782320507
 10
176.5841086339205
 20
1029.072872193036
  0
LINE
  5
142
330
7C
100
AcDbEntity
  8
Camada 1
 62
    18
420
        0
370
    70
100
AcDbLine
 10
299.1629754865862
 20
828.0917844248579
 30
0.0
 11
301.3416612821975
 21
829.5273691855436
 31
0.0
  0
LINE
  5
143
330
7C
100
AcDbEntity
  8
Camada 1
 62
    18
420
        0
370
    70
100
AcDbLine
 10
-23.02865699017366
 20
964.3866766283453
 30
0.0
 11
-30.38082114630379
 21
960.1441673925355
 31
0.0
  0
LINE
  5
144
330
7C
100
AcDbEntity
  8
Camada 1
 62
    18
420
        0
370
    70
100
AcDbLine
 10
-23.02865699017366
 20
964.3866766283453
 30
0.0
 11
-23.02865699017366
 21
968.0864125643465
 31
0.0
  0
LWPOLYLINE
  5
145
330
7C
100
AcDbEntity
  8
Camada 1
 62
    18
420
        0
370
    70
100
AcDbPolyline
 90
        3
 70
     0
 43
0.0
 10
90.49487059395778
 20
975.0081349106203
 10
88.17601378835297
 20
978.0381649099846
 10
85.48073941632811
 20
980.1753834484726
  0
LWPOLYLINE
  5
146
330
7C
100
AcDbEntity
  8
Camada 1
 62
    18
420
        0
370
    70
100
AcDbPolyline
 90
        3
 70
     0
 43
0.0
 10
720.0112478000192
 20
952.9674116808555
 10
722.3332195169568
 20
953.3182285697566
 10
725.0252816366701
 20
952.36156142655
  0
LWPOLYLINE
  5
147
330
7C
100
AcDbEntity
  8
Camada 1
 62
    18
420
        0
370
    70
100
AcDbPolyline
 90
        3
 70
     0
 43
0.0
 10
647.8385575279544
 20
924.1011389922286
 10
645.0030148049563
 20
924.4519558811306
 10
642.1705869932911
 20
927.3542745158348
  0
LINE
  5
148
330
7C
100
AcDbEntity
  8
Camada 1
 62
    18
420
        0
370
    70
100
AcDbLine
 10
85.48073941632811
 20
980.1753834484726
 30
0.0
 11
-142.3764847215043
 21
1111.717310321425
 31
0.0
  0
LINE
  5
149
330
7C
100
AcDbEntity
  8
Camada 1
 62
    18
420
        0
370
    70
100
AcDbLine
 10
-276.2054378998746
 20
1119.05370523893
 30
0.0
 11
-272.0492701125813
 21
1116.629525493871
 31
0.0
  0
LWPOLYLINE
  5
14A
330
7C
100
AcDbEntity
  8
Camada 1
 62
    18
420
        0
370
    70
100
AcDbPolyline
 90
        3
 70
     0
 43
0.0
 10
-276.2054378998746
 20
1119.05370523893
 10
-279.4014342687114
 20
1119.819194699062
 10
-282.5975279785271
 20
1119.05370523893
  0
LINE
  5
14B
330
7C
100
AcDbEntity
  8
Camada 1
 62
    18
420
        0
370
    70
100
AcDbLine
 10
-294.1058599219505
 20
1112.38701625806
 30
0.0
 11
-282.5975279785271
 21
1119.05370523893
 31
0.0
  0
LINE
  5
14C
330
7C
100
AcDbEntity
  8
Camada 1
 62
    18
420
        0
370
    70
100
AcDbLine
 10
-23.02865699017366
 20
968.0864125643465
 30
0.0
 11
-33.57681751514065
 21
961.994424724452
 31
0.0
  0
LWPOLYLINE
  5
14D
330
7C
100
AcDbEntity
  8
Camada 1
 62
    18
420
        0
370
    70
100
AcDbPolyline
 90
        4
 70
     0
 43
0.0
 10
-23.02865699017366
 20
968.0864125643465
 10
-19.98889289289309
 20
969.0753969126353
 10
-16.47702504667541
 20
969.0753969126353
 10
-13.43726094939484
 20
968.0864125643465
  0
LINE
  5
14E
330
7C
100
AcDbEntity
  8
Camada 1
 62
    18
420
        0
370
    70
100
AcDbLine
 10
25.5437128839867
 20
945.5675504449363
 30
0.0
 11
85.48073941632811
 21
980.1753834484726
 31
0.0
  0
LWPOLYLINE
  5
14F
330
7C
100
AcDbEntity
  8
Camada 1
 62
    18
420
        0
370
    70
100
AcDbPolyline
 90
       12
 70
     0
 43
0.0
 10
-142.3764847215043
 20
1111.717310321425
 10
-146.229630040666
 20
1114.683874002375
 10
-148.4783040002949
 20
1118.192432255301
 10
-148.9376560809605
 20
1121.892557555219
 10
-147.5692365958975
 20
1125.52843780889
 10
-144.4880052414928
 20
1128.781962696411
 10
-139.9363410558635
 20
1131.397709488462
 10
-134.2906616054288
 20
1133.183721774131
 10
-128.0037971252513
 20
1133.981139075428
 10
-121.5862037100596
 20
1133.694177868859
 10
-115.5577795295576
 20
1132.418232313999
 10
-110.4096098236205
 20
1130.185619615932
  0
LINE
  5
150
330
7C
100
AcDbEntity
  8
Camada 1
 62
    18
420
        0
370
    70
100
AcDbLine
 10
117.4476143142119
 20
998.6436927429794
 30
0.0
 11
144.6172337360385
 21
1014.304688198445
 31
0.0
  0
LINE
  5
151
330
7C
100
AcDbEntity
  8
Camada 1
 62
    18
420
        0
370
    70
100
AcDbLine
 10
144.6172337360385
 20
1014.304688198445
 30
0.0
 11
-83.23677814948315
 21
1145.878542912563
 31
0.0
  0
LWPOLYLINE
  5
152
330
7C
100
AcDbEntity
  8
Camada 1
 62
    18
420
        0
370
    70
100
AcDbPolyline
 90
       12
 70
     0
 43
0.0
 10
-83.23677814948315
 20
1145.878542912563
 10
-87.09313572095561
 20
1148.845106593514
 10
-89.34180968058445
 20
1152.321737005274
 10
-89.79794950893937
 20
1156.021862305192
 10
-88.43274227618712
 20
1159.65813192278
 10
-85.34839601045041
 20
1162.911656810303
 10
-80.79994407713275
 20
1165.558942079599
 10
-75.15095503340581
 20
1167.313415888021
 10
-68.86418789420895
 20
1168.110833189319
 10
-62.4497093903492
 20
1167.855410459998
 10
-56.42128520984716
 20
1166.547926427889
 10
-51.26990325159932
 20
1164.314924365905
  0
LINE
  5
153
330
7C
100
AcDbEntity
  8
Camada 1
 62
    18
420
        0
370
    70
100
AcDbLine
 10
-51.26990325159932
 20
1164.314924365905
 30
0.0
 11
176.5841086339205
 21
1032.772997492954
 31
0.0
  0
LINE
  5
154
330
7C
100
AcDbEntity
  8
Camada 1
 62
    18
420
        0
370
    70
100
AcDbLine
 10
176.5841086339205
 20
1032.772997492954
 30
0.0
 11
203.7568429670809
 21
1048.466310153501
 31
0.0
  0
LINE
  5
155
330
7C
100
AcDbEntity
  8
Camada 1
 62
    18
420
        0
370
    70
100
AcDbLine
 10
203.7568429670809
 20
1048.466310153501
 30
0.0
 11
-24.09716891843891
 21
1180.008237026454
 31
0.0
  0
LWPOLYLINE
  5
156
330
7C
100
AcDbEntity
  8
Camada 1
 62
    18
420
        0
370
    70
100
AcDbPolyline
 90
       12
 70
     0
 43
0.0
 10
-24.09716891843891
 20
1180.008237026454
 10
-27.95342914893354
 20
1182.974411343488
 10
-30.20220044954113
 20
1186.451431119166
 10
-30.66145518922894
 20
1190.183094896332
 10
-29.29313304514471
 20
1193.787436672755
 10
-26.20868943842743
 20
1197.07288940144
 10
-21.66023750511067
 20
1199.688246829574
 10
-16.01455805467594
 20
1201.474648479162
 10
-9.727693574498516
 20
1202.272065780459
 10
-3.310100159304965
 20
1201.985104573888
 10
2.718421362174012
 20
1200.709159019029
 10
7.869705979443097
 20
1198.476156957045
  0
LINE
  5
157
330
7C
100
AcDbEntity
  8
Camada 1
 62
    18
420
        0
370
    70
100
AcDbLine
 10
7.869705979443097
 20
1198.476156957045
 30
0.0
 11
235.7237178649648
 21
1066.902302242928
 31
0.0
  0
LINE
  5
158
330
7C
100
AcDbEntity
  8
Camada 1
 62
    18
420
        0
370
    70
100
AcDbLine
 10
235.7237178649648
 20
1066.902302242928
 30
0.0
 11
262.8964521981252
 21
1082.595614903476
 31
0.0
  0
LINE
  5
159
330
7C
100
AcDbEntity
  8
Camada 1
 62
    18
420
        0
370
    70
100
AcDbLine
 10
262.8964521981252
 20
1082.595614903476
 30
0.0
 11
35.03932540127153
 21
1214.169469617593
 31
0.0
  0
LWPOLYLINE
  5
15A
330
7C
100
AcDbEntity
  8
Camada 1
 62
    18
420
        0
370
    70
100
AcDbPolyline
 90
       12
 70
     0
 43
0.0
 10
35.03932540127153
 20
1214.169469617593
 10
31.18618008210979
 20
1217.136033298544
 10
28.93750612248096
 20
1220.612663710305
 10
28.47815404181347
 20
1224.312789010223
 10
29.84657352687828
 20
1227.949058627811
 10
32.92770754030243
 20
1231.202194151415
 10
37.47937172593265
 20
1233.817940943464
 10
43.12514851734704
 20
1235.603953229135
 10
49.41191565654571
 20
1236.401370530432
 10
55.8296064127162
 20
1236.146337165027
 10
61.85803059321824
 20
1234.838463769002
 10
67.00620029915353
 20
1232.605851070935
  0
LINE
  5
15B
330
7C
100
AcDbEntity
  8
Camada 1
 62
    18
420
        0
370
    70
100
AcDbLine
 10
67.00620029915353
 20
1232.605851070935
 30
0.0
 11
294.8634244369878
 21
1101.063924197984
 31
0.0
  0
LINE
  5
15C
330
7C
100
AcDbEntity
  8
Camada 1
 62
    18
420
        0
370
    70
100
AcDbLine
 10
294.8634244369878
 20
1101.063924197984
 30
0.0
 11
322.0361587701463
 21
1116.756847494615
 31
0.0
  0
LINE
  5
15D
330
7C
100
AcDbEntity
  8
Camada 1
 62
    18
420
        0
370
    70
100
AcDbLine
 10
322.0361587701463
 20
1116.756847494615
 30
0.0
 11
94.17893463231393
 21
1248.299163731483
 31
0.0
  0
LWPOLYLINE
  5
15E
330
7C
100
AcDbEntity
  8
Camada 1
 62
    18
420
        0
370
    70
100
AcDbPolyline
 90
       12
 70
     0
 43
0.0
 10
94.17893463231393
 20
1248.299163731483
 10
90.32267440182023
 20
1251.265338048518
 10
88.07390310121173
 20
1254.741968460279
 10
87.61786061383645
 20
1258.474021601362
 10
88.98297050560904
 20
1262.078363377783
 10
92.06741411232542
 20
1265.363816106471
 10
96.61586604564309
 20
1267.979173534604
 10
102.2647577483903
 20
1269.765575184191
 10
108.5516222285669
 20
1270.531064644324
 10
114.966003391447
 20
1270.275641915001
 10
120.9945249129268
 20
1268.968157882894
 10
126.1458095301977
 20
1266.767083662075
  0
LINE
  5
15F
330
7C
100
AcDbEntity
  8
Camada 1
 62
    18
420
        0
370
    70
100
AcDbLine
 10
126.1458095301977
 20
1266.767083662075
 30
0.0
 11
353.9998214157176
 21
1135.193228947958
 31
0.0
  0
LINE
  5
160
330
7C
100
AcDbEntity
  8
Camada 1
 62
    18
420
        0
370
    70
100
AcDbLine
 10
353.9998214157176
 20
1135.193228947958
 30
0.0
 11
381.1725557488781
 21
1150.886541608506
 31
0.0
  0
LINE
  5
161
330
7C
100
AcDbEntity
  8
Camada 1
 62
    18
420
        0
370
    70
100
AcDbLine
 10
381.1725557488781
 20
1150.886541608506
 30
0.0
 11
153.3186412043369
 21
1282.428468481457
 31
0.0
  0
LWPOLYLINE
  5
162
330
7C
100
AcDbEntity
  8
Camada 1
 62
    18
420
        0
370
    70
100
AcDbPolyline
 90
       12
 70
     0
 43
0.0
 10
153.3186412043369
 20
1282.428468481457
 10
149.4622836328626
 20
1285.426570639657
 10
147.2136096732347
 20
1288.903590415335
 10
146.7542575925681
 20
1292.603326351337
 10
148.1226770776311
 20
1296.239595968924
 10
151.2070233433687
 20
1299.493120856445
 10
155.7555726176651
 20
1302.108867648495
 10
161.4012520680999
 20
1303.894879934164
 10
167.6881165482773
 20
1304.692297235462
 10
174.105709963469
 20
1304.437263870057
 10
180.1341341439711
 20
1303.129390474031
 10
185.2855161022189
 20
1300.896777775965
  0
LINE
  5
163
330
7C
100
AcDbEntity
  8
Camada 1
 62
    18
420
        0
370
    70
100
AcDbLine
 10
185.2855161022189
 20
1300.896777775965
 30
0.0
 11
413.1395279877406
 21
1169.354850903014
 31
0.0
  0
LINE
  5
164
330
7C
100
AcDbEntity
  8
Camada 1
 62
    18
420
        0
370
    70
100
AcDbLine
 10
413.1395279877406
 20
1169.354850903014
 30
0.0
 11
473.0766518610598
 21
1203.96268390655
 31
0.0
  0
LINE
  5
165
330
7C
100
AcDbEntity
  8
Camada 1
 62
    18
420
        0
370
    70
100
AcDbLine
 10
473.0766518610598
 20
1203.96268390655
 30
0.0
 11
434.0987929390112
 21
1226.449618184794
 31
0.0
  0
LWPOLYLINE
  5
166
330
7C
100
AcDbEntity
  8
Camada 1
 62
    18
420
        0
370
    70
100
AcDbPolyline
 90
        4
 70
     0
 43
0.0
 10
434.0987929390112
 20
1226.449618184794
 10
432.3413989012151
 20
1228.204091993216
 10
432.3413989012151
 20
1230.245527008207
 10
434.0987929390112
 20
1231.999611452713
  0
LINE
  5
167
330
7C
100
AcDbEntity
  8
Camada 1
 62
    18
420
        0
370
    70
100
AcDbLine
 10
434.0987929390112
 20
1231.999611452713
 30
0.0
 11
451.6803259133512
 21
1242.142930845342
 31
0.0
  0
LWPOLYLINE
  5
168
330
7C
100
AcDbEntity
  8
Camada 1
 62
    18
420
        0
370
    70
100
AcDbPolyline
 90
        5
 70
     0
 43
0.0
 10
451.6803259133512
 20
1242.142930845342
 10
454.6178819825099
 20
1244.694821955062
 10
455.6514484992567
 20
1247.692924113261
 10
454.6178819825099
 20
1250.691415635377
 10
451.6803259133512
 20
1253.210989540014
  0
LINE
  5
169
330
7C
100
AcDbEntity
  8
Camada 1
 62
    18
420
        0
370
    70
100
AcDbLine
 10
451.6803259133512
 20
1253.210989540014
 30
0.0
 11
210.3307659948078
 21
1392.567839584034
 31
0.0
  0
LWPOLYLINE
  5
16A
330
7C
100
AcDbEntity
  8
Camada 1
 62
    18
420
        0
370
    70
100
AcDbPolyline
 90
        5
 70
     0
 43
0.0
 10
210.3307659948078
 20
1392.567839584034
 10
205.9290069170884
 20
1394.258068346208
 10
200.7394672950077
 20
1394.864307964431
 10
195.5498303319482
 20
1394.258068346208
 10
191.1480712542279
 20
1392.567839584034
  0
LINE
  5
16B
330
7C
100
AcDbEntity
  8
Camada 1
 62
    18
420
        0
370
    70
100
AcDbLine
 10
172.6097737957034
 20
1381.850597778263
 30
0.0
 11
191.1480712542279
 21
1392.567839584034
 31
0.0
  0
LWPOLYLINE
  5
16C
330
7C
100
AcDbEntity
  8
Camada 1
 62
    18
420
        0
370
    70
100
AcDbPolyline
 90
        3
 70
     0
 43
0.0
 10
172.6097737957034
 20
1381.850597778263
 10
171.2860338200753
 20
1380.000340446345
 10
172.6097737957034
 20
1378.150472478345
  0
LINE
  5
16D
330
7C
100
AcDbEntity
  8
Camada 1
 62
    18
420
        0
370
    70
100
AcDbLine
 10
172.6097737957034
 20
1378.150472478345
 30
0.0
 11
176.7658442420179
 21
1375.758220574452
 31
0.0
  0
LINE
  5
16E
330
7C
100
AcDbEntity
  8
Camada 1
 62
    18
420
        0
370
    70
100
AcDbLine
 10
176.7658442420179
 20
1375.758220574452
 30
0.0
 11
176.1311810578791
 21
1375.40740368555
 31
0.0
  0
LINE
  5
16F
330
7C
100
AcDbEntity
  8
Camada 1
 62
    18
420
        0
370
    70
100
AcDbLine
 10
-271.4113946761308
 20
1117.012270223938
 30
0.0
 11
176.1247565532548
 21
1375.40740368555
 31
0.0
  0
LINE
  5
170
330
7C
100
AcDbEntity
  8
Camada 1
 62
    18
420
        0
370
    70
100
AcDbLine
 10
-272.0492701125813
 20
1116.629525493871
 30
0.0
 11
-271.4113946761308
 21
1117.012270223938
 31
0.0
  0
LINE
  5
171
330
7C
100
AcDbEntity
  8
Camada 1
 62
    18
420
        0
370
    70
100
AcDbLine
 10
217.6383479824817
 20
830.9625645823107
 30
0.0
 11
120.2800421258762
 21
992.0089316032763
 31
0.0
  0
LWPOLYLINE
  5
172
330
7C
100
AcDbEntity
  8
Camada 1
 62
    18
420
        0
370
    70
100
AcDbPolyline
 90
        3
 70
     0
 43
0.0
 10
117.4476143142119
 20
998.6436927429794
 10
120.1428886862368
 20
996.4745463633271
 10
122.4617454918416
 20
993.4445163639621
  0
LINE
  5
173
330
7C
100
AcDbEntity
  8
Camada 1
 62
    18
420
        0
370
    70
100
AcDbLine
 10
-110.4096098236205
 20
1130.185619615932
 30
0.0
 11
117.4476143142119
 21
998.6436927429794
 31
0.0
  0
LINE
  5
174
330
7C
100
AcDbEntity
  8
Camada 1
 62
    18
420
        0
370
    70
100
AcDbLine
 10
-110.4096098236205
 20
1130.185619615932
 30
0.0
 11
-110.4096098236205
 21
1126.485494316014
 31
0.0
  0
LINE
  5
175
330
7C
100
AcDbEntity
  8
Camada 1
 62
    18
420
        0
370
    70
100
AcDbLine
 10
117.4476143142119
 20
994.9435674430615
 30
0.0
 11
-110.4096098236205
 21
1126.485494316014
 31
0.0
  0
LWPOLYLINE
  5
176
330
7C
100
AcDbEntity
  8
Camada 1
 62
    18
420
        0
370
    70
100
AcDbPolyline
 90
        3
 70
     0
 43
0.0
 10
117.4476143142119
 20
994.9435674430615
 10
118.9690538185186
 20
993.7314775705326
 10
120.2800421258762
 20
992.0089316032763
  0
LWPOLYLINE
  5
177
330
7C
100
AcDbEntity
  8
Camada 1
 62
    18
420
        0
370
    70
100
AcDbPolyline
 90
        3
 70
     0
 43
0.0
 10
660.8746561393299
 20
918.8381069308825
 10
663.1937076268932
 20
919.1889238197827
 10
665.8888846579393
 20
918.2318673126584
  0
LWPOLYLINE
  5
178
330
7C
100
AcDbEntity
  8
Camada 1
 62
    18
420
        0
370
    70
100
AcDbPolyline
 90
        3
 70
     0
 43
0.0
 10
601.7351442492663
 20
884.7084128169909
 10
604.0540010548702
 20
885.0596190698079
 10
606.7491780859172
 20
884.070634721519
  0
LWPOLYLINE
  5
179
330
7C
100
AcDbEntity
  8
Camada 1
 62
    18
420
        0
370
    70
100
AcDbPolyline
 90
       12
 70
     0
 43
0.0
 10
537.8969832950369
 20
966.1088332316849
 10
540.544463246294
 20
960.2718787571957
 10
541.6800431092014
 20
954.1795015533853
 10
541.2143638648895
 20
948.3106192377308
 10
539.1855831771872
 20
943.1114428587125
 10
535.7599594385074
 20
939.0605006698942
 10
531.2082952528781
 20
936.4132154005956
 10
525.9071055276972
 20
935.4561588934712
 10
520.2804075681988
 20
936.2216483536039
 10
514.7878454779865
 20
938.6458280986635
 10
509.8725153942068
 20
942.5690589228207
 10
505.9302057381337
 20
947.6409133010939
  0
LINE
  5
17A
330
7C
100
AcDbEntity
  8
Camada 1
 62
    18
420
        0
370
    70
100
AcDbLine
 10
386.1867842674865
 20
1145.719293070654
 30
0.0
 11
505.9302057381337
 21
947.6409133010939
 31
0.0
  0
LINE
  5
17B
330
7C
100
AcDbEntity
  8
Camada 1
 62
    18
420
        0
370
    70
100
AcDbLine
 10
359.0171648456599
 20
1130.025980410105
 30
0.0
 11
386.1867842674865
 21
1145.719293070654
 31
0.0
  0
LINE
  5
17C
330
7C
100
AcDbEntity
  8
Camada 1
 62
    18
420
        0
370
    70
100
AcDbLine
 10
359.0171648456599
 20
1130.025980410105
 30
0.0
 11
478.7574714049733
 21
931.9476006405448
 31
0.0
  0
LWPOLYLINE
  5
17D
330
7C
100
AcDbEntity
  8
Camada 1
 62
    18
420
        0
370
    70
100
AcDbPolyline
 90
       12
 70
     0
 43
0.0
 10
478.7574714049733
 20
931.9476006405448
 10
481.404756674271
 20
926.1425740072217
 10
482.5403365371794
 20
920.0501968034105
 10
482.0777722041993
 20
914.1493866465907
 10
480.0491861984574
 20
908.9821381087395
 10
476.6202528664853
 20
904.899268078755
 10
472.0718982741463
 20
902.2835212867049
 10
466.767398955676
 20
901.2949263023338
 10
461.1440105894689
 20
902.0604157624648
 10
455.6481389059654
 20
904.5165233486887
 10
450.7330035041422
 20
908.4397541728458
 10
446.7904991661107
 20
913.511219187203
  0
LINE
  5
17E
330
7C
100
AcDbEntity
  8
Camada 1
 62
    18
420
        0
370
    70
100
AcDbLine
 10
446.7904991661107
 20
913.511219187203
 30
0.0
 11
327.0503872887557
 21
1111.557671115598
 31
0.0
  0
LINE
  5
17F
330
7C
100
AcDbEntity
  8
Camada 1
 62
    18
420
        0
370
    70
100
AcDbLine
 10
299.8774582736369
 20
1095.896675660132
 30
0.0
 11
327.0503872887557
 21
1111.557671115598
 31
0.0
  0
LINE
  5
180
330
7C
100
AcDbEntity
  8
Camada 1
 62
    18
420
        0
370
    70
100
AcDbLine
 10
299.8774582736369
 20
1095.896675660132
 30
0.0
 11
419.6208797442841
 21
897.8182958905717
 31
0.0
  0
LWPOLYLINE
  5
181
330
7C
100
AcDbEntity
  8
Camada 1
 62
    18
420
        0
370
    70
100
AcDbPolyline
 90
       12
 70
     0
 43
0.0
 10
419.6208797442841
 20
897.8182958905717
 10
422.2652447842074
 20
891.9809520521658
 10
423.4039395584487
 20
885.8885748483544
 10
422.9382603141366
 20
880.0196925327009
 10
420.9094796264343
 20
874.8205161536834
 10
417.4807409764207
 20
870.7695739648643
 10
412.9321917021234
 20
868.1222886955666
 10
407.6310019769453
 20
867.1652321884421
 10
402.0043040174459
 20
867.9311110124917
 10
396.5117419272337
 20
870.3549013936326
 10
391.5932969321202
 20
874.2785215817066
 10
387.6541021873791
 20
879.349986596063
  0
LINE
  5
182
330
7C
100
AcDbEntity
  8
Camada 1
 62
    18
420
        0
370
    70
100
AcDbLine
 10
387.6541021873791
 20
879.349986596063
 30
0.0
 11
267.9106807167336
 21
1077.428366365625
 31
0.0
  0
LINE
  5
183
330
7C
100
AcDbEntity
  8
Camada 1
 62
    18
420
        0
370
    70
100
AcDbLine
 10
240.7378490425945
 20
1061.735053705076
 30
0.0
 11
267.9106807167336
 21
1077.428366365625
 31
0.0
  0
LINE
  5
184
330
7C
100
AcDbEntity
  8
Camada 1
 62
    18
420
        0
370
    70
100
AcDbLine
 10
240.7378490425945
 20
1061.735053705076
 30
0.0
 11
360.4811731722612
 21
863.6566739355158
 31
0.0
  0
LWPOLYLINE
  5
185
330
7C
100
AcDbEntity
  8
Camada 1
 62
    18
420
        0
370
    70
100
AcDbPolyline
 90
       12
 70
     0
 43
0.0
 10
360.4811731722612
 20
863.6566739355158
 10
363.1286531235182
 20
857.851647302191
 10
364.2642329864257
 20
851.7592700983813
 10
363.7985537421136
 20
845.8584599415617
 10
361.7699677363707
 20
840.6912114037094
 10
358.3441493157315
 20
836.6083413737252
 10
353.7924851301022
 20
833.9929839455908
 10
348.4912954049223
 20
833.003999597302
 10
342.8647921273832
 20
833.801416898601
 10
337.3720353552108
 20
836.2255966436586
 10
332.4568999533894
 20
840.1488274678158
 10
328.5143956153579
 20
845.2202924821731
  0
LINE
  5
186
330
7C
100
AcDbEntity
  8
Camada 1
 62
    18
420
        0
370
    70
100
AcDbLine
 10
328.5143956153579
 20
845.2202924821731
 30
0.0
 11
208.7709741447106
 21
1043.29906161565
 31
0.0
  0
LINE
  5
187
330
7C
100
AcDbEntity
  8
Camada 1
 62
    18
420
        0
370
    70
100
AcDbLine
 10
181.6014520638637
 20
1027.605748955102
 30
0.0
 11
208.7709741447106
 21
1043.29906161565
 31
0.0
  0
LINE
  5
188
330
7C
100
AcDbEntity
  8
Camada 1
 62
    18
420
        0
370
    70
100
AcDbLine
 10
181.6014520638637
 20
1027.605748955102
 30
0.0
 11
301.3416612821975
 21
829.5273691855436
 31
0.0
  0
LWPOLYLINE
  5
189
330
7C
100
AcDbEntity
  8
Camada 1
 62
    18
420
        0
370
    70
100
AcDbPolyline
 90
       12
 70
     0
 43
0.0
 10
301.3416612821975
 20
829.5273691855436
 10
303.9889465514952
 20
823.6900253471358
 10
305.1245264144036
 20
817.5980375072413
 10
304.6619620814236
 20
811.7287658276708
 10
302.6333760756815
 20
806.5299788125702
 10
299.2044427437095
 20
802.4790366237503
 10
294.6560881513715
 20
799.8313619905347
 10
289.3515888329002
 20
798.874694847329
 10
283.7282004666931
 20
799.6401843074618
 10
278.2325234651471
 20
802.0962918936856
 10
273.3171933813665
 20
805.9875948766784
 10
269.3746890433349
 20
811.0590598910349
  0
LINE
  5
18A
330
7C
100
AcDbEntity
  8
Camada 1
 62
    18
420
        0
370
    70
100
AcDbLine
 10
269.3746890433349
 20
811.0590598910349
 30
0.0
 11
149.6345771659798
 21
1009.137439660594
 31
0.0
  0
LINE
  5
18B
330
7C
100
AcDbEntity
  8
Camada 1
 62
    18
420
        0
370
    70
100
AcDbLine
 10
122.4617454918416
 20
993.4445163639621
 30
0.0
 11
149.6345771659798
 21
1009.137439660594
 31
0.0
  0
LINE
  5
18C
330
7C
100
AcDbEntity
  8
Camada 1
 62
    18
420
        0
370
    70
100
AcDbLine
 10
122.4617454918416
 20
993.4445163639621
 30
0.0
 11
222.3239533554388
 21
828.2514236306814
 31
0.0
  0
LWPOLYLINE
  5
18D
330
7C
100
AcDbEntity
  8
Camada 1
 62
    18
420
        0
370
    70
100
AcDbPolyline
 90
        7
 70
     0
 43
0.0
 10
240.0903368492072
 20
768.3493425098604
 10
235.5418849158886
 20
765.7020572405635
 10
230.2374829383971
 20
764.7450007334373
 10
224.6045551562329
 20
765.4785623524039
 10
219.1055685613946
 20
767.9346699386297
 10
214.1839113139686
 20
771.8579007627886
 10
210.2382920646032
 20
776.92975514106
  0
LINE
  5
18E
330
7C
100
AcDbEntity
  8
Camada 1
 62
    18
420
        0
370
    70
100
AcDbLine
 10
156.0776739177136
 20
866.5274540929704
 30
0.0
 11
90.49487059395778
 21
975.0081349106203
 31
0.0
  0
LINE
  5
18F
330
7C
100
AcDbEntity
  8
Camada 1
 62
    18
420
        0
370
    70
100
AcDbLine
 10
210.2382920646032
 20
776.92975514106
 30
0.0
 11
202.1971484579635
 21
790.2304265337988
 31
0.0
  0
LINE
  5
190
330
7C
100
AcDbEntity
  8
Camada 1
 62
    18
420
        0
370
    70
100
AcDbLine
 10
30.55784406161638
 20
940.4003019070833
 30
0.0
 11
90.49487059395778
 21
975.0081349106203
 31
0.0
  0
LINE
  5
191
330
7C
100
AcDbEntity
  8
Camada 1
 62
    18
420
        0
370
    70
100
AcDbLine
 10
346.4179325487648
 20
756.6115778785497
 30
0.0
 11
642.1705869932911
 21
927.3542745158348
 31
0.0
  0
LINE
  5
192
330
7C
100
AcDbEntity
  8
Camada 1
 62
    18
420
        0
370
    70
100
AcDbLine
 10
194.6344357639054
 20
668.9910688953859
 30
0.0
 11
303.4212539610217
 21
731.795858014826
 31
0.0
  0
LINE
  5
193
330
7C
100
AcDbEntity
  8
Camada 1
 62
    18
420
        0
370
    70
100
AcDbLine
 10
642.1705869932911
 20
927.3542745158348
 30
0.0
 11
478.0906856977107
 21
1198.763507527533
 31
0.0
  0
LINE
  5
194
330
7C
100
AcDbEntity
  8
Camada 1
 62
    18
420
        0
370
    70
100
AcDbLine
 10
418.1537565063499
 20
1164.155674523997
 30
0.0
 11
478.0906856977107
 21
1198.763507527533
 31
0.0
  0
LINE
  5
195
330
7C
100
AcDbEntity
  8
Camada 1
 62
    18
420
        0
370
    70
100
AcDbLine
 10
537.8969832950369
 20
966.1088332316849
 30
0.0
 11
418.1537565063499
 21
1164.155674523997
 31
0.0
  0
LWPOLYLINE
  5
196
330
7C
100
AcDbEntity
  8
Camada 1
 62
    18
420
        0
370
    70
100
AcDbPolyline
 90
        3
 70
     0
 43
0.0
 10
1147.586365819444
 20
844.4867308632055
 10
1146.552993984656
 20
841.520556546172
 10
1143.612128322204
 20
838.9686654364522
  0
LINE
  5
197
330
7C
100
AcDbEntity
  8
Camada 1
 62
    18
420
        0
370
    70
100
AcDbLine
 10
1147.586365819444
 20
844.4867308632055
 30
0.0
 11
1147.586365819444
 21
848.1868561631236
 31
0.0
  0
LINE
  5
198
330
7C
100
AcDbEntity
  8
Camada 1
 62
    18
420
        0
370
    70
100
AcDbLine
 10
756.9922538755327
 20
967.1297454211389
 30
0.0
 11
984.8493806723864
 21
835.5878185481852
 31
0.0
  0
LINE
  5
199
330
7C
100
AcDbEntity
  8
Camada 1
 62
    18
420
        0
370
    70
100
AcDbLine
 10
724.4830923827358
 20
952.6485226331196
 30
0.0
 11
754.1598260638675
 21
967.48056231004
 31
0.0
  0
LWPOLYLINE
  5
19A
330
7C
100
AcDbEntity
  8
Camada 1
 62
    18
420
        0
370
    70
100
AcDbPolyline
 90
        3
 70
     0
 43
0.0
 10
756.9922538755327
 20
967.1297454211389
 10
755.470814371225
 20
967.6717399931158
 10
754.1598260638675
 20
967.48056231004
  0
LWPOLYLINE
  5
19B
330
7C
100
AcDbEntity
  8
Camada 1
 62
    18
420
        0
370
    70
100
AcDbPolyline
 90
        3
 70
     0
 43
0.0
 10
756.9922538755327
 20
970.82948135714
 10
754.3001917558195
 20
971.7865378642636
 10
751.9780253569242
 20
971.4357209753625
  0
LINE
  5
19C
330
7C
100
AcDbEntity
  8
Camada 1
 62
    18
420
        0
370
    70
100
AcDbLine
 10
633.312752571479
 20
909.6837718865408
 30
0.0
 11
632.234603886277
 21
911.6294233780363
 31
0.0
  0
LWPOLYLINE
  5
19D
330
7C
100
AcDbEntity
  8
Camada 1
 62
    18
420
        0
370
    70
100
AcDbPolyline
 90
        3
 70
     0
 43
0.0
 10
542.5954376772433
 20
850.5471802258517
 10
544.917409394181
 20
850.8979971147519
 10
547.6096661958527
 20
849.9413299715461
  0
LINE
  5
19E
330
7C
100
AcDbEntity
  8
Camada 1
 62
    18
420
        0
370
    70
100
AcDbLine
 10
1114.522166063462
 20
833.57831137436
 30
0.0
 11
1114.522166063462
 21
834.3438008344929
 31
0.0
  0
LINE
  5
19F
330
7C
100
AcDbEntity
  8
Camada 1
 62
    18
420
        0
370
    70
100
AcDbLine
 10
1125.073733522699
 20
828.2514236306814
 30
0.0
 11
1143.612128322204
 21
838.9686654364522
 31
0.0
  0
LINE
  5
1A0
330
7C
100
AcDbEntity
  8
Camada 1
 62
    18
420
        0
370
    70
100
AcDbLine
 10
1143.612128322204
 20
838.9686654364522
 30
0.0
 11
1143.612128322204
 21
842.6687907363703
 31
0.0
  0
LWPOLYLINE
  5
1A1
330
7C
100
AcDbEntity
  8
Camada 1
 62
    18
420
        0
370
    70
100
AcDbPolyline
 90
        3
 70
     0
 43
0.0
 10
1125.073733522699
 20
828.2514236306814
 10
1122.340204145864
 20
827.5178620117149
 10
1119.399338483411
 20
827.9325345829457
  0
LINE
  5
1A2
330
7C
100
AcDbEntity
  8
Camada 1
 62
    18
420
        0
370
    70
100
AcDbLine
 10
1125.073733522699
 20
831.9515489305995
 30
0.0
 11
1125.073733522699
 21
828.2514236306814
 31
0.0
  0
LINE
  5
1A3
330
7C
100
AcDbEntity
  8
Camada 1
 62
    18
420
        0
370
    70
100
AcDbLine
 10
1118.678431191736
 20
829.1446244554753
 30
0.0
 11
1118.678431191736
 21
831.9515489305995
 31
0.0
  0
LWPOLYLINE
  5
1A4
330
7C
100
AcDbEntity
  8
Camada 1
 62
    18
420
        0
370
    70
100
AcDbPolyline
 90
        3
 70
     0
 43
0.0
 10
984.8493806723864
 20
835.5878185481852
 10
989.0821558102798
 20
832.1746544548405
 10
991.2415680920167
 20
828.187567948351
  0
LINE
  5
1A5
330
7C
100
AcDbEntity
  8
Camada 1
 62
    18
420
        0
370
    70
100
AcDbLine
 10
984.8493806723864
 20
835.5878185481852
 30
0.0
 11
984.8493806723864
 21
839.2556266430238
 31
0.0
  0
LINE
  5
1A6
330
7C
100
AcDbEntity
  8
Camada 1
 62
    18
420
        0
370
    70
100
AcDbLine
 10
697.8558568968018
 20
933.0000513072482
 30
0.0
 11
925.7098687823217
 21
801.4261965931309
 31
0.0
  0
LINE
  5
1A7
330
7C
100
AcDbEntity
  8
Camada 1
 62
    18
420
        0
370
    70
100
AcDbLine
 10
665.3433858107128
 20
918.5192178831467
 30
0.0
 11
695.0201194918445
 21
933.3193297189
 31
0.0
  0
LWPOLYLINE
  5
1A8
330
7C
100
AcDbEntity
  8
Camada 1
 62
    18
420
        0
370
    70
100
AcDbPolyline
 90
        3
 70
     0
 43
0.0
 10
697.8558568968018
 20
933.0000513072482
 10
696.3311077992038
 20
933.542435243141
 10
695.0201194918445
 20
933.3193297189
  0
LWPOLYLINE
  5
1A9
330
7C
100
AcDbEntity
  8
Camada 1
 62
    18
420
        0
370
    70
100
AcDbPolyline
 90
        3
 70
     0
 43
0.0
 10
697.8558568968018
 20
936.6682487660009
 10
695.1604851837965
 20
937.6572331142897
 10
692.8416283781926
 20
937.3064162253895
  0
LINE
  5
1AA
330
7C
100
AcDbEntity
  8
Camada 1
 62
    18
420
        0
370
    70
100
AcDbLine
 10
574.1732406814153
 20
875.5221499314847
 30
0.0
 11
573.0982069075462
 21
877.5001186280633
 31
0.0
  0
LWPOLYLINE
  5
1AB
330
7C
100
AcDbEntity
  8
Camada 1
 62
    18
420
        0
370
    70
100
AcDbPolyline
 90
        3
 70
     0
 43
0.0
 10
483.4590406985125
 20
816.4178754758777
 10
485.7778975041173
 20
816.768692364778
 10
488.4730745351634
 20
815.7797080164892
  0
LWPOLYLINE
  5
1AC
330
7C
100
AcDbEntity
  8
Camada 1
 62
    18
420
        0
370
    70
100
AcDbPolyline
 90
        3
 70
     0
 43
0.0
 10
925.7098687823217
 20
801.4261965931309
 10
929.9455641495907
 20
798.0453497048657
 10
932.1049764313285
 20
794.058263198378
  0
LINE
  5
1AD
330
7C
100
AcDbEntity
  8
Camada 1
 62
    18
420
        0
370
    70
100
AcDbLine
 10
925.7098687823217
 20
801.4261965931309
 30
0.0
 11
925.7098687823217
 21
805.126321893047
 31
0.0
  0
LINE
  5
1AE
330
7C
100
AcDbEntity
  8
Camada 1
 62
    18
420
        0
370
    70
100
AcDbLine
 10
638.7161503247789
 20
898.8388187161099
 30
0.0
 11
866.5701622102996
 21
767.2968918431579
 31
0.0
  0
LINE
  5
1AF
330
7C
100
AcDbEntity
  8
Camada 1
 62
    18
420
        0
370
    70
100
AcDbLine
 10
606.2038739206491
 20
884.3575959280906
 30
0.0
 11
635.8837225131146
 21
899.1896356050101
 31
0.0
  0
LWPOLYLINE
  5
1B0
330
7C
100
AcDbEntity
  8
Camada 1
 62
    18
420
        0
370
    70
100
AcDbPolyline
 90
        3
 70
     0
 43
0.0
 10
638.7161503247789
 20
898.8388187161099
 10
637.1947108204722
 20
899.3812026520018
 10
635.8837225131146
 20
899.1896356050101
  0
LWPOLYLINE
  5
1B1
330
7C
100
AcDbEntity
  8
Camada 1
 62
    18
420
        0
370
    70
100
AcDbPolyline
 90
        3
 70
     0
 43
0.0
 10
638.7161503247789
 20
902.538944016028
 10
636.0207786117753
 20
903.4956111592336
 10
633.7019218061696
 20
903.1447942703335
  0
LINE
  5
1B2
330
7C
100
AcDbEntity
  8
Camada 1
 62
    18
420
        0
370
    70
100
AcDbLine
 10
515.0366490207261
 20
841.3928451815108
 30
0.0
 11
513.9585003355241
 21
843.3384966730072
 31
0.0
  0
LINE
  5
1B3
330
7C
100
AcDbEntity
  8
Camada 1
 62
    18
420
        0
370
    70
100
AcDbLine
 10
358.7364334617559
 20
749.498677849202
 30
0.0
 11
424.3193341264904
 21
782.2562535208216
 31
0.0
  0
LINE
  5
1B4
330
7C
100
AcDbEntity
  8
Camada 1
 62
    18
420
        0
370
    70
100
AcDbLine
 10
304.5759126558441
 20
722.4499559234937
 30
0.0
 11
312.6170562624857
 21
726.4689702711511
 31
0.0
  0
LINE
  5
1B5
330
7C
100
AcDbEntity
  8
Camada 1
 62
    18
420
        0
370
    70
100
AcDbLine
 10
363.7156192278671
 20
756.6115778785497
 30
0.0
 11
483.4590406985125
 21
816.4178754758777
 31
0.0
  0
LINE
  5
1B6
330
7C
100
AcDbEntity
  8
Camada 1
 62
    18
420
        0
370
    70
100
AcDbLine
 10
422.8520162065978
 20
790.7408826285263
 30
0.0
 11
542.5954376772433
 21
850.5471802258517
 31
0.0
  0
LWPOLYLINE
  5
1B7
330
7C
100
AcDbEntity
  8
Camada 1
 62
    18
420
        0
370
    70
100
AcDbPolyline
 90
       12
 70
     0
 43
0.0
 10
395.6823967847713
 20
775.0475699679773
 10
391.7400871286964
 20
773.0384521580672
 10
386.8247570449166
 20
770.4227053660178
 10
381.3321949547044
 20
767.4565310489851
 10
375.705496995206
 20
764.3622560033727
 10
370.4011923586932
 20
761.3641538451702
 10
365.8526430843967
 20
758.7484070531245
 10
362.4270193457169
 20
756.6754335608821
 10
360.3982386580146
 20
755.3675601648574
 10
359.9325594137026
 20
754.9209597524605
 10
361.0681392766101
 20
755.3356323236912
 10
363.7156192278671
 20
756.6115778785497
  0
LINE
  5
1B8
330
7C
100
AcDbEntity
  8
Camada 1
 62
    18
420
        0
370
    70
100
AcDbLine
 10
515.4258182554167
 20
834.8538675653035
 30
0.0
 11
542.5954376772433
 21
850.5471802258517
 31
0.0
  0
LWPOLYLINE
  5
1B9
330
7C
100
AcDbEntity
  8
Camada 1
 62
    18
420
        0
370
    70
100
AcDbPolyline
 90
       12
 70
     0
 43
0.0
 10
454.8189884454595
 20
809.2091919230334
 10
450.8795990187618
 20
807.1996847492082
 10
445.9644636169396
 20
804.5839379571589
 10
440.4685919334342
 20
801.6177636401225
 10
434.845203567228
 20
798.4919501172626
 10
429.5407042487568
 20
795.5253864363112
 10
424.9923496564179
 20
792.8781011670143
 10
421.5634163244467
 20
790.8366661520195
 10
419.5348303187038
 20
789.5287927559984
 10
419.0722659857256
 20
789.0502645024353
 10
420.207845848633
 20
789.4649370736661
 10
422.8520162065978
 20
790.7408826285263
  0
LINE
  5
1BA
330
7C
100
AcDbEntity
  8
Camada 1
 62
    18
420
        0
370
    70
100
AcDbLine
 10
574.5622152341484
 20
869.0154895203605
 30
0.0
 11
601.7351442492663
 21
884.7084128169909
 31
0.0
  0
LINE
  5
1BB
330
7C
100
AcDbEntity
  8
Camada 1
 62
    18
420
        0
370
    70
100
AcDbLine
 10
481.9917227786199
 20
824.9021152196656
 30
0.0
 11
601.7351442492663
 21
884.7084128169909
 31
0.0
  0
LWPOLYLINE
  5
1BC
330
7C
100
AcDbEntity
  8
Camada 1
 62
    18
420
        0
370
    70
100
AcDbPolyline
 90
       12
 70
     0
 43
0.0
 10
513.9585003355241
 20
843.3384966730072
 10
510.019305590783
 20
841.3289894991804
 10
505.1008605956694
 20
838.7136320710487
 10
499.6082985054572
 20
835.7470683900974
 10
493.9816005459588
 20
832.6531827084018
 10
488.6804108207797
 20
829.6550805502029
 10
484.1320562284408
 20
827.0393337581518
 10
480.7031228964697
 20
824.9659709019942
 10
478.6745368907268
 20
823.6584868698882
 10
478.2086629644554
 20
823.2118864574912
 10
479.3475524206542
 20
823.6265590287221
 10
481.9917227786199
 20
824.9021152196656
  0
LINE
  5
1BD
330
7C
100
AcDbEntity
  8
Camada 1
 62
    18
420
        0
370
    70
100
AcDbLine
 10
633.7019218061696
 20
903.1447942703335
 30
0.0
 11
513.9585003355241
 21
843.3384966730072
 31
0.0
  0
LINE
  5
1BE
330
7C
100
AcDbEntity
  8
Camada 1
 62
    18
420
        0
370
    70
100
AcDbLine
 10
633.7019218061696
 20
903.1447942703335
 30
0.0
 11
660.8746561393299
 21
918.8381069308825
 31
0.0
  0
LINE
  5
1BF
330
7C
100
AcDbEntity
  8
Camada 1
 62
    18
420
        0
370
    70
100
AcDbLine
 10
541.1314293506429
 20
859.0318093335563
 30
0.0
 11
660.8746561393299
 21
918.8381069308825
 31
0.0
  0
LWPOLYLINE
  5
1C0
330
7C
100
AcDbEntity
  8
Camada 1
 62
    18
420
        0
370
    70
100
AcDbPolyline
 90
       12
 70
     0
 43
0.0
 10
573.0982069075462
 20
877.5001186280633
 10
569.1557025695146
 20
875.4586836130719
 10
564.2405671676924
 20
872.874864662187
 10
558.7478103955208
 20
869.9086903451535
 10
553.1213071179818
 20
866.7824874583766
 10
547.817002481469
 20
863.7843853001768
 10
543.2684532071725
 20
861.1686385081275
 10
539.8428294684918
 20
859.1275928570512
 10
537.8140487807904
 20
857.8197194610266
 10
537.3483695364784
 20
857.3411912074652
 10
538.4839493993858
 20
857.755863778696
 10
541.1314293506429
 20
859.0318093335563
  0
LINE
  5
1C1
330
7C
100
AcDbEntity
  8
Camada 1
 62
    18
420
        0
370
    70
100
AcDbLine
 10
692.8416283781926
 20
937.3064162253895
 30
0.0
 11
573.0982069075462
 21
877.5001186280633
 31
0.0
  0
LINE
  5
1C2
330
7C
100
AcDbEntity
  8
Camada 1
 62
    18
420
        0
370
    70
100
AcDbLine
 10
692.8416283781926
 20
937.3064162253895
 30
0.0
 11
720.0112478000192
 21
952.9674116808555
 31
0.0
  0
LINE
  5
1C3
330
7C
100
AcDbEntity
  8
Camada 1
 62
    18
420
        0
370
    70
100
AcDbLine
 10
600.2709412407066
 20
893.1930419246937
 30
0.0
 11
720.0112478000192
 21
952.9674116808555
 31
0.0
  0
LWPOLYLINE
  5
1C4
330
7C
100
AcDbEntity
  8
Camada 1
 62
    18
420
        0
370
    70
100
AcDbPolyline
 90
       12
 70
     0
 43
0.0
 10
632.234603886277
 20
911.6294233780363
 10
628.2954091415367
 20
909.6199162042111
 10
623.3800790577561
 20
907.004558776077
 10
617.8844020562101
 20
904.0379950951274
 10
612.2610136900029
 20
900.9441094134317
 10
606.9565143715326
 20
897.945617891316
 10
602.4081597791937
 20
895.3302604631835
 10
598.9792264472225
 20
893.2568976070252
 10
596.9506404414796
 20
891.9490242109995
 10
596.4880761085014
 20
891.5024237986035
 10
597.6236559714079
 20
891.9170963698352
 10
600.2709412407066
 20
893.1930419246937
  0
LINE
  5
1C5
330
7C
100
AcDbEntity
  8
Camada 1
 62
    18
420
        0
370
    70
100
AcDbLine
 10
751.9780253569242
 20
971.4357209753625
 30
0.0
 11
632.234603886277
 21
911.6294233780363
 31
0.0
  0
LINE
  5
1C6
330
7C
100
AcDbEntity
  8
Camada 1
 62
    18
420
        0
370
    70
100
AcDbLine
 10
751.9780253569242
 20
971.4357209753625
 30
0.0
 11
811.9182641415763
 21
1006.043553978899
 31
0.0
  0
LINE
  5
1C7
330
7C
100
AcDbEntity
  8
Camada 1
 62
    18
420
        0
370
    70
100
AcDbLine
 10
811.9182641415763
 20
1006.043553978899
 30
0.0
 11
647.8385575279544
 21
924.1011389922286
 31
0.0
  0
LINE
  5
1C8
330
7C
100
AcDbEntity
  8
Camada 1
 62
    18
420
        0
370
    70
100
AcDbLine
 10
352.0860977653865
 20
753.3580529910286
 30
0.0
 11
647.8385575279544
 21
924.1011389922286
 31
0.0
  0
LINE
  5
1C9
330
7C
100
AcDbEntity
  8
Camada 1
 62
    18
420
        0
370
    70
100
AcDbLine
 10
200.3024062985687
 20
665.7060055306174
 30
0.0
 11
309.089224495684
 21
728.5104052861425
 31
0.0
  0
LWPOLYLINE
  5
1CA
330
7C
100
AcDbEntity
  8
Camada 1
 62
    18
420
        0
370
    70
100
AcDbPolyline
 90
        7
 70
     0
 43
0.0
 10
311.2934136278354
 20
727.2344597312804
 10
306.7353249375801
 20
724.6191023031497
 10
303.296852189651
 20
722.5457394469922
 10
301.2618416792848
 20
721.2378660509675
 10
300.793047523639
 20
720.7597271613194
 10
301.928432704588
 20
721.1743997325538
 10
304.5759126558441
 20
722.4499559234937
  0
LINE
  5
1CB
330
7C
100
AcDbEntity
  8
Camada 1
 62
    18
420
        0
370
    70
100
AcDbLine
 10
456.2861116833937
 20
800.7245628153286
 30
0.0
 11
483.4590406985125
 21
816.4178754758777
 31
0.0
  0
LWPOLYLINE
  5
1CC
330
7C
100
AcDbEntity
  8
Camada 1
 62
    18
420
        0
370
    70
100
AcDbPolyline
 90
        3
 70
     0
 43
0.0
 10
424.3193341264904
 20
782.2562535208216
 10
426.6381909320943
 20
782.6074597736406
 10
429.3333679631414
 20
781.6504032665161
  0
LINE
  5
1CD
330
7C
100
AcDbEntity
  8
Camada 1
 62
    18
420
        0
370
    70
100
AcDbLine
 10
364.3822102531704
 20
747.6484205172855
 30
0.0
 11
424.3193341264904
 21
782.2562535208216
 31
0.0
  0
LWPOLYLINE
  5
1CE
330
7C
100
AcDbEntity
  8
Camada 1
 62
    18
420
        0
370
    70
100
AcDbPolyline
 90
        3
 70
     0
 43
0.0
 10
866.5701622102996
 20
767.2968918431579
 10
870.8060522595269
 20
763.9156555909758
 10
872.9654645412638
 20
759.8966412433219
  0
LINE
  5
1CF
330
7C
100
AcDbEntity
  8
Camada 1
 62
    18
420
        0
370
    70
100
AcDbLine
 10
866.5701622102996
 20
767.2968918431579
 30
0.0
 11
866.5701622102996
 21
770.9970171430759
 31
0.0
  0
LINE
  5
1D0
330
7C
100
AcDbEntity
  8
Camada 1
 62
    18
420
        0
370
    70
100
AcDbLine
 10
579.5764437527568
 20
864.7095139661351
 30
0.0
 11
807.4335705496105
 21
733.1356592520169
 31
0.0
  0
LINE
  5
1D1
330
7C
100
AcDbEntity
  8
Camada 1
 62
    18
420
        0
370
    70
100
AcDbLine
 10
547.0672822599599
 20
850.2282911781167
 30
0.0
 11
576.7440159410917
 21
865.0603308550353
 31
0.0
  0
LWPOLYLINE
  5
1D2
330
7C
100
AcDbEntity
  8
Camada 1
 62
    18
420
        0
370
    70
100
AcDbPolyline
 90
        3
 70
     0
 43
0.0
 10
579.5764437527568
 20
864.7095139661351
 10
578.0550042484492
 20
865.2515085381109
 10
576.7440159410917
 20
865.0603308550353
  0
LWPOLYLINE
  5
1D3
330
7C
100
AcDbEntity
  8
Camada 1
 62
    18
420
        0
370
    70
100
AcDbPolyline
 90
        3
 70
     0
 43
0.0
 10
579.5764437527568
 20
868.3773220609719
 10
576.8843816330436
 20
869.3663064092607
 10
574.5622152341484
 20
869.0154895203605
  0
LINE
  5
1D4
330
7C
100
AcDbEntity
  8
Camada 1
 62
    18
420
        0
370
    70
100
AcDbLine
 10
574.5622152341484
 20
869.0154895203605
 30
0.0
 11
454.8189884454595
 21
809.2091919230334
 31
0.0
  0
LINE
  5
1D5
330
7C
100
AcDbEntity
  8
Camada 1
 62
    18
420
        0
370
    70
100
AcDbLine
 10
455.896942448704
 20
807.263540431537
 30
0.0
 11
454.8189884454595
 21
809.2091919230334
 31
0.0
  0
LINE
  5
1D6
330
7C
100
AcDbEntity
  8
Camada 1
 62
    18
420
        0
370
    70
100
AcDbLine
 10
408.3774126051612
 20
720.8551213208993
 30
0.0
 11
369.3964387717797
 21
743.342444963062
 31
0.0
  0
LINE
  5
1D7
330
7C
100
AcDbEntity
  8
Camada 1
 62
    18
420
        0
370
    70
100
AcDbLine
 10
25.5437128839867
 20
945.5675504449363
 30
0.0
 11
-13.43726094939484
 21
968.0864125643465
 31
0.0
  0
LINE
  5
1D8
330
7C
100
AcDbEntity
  8
Camada 1
 62
    18
420
        0
370
    70
100
AcDbLine
 10
-13.43726094939484
 20
968.0864125643465
 30
0.0
 11
-13.43726094939484
 21
964.3866766283453
 31
0.0
  0
LINE
  5
1D9
330
7C
100
AcDbEntity
  8
Camada 1
 62
    18
420
        0
370
    70
100
AcDbLine
 10
25.5437128839867
 20
941.8674251450184
 30
0.0
 11
-13.43726094939484
 21
964.3866766283453
 31
0.0
  0
LINE
  5
1DA
330
7C
100
AcDbEntity
  8
Camada 1
 62
    18
420
        0
370
    70
100
AcDbLine
 10
192.4558473092747
 20
667.5558734986152
 30
0.0
 11
73.29617969066475
 21
864.6456582838045
 31
0.0
  0
LWPOLYLINE
  5
1DB
330
7C
100
AcDbEntity
  8
Camada 1
 62
    18
420
        0
370
    70
100
AcDbPolyline
 90
        4
 70
     0
 43
0.0
 10
202.4842070055138
 20
661.7508468652922
 10
199.2881132956981
 20
661.591207659465
 10
195.6487287667778
 20
663.6964983567886
 10
192.4558473092747
 20
667.5558734986152
  0
LINE
  5
1DC
330
7C
100
AcDbEntity
  8
Camada 1
 62
    18
420
        0
370
    70
100
AcDbLine
 10
321.6438746241229
 20
721.2697938921337
 30
0.0
 11
202.4842070055138
 21
661.7508468652922
 31
0.0
  0
LWPOLYLINE
  5
1DD
330
7C
100
AcDbEntity
  8
Camada 1
 62
    18
420
        0
370
    70
100
AcDbPolyline
 90
        3
 70
     0
 43
0.0
 10
369.3964387717797
 20
747.04257026298
 10
366.7010670587751
 20
747.9992374061875
 10
364.3822102531704
 20
747.6484205172855
  0
LINE
  5
1DE
330
7C
100
AcDbEntity
  8
Camada 1
 62
    18
420
        0
370
    70
100
AcDbLine
 10
316.9549596578745
 20
723.9813242076779
 30
0.0
 11
200.3024062985687
 21
665.7060055306174
 31
0.0
  0
LINE
  5
1DF
330
7C
100
AcDbEntity
  8
Camada 1
 62
    18
420
        0
370
    70
100
AcDbLine
 10
364.3822102531704
 20
747.6484205172855
 30
0.0
 11
363.0712219458128
 21
747.0106424218138
 31
0.0
  0
LWPOLYLINE
  5
1E0
330
7C
100
AcDbEntity
  8
Camada 1
 62
    18
420
        0
370
    70
100
AcDbPolyline
 90
        3
 70
     0
 43
0.0
 10
200.3024062985687
 20
665.7060055306174
 10
197.4699784869044
 20
666.0568224195158
 10
194.6344357639054
 20
668.9910688953859
  0
LINE
  5
1E1
330
7C
100
AcDbEntity
  8
Camada 1
 62
    18
420
        0
370
    70
100
AcDbLine
 10
31.8656201166632
 20
938.2311555274309
 30
0.0
 11
30.55784406161638
 21
940.4003019070833
 31
0.0
  0
LINE
  5
1E2
330
7C
100
AcDbEntity
  8
Camada 1
 62
    18
420
        0
370
    70
100
AcDbLine
 10
194.6344357639054
 20
668.9910688953859
 30
0.0
 11
77.98178506362273
 21
861.9345173321763
 31
0.0
  0
LWPOLYLINE
  5
1E3
330
7C
100
AcDbEntity
  8
Camada 1
 62
    18
420
        0
370
    70
100
AcDbPolyline
 90
        3
 70
     0
 43
0.0
 10
30.55784406161638
 20
940.4003019070833
 10
28.23577500369993
 20
943.4303319064483
 10
25.5437128839867
 20
945.5675504449363
  0
LWPOLYLINE
  5
1E4
330
7C
100
AcDbEntity
  8
Camada 1
 62
    18
420
        0
370
    70
100
AcDbPolyline
 90
        3
 70
     0
 43
0.0
 10
409.5606895478595
 20
719.9303820188579
 10
409.0280397098822
 20
720.4089102724211
 10
408.3774126051612
 20
720.8551213208993
  0
LINE
  5
1E5
330
7C
100
AcDbEntity
  8
Camada 1
 62
    18
420
        0
370
    70
100
AcDbLine
 10
408.3774126051612
 20
720.8551213208993
 30
0.0
 11
408.3774126051612
 21
724.5233187796547
 31
0.0
  0
LWPOLYLINE
  5
1E6
330
7C
100
AcDbEntity
  8
Camada 1
 62
    18
420
        0
370
    70
100
AcDbPolyline
 90
        3
 70
     0
 43
0.0
 10
807.4335705496105
 20
733.1356592520169
 10
811.6663456875039
 20
729.7544229998347
 10
813.8257579692417
 20
725.7673364933471
  0
LINE
  5
1E7
330
7C
100
AcDbEntity
  8
Camada 1
 62
    18
420
        0
370
    70
100
AcDbLine
 10
807.4335705496105
 20
733.1356592520169
 30
0.0
 11
807.4335705496105
 21
736.8353951880199
 31
0.0
  0
LINE
  5
1E8
330
7C
100
AcDbEntity
  8
Camada 1
 62
    18
420
        0
370
    70
100
AcDbLine
 10
520.4400467740261
 20
830.5478920110799
 30
0.0
 11
748.2940586595459
 21
699.0059651381271
 31
0.0
  0
LINE
  5
1E9
330
7C
100
AcDbEntity
  8
Camada 1
 62
    18
420
        0
370
    70
100
AcDbLine
 10
487.9277703698963
 20
816.0670585869775
 30
0.0
 11
517.6043093690687
 21
830.898708899982
 31
0.0
  0
LWPOLYLINE
  5
1EA
330
7C
100
AcDbEntity
  8
Camada 1
 62
    18
420
        0
370
    70
100
AcDbPolyline
 90
        3
 70
     0
 43
0.0
 10
520.4400467740261
 20
830.5478920110799
 10
518.9152976764281
 20
831.0902759469717
 10
517.6043093690687
 20
830.898708899982
  0
LWPOLYLINE
  5
1EB
330
7C
100
AcDbEntity
  8
Camada 1
 62
    18
420
        0
370
    70
100
AcDbPolyline
 90
        3
 70
     0
 43
0.0
 10
520.4400467740261
 20
834.2480173109979
 10
517.7446750610206
 20
835.2050738181205
 10
515.4258182554167
 20
834.8538675653035
  0
LINE
  5
1EC
330
7C
100
AcDbEntity
  8
Camada 1
 62
    18
420
        0
370
    70
100
AcDbLine
 10
515.4258182554167
 20
834.8538675653035
 30
0.0
 11
395.6823967847713
 21
775.0475699679773
 31
0.0
  0
LINE
  5
1ED
330
7C
100
AcDbEntity
  8
Camada 1
 62
    18
420
        0
370
    70
100
AcDbLine
 10
396.7574305586395
 20
773.1019184764809
 30
0.0
 11
395.6823967847713
 21
775.0475699679773
 31
0.0
  0
LWPOLYLINE
  5
1EE
330
7C
100
AcDbEntity
  8
Camada 1
 62
    18
420
        0
370
    70
100
AcDbPolyline
 90
        3
 70
     0
 43
0.0
 10
748.2940586595459
 20
699.0059651381271
 10
752.5299487087741
 20
695.6251182498635
 10
754.689360990511
 20
691.6061039022097
  0
LINE
  5
1EF
330
7C
100
AcDbEntity
  8
Camada 1
 62
    18
420
        0
370
    70
100
AcDbLine
 10
748.2940586595459
 20
699.0059651381271
 30
0.0
 11
748.2940586595459
 21
702.7060904380451
 31
0.0
  0
LINE
  5
1F0
330
7C
100
AcDbEntity
  8
Camada 1
 62
    18
420
        0
370
    70
100
AcDbLine
 10
461.3003402020031
 20
796.4185872611051
 30
0.0
 11
689.1543520875248
 21
664.8766603881522
 31
0.0
  0
LINE
  5
1F1
330
7C
100
AcDbEntity
  8
Camada 1
 62
    18
420
        0
370
    70
100
AcDbLine
 10
428.7880637978733
 20
781.9373644730858
 30
0.0
 11
458.464797479005
 21
796.7694041500071
 31
0.0
  0
LWPOLYLINE
  5
1F2
330
7C
100
AcDbEntity
  8
Camada 1
 62
    18
420
        0
370
    70
100
AcDbPolyline
 90
        3
 70
     0
 43
0.0
 10
461.3003402020031
 20
796.4185872611051
 10
459.7789006976963
 20
796.960971196997
 10
458.464797479005
 20
796.7694041500071
  0
LWPOLYLINE
  5
1F3
330
7C
100
AcDbEntity
  8
Camada 1
 62
    18
420
        0
370
    70
100
AcDbPolyline
 90
        3
 70
     0
 43
0.0
 10
461.3003402020031
 20
800.1187125610231
 10
458.6049684889994
 20
801.0753797042307
 10
456.2861116833937
 20
800.7245628153286
  0
LINE
  5
1F4
330
7C
100
AcDbEntity
  8
Camada 1
 62
    18
420
        0
370
    70
100
AcDbLine
 10
456.2861116833937
 20
800.7245628153286
 30
0.0
 11
356.4240011607763
 21
750.8380897224778
 31
0.0
  0
LWPOLYLINE
  5
1F5
330
7C
100
AcDbEntity
  8
Camada 1
 62
    18
420
        0
370
    70
100
AcDbPolyline
 90
        3
 70
     0
 43
0.0
 10
689.1543520875248
 20
664.8766603881522
 10
693.3902421367511
 20
661.4634962948075
 10
695.549654418488
 20
657.4764097883198
  0
LINE
  5
1F6
330
7C
100
AcDbEntity
  8
Camada 1
 62
    18
420
        0
370
    70
100
AcDbLine
 10
689.1543520875248
 20
668.544857846904
 30
0.0
 11
689.1543520875248
 21
664.8766603881522
 31
0.0
  0
LWPOLYLINE
  5
1F7
330
7C
100
AcDbEntity
  8
Camada 1
 62
    18
420
        0
370
    70
100
AcDbPolyline
 90
        3
 70
     0
 43
0.0
 10
1113.884387967991
 20
833.9929839455908
 10
1117.72156936657
 20
830.5159641699138
 10
1120.429595406866
 20
825.5722105202185
  0
LWPOLYLINE
  5
1F8
330
7C
100
AcDbEntity
  8
Camada 1
 62
    18
420
        0
370
    70
100
AcDbPolyline
 90
        3
 70
     0
 43
0.0
 10
666.3481393976272
 20
575.5978504839804
 10
667.8824279111831
 20
574.5130826121931
 10
669.3464362377853
 20
573.1417428977547
  0
LINE
  5
1F9
330
7C
100
AcDbEntity
  8
Camada 1
 62
    18
420
        0
370
    70
100
AcDbLine
 10
666.3481393976272
 20
574.8642888650102
 30
0.0
 11
666.3481393976272
 21
575.5978504839804
 31
0.0
  0
LWPOLYLINE
  5
1FA
330
7C
100
AcDbEntity
  8
Camada 1
 62
    18
420
        0
370
    70
100
AcDbPolyline
 90
        3
 70
     0
 43
0.0
 10
671.1900743831193
 20
567.3047884232655
 10
670.8456819988423
 20
566.2838762338106
 10
669.8633168371371
 20
565.454531091349
  0
LINE
  5
1FB
330
7C
100
AcDbEntity
  8
Camada 1
 62
    18
420
        0
370
    70
100
AcDbLine
 10
671.1900743831193
 20
567.3047884232655
 30
0.0
 11
671.1900743831193
 21
570.9725965181023
 31
0.0
  0
LINE
  5
1FC
330
7C
100
AcDbEntity
  8
Camada 1
 62
    18
420
        0
370
    70
100
AcDbLine
 10
651.3249220376328
 20
554.7372892855783
 30
0.0
 11
669.8633168371371
 21
565.454531091349
 31
0.0
  0
LINE
  5
1FD
330
7C
100
AcDbEntity
  8
Camada 1
 62
    18
420
        0
370
    70
100
AcDbLine
 10
669.8633168371371
 20
565.454531091349
 30
0.0
 11
669.8633168371371
 21
569.1227285501009
 31
0.0
  0
LINE
  5
1FE
330
7C
100
AcDbEntity
  8
Camada 1
 62
    18
420
        0
370
    70
100
AcDbLine
 10
619.9928076648666
 20
561.754405791431
 30
0.0
 11
632.1454395493646
 21
554.7372892855783
 31
0.0
  0
LWPOLYLINE
  5
1FF
330
7C
100
AcDbEntity
  8
Camada 1
 62
    18
420
        0
370
    70
100
AcDbPolyline
 90
        5
 70
     0
 43
0.0
 10
651.3249220376328
 20
554.7372892855783
 10
646.9231629599116
 20
553.0466711594853
 10
641.7335259968522
 20
552.4408209051798
 10
636.5438890337927
 20
553.0466711594853
 10
632.1454395493646
 20
554.7372892855783
  0
LINE
  5
200
330
7C
100
AcDbEntity
  8
Camada 1
 62
    18
420
        0
370
    70
100
AcDbLine
 10
651.3249220376328
 20
558.4374145854963
 30
0.0
 11
651.3249220376328
 21
554.7372892855783
 31
0.0
  0
LINE
  5
201
330
7C
100
AcDbEntity
  8
Camada 1
 62
    18
420
        0
370
    70
100
AcDbLine
 10
632.1454395493646
 20
554.7372892855783
 30
0.0
 11
632.1454395493646
 21
558.4374145854963
 31
0.0
  0
LINE
  5
202
330
7C
100
AcDbEntity
  8
Camada 1
 62
    18
420
        0
370
    70
100
AcDbLine
 10
1118.678431191736
 20
831.9515489305995
 30
0.0
 11
1114.522166063462
 21
834.3438008344929
 31
0.0
  0
LWPOLYLINE
  5
203
330
7C
100
AcDbEntity
  8
Camada 1
 62
    18
420
        0
370
    70
100
AcDbPolyline
 90
        3
 70
     0
 43
0.0
 10
1118.678431191736
 20
831.9515489305995
 10
1121.874524901552
 20
831.1860594704667
 10
1125.073733522699
 20
831.9515489305995
  0
LINE
  5
204
330
7C
100
AcDbEntity
  8
Camada 1
 62
    18
420
        0
370
    70
100
AcDbLine
 10
1125.073733522699
 20
831.9515489305995
 30
0.0
 11
1143.612128322204
 21
842.6687907363703
 31
0.0
  0
LWPOLYLINE
  5
205
330
7C
100
AcDbEntity
  8
Camada 1
 62
    18
420
        0
370
    70
100
AcDbPolyline
 90
        5
 70
     0
 43
0.0
 10
1143.612128322204
 20
842.6687907363703
 10
1146.552993984656
 20
845.1887540049256
 10
1147.586365819444
 20
848.1868561631236
 10
1146.552993984656
 20
851.1853476852403
 10
1143.612128322204
 20
853.7368494310431
  0
LINE
  5
206
330
7C
100
AcDbEntity
  8
Camada 1
 62
    18
420
        0
370
    70
100
AcDbLine
 10
902.262568403662
 20
993.0617716338975
 30
0.0
 11
1143.612128322204
 21
853.7368494310431
 31
0.0
  0
LWPOLYLINE
  5
207
330
7C
100
AcDbEntity
  8
Camada 1
 62
    18
420
        0
370
    70
100
AcDbPolyline
 90
        5
 70
     0
 43
0.0
 10
902.262568403662
 20
993.0617716338975
 10
897.8639242372764
 20
994.783928237236
 10
892.6742872742162
 20
995.3582400142941
 10
887.484844993115
 20
994.783928237236
 10
883.0830859153939
 20
993.0617716338975
  0
LINE
  5
208
330
7C
100
AcDbEntity
  8
Camada 1
 62
    18
420
        0
370
    70
100
AcDbLine
 10
865.5015529410565
 20
982.918452241266
 30
0.0
 11
883.0830859153939
 21
993.0617716338975
 31
0.0
  0
LWPOLYLINE
  5
209
330
7C
100
AcDbEntity
  8
Camada 1
 62
    18
420
        0
370
    70
100
AcDbPolyline
 90
        4
 70
     0
 43
0.0
 10
865.5015529410565
 20
982.918452241266
 10
862.4617888437761
 20
981.897929415728
 10
858.9532305908479
 20
981.897929415728
 10
855.9101569002759
 20
982.918452241266
  0
LINE
  5
20A
330
7C
100
AcDbEntity
  8
Camada 1
 62
    18
420
        0
370
    70
100
AcDbLine
 10
855.9101569002759
 20
982.918452241266
 30
0.0
 11
816.9324926601857
 21
1005.437703724593
 31
0.0
  0
LINE
  5
20B
330
7C
100
AcDbEntity
  8
Camada 1
 62
    18
420
        0
370
    70
100
AcDbLine
 10
756.9922538755327
 20
970.82948135714
 30
0.0
 11
816.9324926601857
 21
1005.437703724593
 31
0.0
  0
LINE
  5
20C
330
7C
100
AcDbEntity
  8
Camada 1
 62
    18
420
        0
370
    70
100
AcDbLine
 10
984.8493806723864
 20
839.2556266430238
 30
0.0
 11
756.9922538755327
 21
970.82948135714
 31
0.0
  0
LWPOLYLINE
  5
20D
330
7C
100
AcDbEntity
  8
Camada 1
 62
    18
420
        0
370
    70
100
AcDbPolyline
 90
       12
 70
     0
 43
0.0
 10
952.8826031154821
 20
820.8196345535979
 10
958.0338877327513
 20
818.5866324916132
 10
964.0590996609407
 20
817.2791484595073
 10
970.4767904171122
 20
817.0237257301851
 10
976.7636548972886
 20
817.8211430314805
 10
982.412546600036
 20
819.6075446810683
 10
986.9609011923749
 20
822.2229021092026
 10
990.04544214007
 20
825.4764269967235
 10
991.4105520318425
 20
829.1126966143092
 10
990.9512972921547
 20
832.8128219142271
 10
988.7058355848385
 20
836.2894523259893
 10
984.8493806723864
 20
839.2556266430238
  0
LINE
  5
20E
330
7C
100
AcDbEntity
  8
Camada 1
 62
    18
420
        0
370
    70
100
AcDbLine
 10
725.0252816366701
 20
952.36156142655
 30
0.0
 11
952.8826031154821
 21
820.8196345535979
 31
0.0
  0
LINE
  5
20F
330
7C
100
AcDbEntity
  8
Camada 1
 62
    18
420
        0
370
    70
100
AcDbLine
 10
697.8558568968018
 20
936.6682487660009
 30
0.0
 11
725.0252816366701
 21
952.36156142655
 31
0.0
  0
LINE
  5
210
330
7C
100
AcDbEntity
  8
Camada 1
 62
    18
420
        0
370
    70
100
AcDbLine
 10
925.7098687823217
 20
805.126321893047
 30
0.0
 11
697.8558568968018
 21
936.6682487660009
 31
0.0
  0
LWPOLYLINE
  5
211
330
7C
100
AcDbEntity
  8
Camada 1
 62
    18
420
        0
370
    70
100
AcDbPolyline
 90
       12
 70
     0
 43
0.0
 10
893.7428965434602
 20
786.658012598542
 10
898.8941811607292
 20
784.457327741642
 10
904.9227026822091
 20
783.1494543456138
 10
911.3403934383814
 20
782.8944209802102
 10
917.6270632366003
 20
783.6599104403431
 10
923.2728400280148
 20
785.4459227260122
 10
927.8213893023103
 20
788.0935973592277
 10
930.9057355680488
 20
791.3471222467487
 10
932.2741550531118
 20
794.9830025004193
 10
931.814900313423
 20
798.6831278003373
 10
929.5661290128164
 20
802.1597582120994
 10
925.7098687823217
 20
805.126321893047
  0
LINE
  5
212
330
7C
100
AcDbEntity
  8
Camada 1
 62
    18
420
        0
370
    70
100
AcDbLine
 10
665.8888846579393
 20
918.2318673126584
 30
0.0
 11
893.7428965434602
 21
786.658012598542
 31
0.0
  0
LINE
  5
213
330
7C
100
AcDbEntity
  8
Camada 1
 62
    18
420
        0
370
    70
100
AcDbLine
 10
638.7161503247789
 20
902.538944016028
 30
0.0
 11
665.8888846579393
 21
918.2318673126584
 31
0.0
  0
LINE
  5
214
330
7C
100
AcDbEntity
  8
Camada 1
 62
    18
420
        0
370
    70
100
AcDbLine
 10
866.5701622102996
 20
770.9970171430759
 30
0.0
 11
638.7161503247789
 21
902.538944016028
 31
0.0
  0
LWPOLYLINE
  5
215
330
7C
100
AcDbEntity
  8
Camada 1
 62
    18
420
        0
370
    70
100
AcDbPolyline
 90
       12
 70
     0
 43
0.0
 10
834.6031899714372
 20
752.5287078485671
 10
839.7546692706645
 20
750.296095150501
 10
845.7829961101879
 20
748.9882217544764
 10
852.2006868663584
 20
748.7327990251542
 10
858.4875513465359
 20
749.5302163264532
 10
864.1331334559918
 20
751.3166179760373
 10
868.684797641622
 20
753.9319754041716
 10
871.7660289960258
 20
757.1855002916927
 10
873.1344484810897
 20
760.8217699092819
 10
872.675193741402
 20
764.5218952091964
 10
870.4264224407934
 20
767.9985256209583
 10
866.5701622102996
 20
770.9970171430759
  0
LINE
  5
216
330
7C
100
AcDbEntity
  8
Camada 1
 62
    18
420
        0
370
    70
100
AcDbLine
 10
606.7491780859172
 20
884.070634721519
 30
0.0
 11
834.6031899714372
 21
752.5287078485671
 31
0.0
  0
LINE
  5
217
330
7C
100
AcDbEntity
  8
Camada 1
 62
    18
420
        0
370
    70
100
AcDbLine
 10
579.5764437527568
 20
868.3773220609719
 30
0.0
 11
606.7491780859172
 21
884.070634721519
 31
0.0
  0
LINE
  5
218
330
7C
100
AcDbEntity
  8
Camada 1
 62
    18
420
        0
370
    70
100
AcDbLine
 10
807.4335705496105
 20
736.8353951880199
 30
0.0
 11
579.5764437527568
 21
868.3773220609719
 31
0.0
  0
LWPOLYLINE
  5
219
330
7C
100
AcDbEntity
  8
Camada 1
 62
    18
420
        0
370
    70
100
AcDbPolyline
 90
       12
 70
     0
 43
0.0
 10
775.4667929927063
 20
718.3674752574297
 10
780.6180776099763
 20
716.1664010366112
 10
786.6434842201242
 20
714.8585276405865
 10
793.0609802943363
 20
714.6034942751794
 10
799.3478447745128
 20
715.3689837353121
 10
804.996736477261
 20
717.1553853848999
 10
809.5452857515574
 20
719.8026706541968
 10
812.6296320172942
 20
723.0561955417178
 10
813.9947419090667
 20
726.6924651593072
 10
813.5354871693788
 20
730.3922010953065
 10
811.2900254620635
 20
733.8692208709836
 10
807.4335705496105
 20
736.8353951880199
  0
LINE
  5
21A
330
7C
100
AcDbEntity
  8
Camada 1
 62
    18
420
        0
370
    70
100
AcDbLine
 10
547.6096661958527
 20
849.9413299715461
 30
0.0
 11
775.4667929927063
 21
718.3674752574297
 31
0.0
  0
LINE
  5
21B
330
7C
100
AcDbEntity
  8
Camada 1
 62
    18
420
        0
370
    70
100
AcDbLine
 10
520.4400467740261
 20
834.2480173109979
 30
0.0
 11
547.6096661958527
 21
849.9413299715461
 31
0.0
  0
LINE
  5
21C
330
7C
100
AcDbEntity
  8
Camada 1
 62
    18
420
        0
370
    70
100
AcDbLine
 10
748.2940586595459
 20
702.7060904380451
 30
0.0
 11
520.4400467740261
 21
834.2480173109979
 31
0.0
  0
LWPOLYLINE
  5
21D
330
7C
100
AcDbEntity
  8
Camada 1
 62
    18
420
        0
370
    70
100
AcDbPolyline
 90
       12
 70
     0
 43
0.0
 10
716.3270864206842
 20
684.2377811435398
 10
721.4783710379533
 20
682.0051684454702
 10
727.506892559435
 20
680.7292228906117
 10
733.9245833156056
 20
680.442261684042
 10
740.2114477957829
 20
681.2396789853373
 10
745.8570299052389
 20
683.0256912710101
 10
750.4055791795362
 20
685.6414380630594
 10
753.489925445273
 20
688.8949629505805
 10
754.8583449303359
 20
692.5308432042511
 10
754.3990901906481
 20
696.2309685041691
 10
752.1503188900405
 20
699.7075989159275
 10
748.2940586595459
 20
702.7060904380451
  0
LINE
  5
21E
330
7C
100
AcDbEntity
  8
Camada 1
 62
    18
420
        0
370
    70
100
AcDbLine
 10
488.4730745351634
 20
815.7797080164892
 30
0.0
 11
716.3270864206842
 21
684.2377811435398
 31
0.0
  0
LINE
  5
21F
330
7C
100
AcDbEntity
  8
Camada 1
 62
    18
420
        0
370
    70
100
AcDbLine
 10
461.3003402020031
 20
800.1187125610231
 30
0.0
 11
488.4730745351634
 21
815.7797080164892
 31
0.0
  0
LINE
  5
220
330
7C
100
AcDbEntity
  8
Camada 1
 62
    18
420
        0
370
    70
100
AcDbLine
 10
689.1543520875248
 20
668.544857846904
 30
0.0
 11
461.3003402020031
 21
800.1187125610231
 31
0.0
  0
LWPOLYLINE
  5
221
330
7C
100
AcDbEntity
  8
Camada 1
 62
    18
420
        0
370
    70
100
AcDbPolyline
 90
       12
 70
     0
 43
0.0
 10
657.1875745306197
 20
650.1084763935651
 10
662.3388591478888
 20
647.8754743315803
 10
668.367185987412
 20
646.5679902994707
 10
674.7848767435826
 20
646.3125675701485
 10
681.0717412237599
 20
647.1099848714475
 10
686.7175180151743
 20
648.8644586798691
 10
691.2691822008046
 20
651.5117439491696
 10
694.35021887325
 20
654.7652688366906
 10
695.7186383583139
 20
658.4015384542762
 10
695.259383618626
 20
662.1016637541942
 10
693.0106123180175
 20
665.5782941659563
 10
689.1543520875248
 20
668.544857846904
  0
LINE
  5
222
330
7C
100
AcDbEntity
  8
Camada 1
 62
    18
420
        0
370
    70
100
AcDbLine
 10
429.3333679631414
 20
781.6504032665161
 30
0.0
 11
657.1875745306197
 21
650.1084763935651
 31
0.0
  0
LINE
  5
223
330
7C
100
AcDbEntity
  8
Camada 1
 62
    18
420
        0
370
    70
100
AcDbLine
 10
369.3964387717797
 20
747.04257026298
 30
0.0
 11
429.3333679631414
 21
781.6504032665161
 31
0.0
  0
LINE
  5
224
330
7C
100
AcDbEntity
  8
Camada 1
 62
    18
420
        0
370
    70
100
AcDbLine
 10
408.3774126051612
 20
724.5233187796547
 30
0.0
 11
369.3964387717797
 21
747.04257026298
 31
0.0
  0
LWPOLYLINE
  5
225
330
7C
100
AcDbEntity
  8
Camada 1
 62
    18
420
        0
370
    70
100
AcDbPolyline
 90
        4
 70
     0
 43
0.0
 10
408.3774126051612
 20
724.5233187796547
 10
410.1316917316244
 20
722.7692343351482
 10
410.1316917316244
 20
720.7597271613194
 10
408.3774126051612
 20
719.0052533529015
  0
LINE
  5
226
330
7C
100
AcDbEntity
  8
Camada 1
 62
    18
420
        0
370
    70
100
AcDbLine
 10
408.3774126051612
 20
719.0052533529015
 30
0.0
 11
397.8258451459251
 21
712.9128761490865
 31
0.0
  0
LINE
  5
227
330
7C
100
AcDbEntity
  8
Camada 1
 62
    18
420
        0
370
    70
100
AcDbLine
 10
619.8236290430823
 20
565.5503146148439
 30
0.0
 11
632.1454395493646
 21
558.4374145854963
 31
0.0
  0
LWPOLYLINE
  5
228
330
7C
100
AcDbEntity
  8
Camada 1
 62
    18
420
        0
370
    70
100
AcDbPolyline
 90
        5
 70
     0
 43
0.0
 10
632.1454395493646
 20
558.4374145854963
 10
636.5438890337927
 20
556.7467964594034
 10
641.7335259968522
 20
556.1409462050979
 10
646.9231629599116
 20
556.7467964594034
 10
651.3249220376328
 20
558.4374145854963
  0
LINE
  5
229
330
7C
100
AcDbEntity
  8
Camada 1
 62
    18
420
        0
370
    70
100
AcDbLine
 10
651.3249220376328
 20
558.4374145854963
 30
0.0
 11
669.8633168371371
 21
569.1227285501009
 31
0.0
  0
LWPOLYLINE
  5
22A
330
7C
100
AcDbEntity
  8
Camada 1
 62
    18
420
        0
370
    70
100
AcDbPolyline
 90
        3
 70
     0
 43
0.0
 10
669.8633168371371
 20
569.1227285501009
 10
671.1900743831193
 20
570.9725965181023
 10
669.8633168371371
 20
572.8228538500188
  0
LINE
  5
22B
330
7C
100
AcDbEntity
  8
Camada 1
 62
    18
420
        0
370
    70
100
AcDbLine
 10
669.8633168371371
 20
572.8228538500188
 30
0.0
 11
665.7103613021545
 21
575.2151057539122
 31
0.0
  0
LINE
  5
22C
330
7C
100
AcDbEntity
  8
Camada 1
 62
    18
420
        0
370
    70
100
AcDbLine
 10
666.3481393976272
 20
575.5978504839804
 30
0.0
 11
665.7103613021545
 21
575.2151057539122
 31
0.0
  0
LINE
  5
22D
330
7C
100
AcDbEntity
  8
Camada 1
 62
    18
420
        0
370
    70
100
AcDbLine
 10
666.3481393976272
 20
575.5978504839804
 30
0.0
 11
1113.884387967991
 21
833.9929839455908
 31
0.0
  0
LINE
  5
22E
330
7C
100
AcDbEntity
  8
Camada 1
 62
    18
420
        0
370
    70
100
AcDbLine
 10
1114.522166063462
 20
834.3438008344929
 30
0.0
 11
1113.884387967991
 21
833.9929839455908
 31
0.0
  0
ENDBLK
  5
7F
330
7C
100
AcDbEntity
  8
0
100
AcDbBlockEnd
  0
BLOCK
  5
231
330
22F
100
AcDbEntity
  8
0
100
AcDbBlockBegin
  2
Block_1
 70
     0
 10
0.0
 20
0.0
 30
0.0
  3
Block_1
  1

  0
LWPOLYLINE
  5
233
330
22F
100
AcDbEntity
  8
Camada 1
 62
    18
420
        0
370
    70
100
AcDbPolyline
 90
        7
 70
     0
 43
0.0
 10
908.6660230416272
 20
2410.040485539686
 10
909.7823293906603
 20
2417.40841893444
 10
913.0549331100974
 20
2424.585174646118
 10
918.2572244004495
 20
2431.124152262326
 10
925.0416959661034
 20
2436.57836200675
 10
932.9393589694591
 20
2440.565448513237
 10
941.4175635725387
 20
2442.79845057522
  0
LINE
  5
234
330
22F
100
AcDbEntity
  8
Camada 1
 62
    18
420
        0
370
    70
100
AcDbLine
 10
909.8366456570348
 20
2407.520522271131
 30
0.0
 11
908.6660230416272
 21
2410.040485539686
 31
0.0
  0
LWPOLYLINE
  5
235
330
22F
100
AcDbEntity
  8
Camada 1
 62
    18
420
        0
370
    70
100
AcDbPolyline
 90
        7
 70
     0
 43
0.0
 10
942.5879915059867
 20
2440.278487306668
 10
934.1099815848647
 20
2438.0458746086
 10
926.212318581509
 20
2434.058788102112
 10
919.427847015855
 20
2428.604188993773
 10
914.2255557255047
 20
2422.065600741481
 10
910.9529520060659
 20
2414.856917188638
 10
909.8366456570348
 20
2407.520522271131
  0
LINE
  5
236
330
22F
100
AcDbEntity
  8
Camada 1
 62
    18
420
        0
370
    70
100
AcDbLine
 10
909.8366456570348
 20
2237.734492777057
 30
0.0
 11
909.8366456570348
 21
2407.520522271131
 31
0.0
  0
LINE
  5
237
330
22F
100
AcDbEntity
  8
Camada 1
 62
    18
420
        0
370
    70
100
AcDbLine
 10
1110.756992654216
 20
2150.720223412113
 30
0.0
 11
1110.756992654216
 21
2352.530656322756
 31
0.0
  0
LINE
  5
238
330
22F
100
AcDbEntity
  8
Camada 1
 62
    18
420
        0
370
    70
100
AcDbLine
 10
1291.841000235745
 20
2246.7930442979
 30
0.0
 11
1291.841000235745
 21
2080.132828326686
 31
0.0
  0
LINE
  5
239
330
22F
100
AcDbEntity
  8
Camada 1
 62
    18
420
        0
370
    70
100
AcDbLine
 10
753.1982675364543
 20
2147.307448682683
 30
0.0
 11
1104.514905024454
 21
2350.138404418864
 31
0.0
  0
LWPOLYLINE
  5
23A
330
22F
100
AcDbEntity
  8
Camada 1
 62
    18
420
        0
370
    70
100
AcDbPolyline
 90
        3
 70
     0
 43
0.0
 10
1110.756992654216
 20
2352.530656322756
 10
1109.965999857544
 20
2350.234187942359
 10
1107.710804052312
 20
2348.288536450863
  0
LINE
  5
23B
330
22F
100
AcDbEntity
  8
Camada 1
 62
    18
420
        0
370
    70
100
AcDbLine
 10
1107.710804052312
 20
2356.772776194651
 30
0.0
 11
959.2987120807393
 21
2442.479172163569
 31
0.0
  0
LWPOLYLINE
  5
23C
330
22F
100
AcDbEntity
  8
Camada 1
 62
    18
420
        0
370
    70
100
AcDbPolyline
 90
        3
 70
     0
 43
0.0
 10
949.2576007162297
 20
2444.01054044775
 10
954.6386100443214
 20
2444.01054044775
 10
959.2987120807393
 20
2442.479172163569
  0
LINE
  5
23D
330
22F
100
AcDbEntity
  8
Camada 1
 62
    18
420
        0
370
    70
100
AcDbLine
 10
949.2576007162297
 20
2444.01054044775
 30
0.0
 11
941.4175635725387
 21
2442.79845057522
 31
0.0
  0
LINE
  5
23E
330
22F
100
AcDbEntity
  8
Camada 1
 62
    18
420
        0
370
    70
100
AcDbLine
 10
941.4175635725387
 20
2442.79845057522
 30
0.0
 11
942.5879915059867
 21
2440.278487306668
 31
0.0
  0
LINE
  5
23F
330
22F
100
AcDbEntity
  8
Camada 1
 62
    18
420
        0
370
    70
100
AcDbLine
 10
950.4282233316352
 20
2441.490577179195
 30
0.0
 11
942.5879915059867
 21
2440.278487306668
 31
0.0
  0
LWPOLYLINE
  5
240
330
22F
100
AcDbEntity
  8
Camada 1
 62
    18
420
        0
370
    70
100
AcDbPolyline
 90
        3
 70
     0
 43
0.0
 10
750.7645483754377
 20
2145.744541921253
 10
751.9797531593003
 20
2146.573887063715
 10
753.1982675364543
 20
2147.307448682683
  0
LINE
  5
241
330
22F
100
AcDbEntity
  8
Camada 1
 62
    18
420
        0
370
    70
100
AcDbLine
 10
753.1982675364543
 20
2147.307448682683
 30
0.0
 11
756.3943612462699
 21
2145.457191350765
 31
0.0
  0
LINE
  5
242
330
22F
100
AcDbEntity
  8
Camada 1
 62
    18
420
        0
370
    70
100
AcDbLine
 10
1107.710804052312
 20
2348.288536450863
 30
0.0
 11
1107.710804052312
 21
2148.96613896761
 31
0.0
  0
LINE
  5
243
330
22F
100
AcDbEntity
  8
Camada 1
 62
    18
420
        0
370
    70
100
AcDbLine
 10
756.3943612462699
 20
2145.457191350765
 30
0.0
 11
1107.710804052312
 21
2348.288536450863
 31
0.0
  0
LWPOLYLINE
  5
244
330
22F
100
AcDbEntity
  8
Camada 1
 62
    18
420
        0
370
    70
100
AcDbPolyline
 90
        3
 70
     0
 43
0.0
 10
756.3943612462699
 20
2145.457191350765
 10
755.175846869116
 20
2144.723629731799
 10
753.9606420852533
 20
2143.894284589336
  0
LWPOLYLINE
  5
245
330
22F
100
AcDbEntity
  8
Camada 1
 62
    18
420
        0
370
    70
100
AcDbPolyline
 90
        3
 70
     0
 43
0.0
 10
926.5824089842844
 20
2044.249049768291
 10
927.7976137681489
 20
2045.046467069588
 10
929.016128145302
 20
2045.780028688556
  0
LINE
  5
246
330
22F
100
AcDbEntity
  8
Camada 1
 62
    18
420
        0
370
    70
100
AcDbLine
 10
1077.986373291391
 20
1740.528841497371
 30
0.0
 11
1067.119226377708
 21
1734.245286610485
 31
0.0
  0
LINE
  5
247
330
22F
100
AcDbEntity
  8
Camada 1
 62
    18
420
        0
370
    70
100
AcDbLine
 10
1283.528664661158
 20
2246.7930442979
 30
0.0
 11
1283.528664661158
 21
2075.348324518901
 31
0.0
  0
LWPOLYLINE
  5
248
330
22F
100
AcDbEntity
  8
Camada 1
 62
    18
420
        0
370
    70
100
AcDbPolyline
 90
        3
 70
     0
 43
0.0
 10
932.2120271731582
 20
2043.962088561721
 10
930.9937074779645
 20
2043.196599101588
 10
929.7783080121426
 20
2042.39918180029
  0
LINE
  5
249
330
22F
100
AcDbEntity
  8
Camada 1
 62
    18
420
        0
370
    70
100
AcDbLine
 10
1280.332570951343
 20
2248.643301629819
 30
0.0
 11
929.016128145302
 21
2045.780028688556
 31
0.0
  0
LINE
  5
24A
330
22F
100
AcDbEntity
  8
Camada 1
 62
    18
420
        0
370
    70
100
AcDbLine
 10
929.016128145302
 20
2045.780028688556
 30
0.0
 11
932.2120271731582
 21
2043.962088561721
 31
0.0
  0
LINE
  5
24B
330
22F
100
AcDbEntity
  8
Camada 1
 62
    18
420
        0
370
    70
100
AcDbLine
 10
1283.528664661158
 20
2246.7930442979
 30
0.0
 11
932.2120271731582
 21
2043.962088561721
 31
0.0
  0
LWPOLYLINE
  5
24C
330
22F
100
AcDbEntity
  8
Camada 1
 62
    18
420
        0
370
    70
100
AcDbPolyline
 90
        3
 70
     0
 43
0.0
 10
1283.528664661158
 20
2246.7930442979
 10
1287.684735107472
 20
2247.78202864619
 10
1291.841000235745
 20
2246.7930442979
  0
LINE
  5
24D
330
22F
100
AcDbEntity
  8
Camada 1
 62
    18
420
        0
370
    70
100
AcDbLine
 10
1436.160682761376
 20
2163.446972391711
 30
0.0
 11
1291.841000235745
 21
2246.7930442979
 31
0.0
  0
LINE
  5
24E
330
22F
100
AcDbEntity
  8
Camada 1
 62
    18
420
        0
370
    70
100
AcDbLine
 10
1439.356776471191
 20
2165.297229723629
 30
0.0
 11
1295.036899263603
 21
2248.643301629819
 31
0.0
  0
LWPOLYLINE
  5
24F
330
22F
100
AcDbEntity
  8
Camada 1
 62
    18
420
        0
370
    70
100
AcDbPolyline
 90
        4
 70
     0
 43
0.0
 10
1280.332570951343
 20
2248.643301629819
 10
1284.992672987759
 20
2250.174280550083
 10
1290.376797227185
 20
2250.174280550083
 10
1295.036899263603
 20
2248.643301629819
  0
LWPOLYLINE
  5
250
330
22F
100
AcDbEntity
  8
Camada 1
 62
    18
420
        0
370
    70
100
AcDbPolyline
 90
        4
 70
     0
 43
0.0
 10
1036.60672304949
 20
2549.333090537457
 10
1040.581155228687
 20
2550.545180409987
 10
1045.206214512605
 20
2550.098969361506
 10
1050.169241676176
 20
2547.993678664183
  0
LINE
  5
251
330
22F
100
AcDbEntity
  8
Camada 1
 62
    18
420
        0
370
    70
100
AcDbLine
 10
1036.60672304949
 20
2549.333090537457
 30
0.0
 11
1033.410629339676
 21
2547.483222569458
 31
0.0
  0
LWPOLYLINE
  5
252
330
22F
100
AcDbEntity
  8
Camada 1
 62
    18
420
        0
370
    70
100
AcDbPolyline
 90
        4
 70
     0
 43
0.0
 10
958.1058957220831
 20
2487.45381944789
 10
954.0518386219318
 20
2488.793231321164
 10
949.3724630716405
 20
2488.793231321164
 10
945.3184059714894
 20
2487.45381944789
  0
LWPOLYLINE
  5
253
330
22F
100
AcDbEntity
  8
Camada 1
 62
    18
420
        0
370
    70
100
AcDbPolyline
 90
        3
 70
     0
 43
0.0
 10
938.2851308630943
 20
2533.959056288562
 10
935.3475747939356
 20
2537.052941970256
 10
934.1321753281135
 20
2541.167739841406
  0
LINE
  5
254
330
22F
100
AcDbEntity
  8
Camada 1
 62
    18
420
        0
370
    70
100
AcDbLine
 10
945.3184059714894
 20
2487.45381944789
 30
0.0
 11
548.9319217215461
 21
2258.595053975457
 31
0.0
  0
LINE
  5
255
330
22F
100
AcDbEntity
  8
Camada 1
 62
    18
420
        0
370
    70
100
AcDbLine
 10
945.3184059714894
 20
2487.45381944789
 30
0.0
 11
945.3184059714894
 21
2491.153555383892
 31
0.0
  0
LWPOLYLINE
  5
256
330
22F
100
AcDbEntity
  8
Camada 1
 62
    18
420
        0
370
    70
100
AcDbPolyline
 90
        4
 70
     0
 43
0.0
 10
445.0379478420245
 20
2331.510845282447
 10
440.7286626945087
 20
2334.732442328802
 10
438.0175217428805
 20
2338.5279617883
 10
437.0925877588806
 20
2342.578903977118
  0
LINE
  5
257
330
22F
100
AcDbEntity
  8
Camada 1
 62
    18
420
        0
370
    70
100
AcDbLine
 10
437.0925877588806
 20
2346.247101435872
 30
0.0
 11
437.0925877588806
 21
2342.578903977118
 31
0.0
  0
LWPOLYLINE
  5
258
330
22F
100
AcDbEntity
  8
Camada 1
 62
    18
420
        0
370
    70
100
AcDbPolyline
 90
        3
 70
     0
 43
0.0
 10
548.9319217215461
 20
2258.595053975457
 10
547.7293712649744
 20
2257.733780991829
 10
546.8680982813466
 20
2256.74479664354
  0
LINE
  5
259
330
22F
100
AcDbEntity
  8
Camada 1
 62
    18
420
        0
370
    70
100
AcDbLine
 10
548.9319217215461
 20
2262.294789911458
 30
0.0
 11
548.9319217215461
 21
2258.595053975457
 31
0.0
  0
LINE
  5
25A
330
22F
100
AcDbEntity
  8
Camada 1
 62
    18
420
        0
370
    70
100
AcDbLine
 10
445.0379478420245
 20
2357.347087971708
 30
0.0
 11
870.1986202143061
 21
2602.791977565568
 31
0.0
  0
LWPOLYLINE
  5
25B
330
22F
100
AcDbEntity
  8
Camada 1
 62
    18
420
        0
370
    70
100
AcDbPolyline
 90
        7
 70
     0
 43
0.0
 10
445.0379478420245
 20
2357.347087971708
 10
440.7286626945087
 20
2354.093563084186
 10
438.0175217428805
 20
2350.29804362469
 10
437.0925877588806
 20
2346.247101435872
 10
438.0175217428805
 20
2342.196159247054
 10
440.7286626945087
 20
2338.432178264804
 10
445.0379478420245
 20
2335.179042741199
  0
LINE
  5
25C
330
22F
100
AcDbEntity
  8
Camada 1
 62
    18
420
        0
370
    70
100
AcDbLine
 10
926.7800111719862
 20
2592.266302806788
 30
0.0
 11
908.5575851908416
 21
2602.791977565568
 31
0.0
  0
LWPOLYLINE
  5
25D
330
22F
100
AcDbEntity
  8
Camada 1
 62
    18
420
        0
370
    70
100
AcDbPolyline
 90
        7
 70
     0
 43
0.0
 10
908.5575851908416
 20
2602.791977565568
 10
902.9404266473012
 20
2605.280012992956
 10
896.3985288017193
 20
2606.842919754387
 10
889.3781027025744
 20
2607.385303690279
 10
882.3574819214709
 20
2606.842919754387
 10
875.815584075889
 20
2605.280012992956
 10
870.1986202143061
 20
2602.791977565568
  0
LINE
  5
25E
330
22F
100
AcDbEntity
  8
Camada 1
 62
    18
420
        0
370
    70
100
AcDbLine
 10
934.1321753281135
 20
2541.167739841406
 30
0.0
 11
470.6127326612558
 21
2273.554415653121
 31
0.0
  0
LINE
  5
25F
330
22F
100
AcDbEntity
  8
Camada 1
 62
    18
420
        0
370
    70
100
AcDbLine
 10
934.1321753281135
 20
2541.167739841406
 30
0.0
 11
934.1321753281135
 21
2579.539553827191
 31
0.0
  0
LWPOLYLINE
  5
260
330
22F
100
AcDbEntity
  8
Camada 1
 62
    18
420
        0
370
    70
100
AcDbPolyline
 90
        4
 70
     0
 43
0.0
 10
934.1321753281135
 20
2579.539553827191
 10
933.1466952550744
 20
2584.355985476142
 10
930.4546331353613
 20
2589.012777919267
 10
926.7800111719862
 20
2592.266302806788
  0
LINE
  5
261
330
22F
100
AcDbEntity
  8
Camada 1
 62
    18
420
        0
370
    70
100
AcDbLine
 10
463.2605685051267
 20
2324.652978618504
 30
0.0
 11
926.7800111719862
 21
2592.266302806788
 31
0.0
  0
LINE
  5
262
330
22F
100
AcDbEntity
  8
Camada 1
 62
    18
420
        0
370
    70
100
AcDbLine
 10
934.1321753281135
 20
2579.539553827191
 30
0.0
 11
470.6127326612558
 21
2311.926229638905
 31
0.0
  0
LINE
  5
263
330
22F
100
AcDbEntity
  8
Camada 1
 62
    18
420
        0
370
    70
100
AcDbLine
 10
463.2605685051267
 20
2324.652978618504
 30
0.0
 11
445.0379478420245
 21
2335.179042741199
 31
0.0
  0
LINE
  5
264
330
22F
100
AcDbEntity
  8
Camada 1
 62
    18
420
        0
370
    70
100
AcDbLine
 10
445.0379478420245
 20
2335.179042741199
 30
0.0
 11
445.0379478420245
 21
2331.510845282447
 31
0.0
  0
LINE
  5
265
330
22F
100
AcDbEntity
  8
Camada 1
 62
    18
420
        0
370
    70
100
AcDbLine
 10
463.2605685051267
 20
2320.984781159751
 30
0.0
 11
445.0379478420245
 21
2331.510845282447
 31
0.0
  0
LWPOLYLINE
  5
266
330
22F
100
AcDbEntity
  8
Camada 1
 62
    18
420
        0
370
    70
100
AcDbPolyline
 90
        3
 70
     0
 43
0.0
 10
467.4166389514403
 20
2313.776097606907
 10
466.1983192562456
 20
2317.85896763689
 10
463.2605685051267
 20
2320.984781159751
  0
LINE
  5
267
330
22F
100
AcDbEntity
  8
Camada 1
 62
    18
420
        0
370
    70
100
AcDbLine
 10
467.4166389514403
 20
2275.404672985039
 30
0.0
 11
467.4166389514403
 21
2313.776097606907
 31
0.0
  0
LWPOLYLINE
  5
268
330
22F
100
AcDbEntity
  8
Camada 1
 62
    18
420
        0
370
    70
100
AcDbPolyline
 90
        3
 70
     0
 43
0.0
 10
472.162985095395
 20
2264.718969656517
 10
468.7180878428407
 20
2269.822751875955
 10
467.4166389514403
 20
2275.404672985039
  0
LWPOLYLINE
  5
269
330
22F
100
AcDbEntity
  8
Camada 1
 62
    18
420
        0
370
    70
100
AcDbPolyline
 90
        3
 70
     0
 43
0.0
 10
474.7688031075703
 20
2266.345732100277
 10
471.8279374451176
 20
2269.439617781973
 10
470.6127326612558
 20
2273.554415653121
  0
LINE
  5
26A
330
22F
100
AcDbEntity
  8
Camada 1
 62
    18
420
        0
370
    70
100
AcDbLine
 10
470.6127326612558
 20
2273.554415653121
 30
0.0
 11
470.6127326612558
 21
2311.926229638905
 31
0.0
  0
LWPOLYLINE
  5
26B
330
22F
100
AcDbEntity
  8
Camada 1
 62
    18
420
        0
370
    70
100
AcDbPolyline
 90
        4
 70
     0
 43
0.0
 10
470.6127326612558
 20
2311.926229638905
 10
469.6270579062593
 20
2316.742661287856
 10
466.9349957865452
 20
2321.399453730982
 10
463.2605685051267
 20
2324.652978618504
  0
LWPOLYLINE
  5
26C
330
22F
100
AcDbEntity
  8
Camada 1
 62
    18
420
        0
370
    70
100
AcDbPolyline
 90
        4
 70
     0
 43
0.0
 10
474.7688031075703
 20
2225.741305416425
 10
467.5825079799333
 20
2231.132048842434
 10
463.0658865468013
 20
2237.447531570485
 10
461.5253682105795
 20
2244.209614710932
  0
LINE
  5
26D
330
22F
100
AcDbEntity
  8
Camada 1
 62
    18
420
        0
370
    70
100
AcDbLine
 10
461.5253682105795
 20
2247.877812169686
 30
0.0
 11
461.5253682105795
 21
2244.209614710932
 31
0.0
  0
LINE
  5
26E
330
22F
100
AcDbEntity
  8
Camada 1
 62
    18
420
        0
370
    70
100
AcDbLine
 10
474.7688031075703
 20
2225.741305416425
 30
0.0
 11
488.8320437310658
 21
2217.607493197623
 31
0.0
  0
LINE
  5
26F
330
22F
100
AcDbEntity
  8
Camada 1
 62
    18
420
        0
370
    70
100
AcDbLine
 10
474.7688031075703
 20
2229.441430716343
 30
0.0
 11
474.7688031075703
 21
2225.741305416425
 31
0.0
  0
LINE
  5
270
330
22F
100
AcDbEntity
  8
Camada 1
 62
    18
420
        0
370
    70
100
AcDbLine
 10
958.1058957220831
 20
2487.45381944789
 30
0.0
 11
1485.559088184709
 21
2182.935804511756
 31
0.0
  0
LINE
  5
271
330
22F
100
AcDbEntity
  8
Camada 1
 62
    18
420
        0
370
    70
100
AcDbLine
 10
958.1058957220831
 20
2491.153555383892
 30
0.0
 11
958.1058957220831
 21
2487.45381944789
 31
0.0
  0
LWPOLYLINE
  5
272
330
22F
100
AcDbEntity
  8
Camada 1
 62
    18
420
        0
370
    70
100
AcDbPolyline
 90
        4
 70
     0
 43
0.0
 10
497.6484108957548
 20
2238.149165348287
 10
501.6195334816611
 20
2239.393183061983
 10
506.2445927655789
 20
2238.91465480842
 10
511.2109295224399
 20
2236.809364111097
  0
LINE
  5
273
330
22F
100
AcDbEntity
  8
Camada 1
 62
    18
420
        0
370
    70
100
AcDbLine
 10
497.6484108957548
 20
2238.149165348287
 30
0.0
 11
494.4523171859409
 21
2236.299297380288
 31
0.0
  0
LWPOLYLINE
  5
274
330
22F
100
AcDbEntity
  8
Camada 1
 62
    18
420
        0
370
    70
100
AcDbPolyline
 90
        3
 70
     0
 43
0.0
 10
1487.622716942951
 20
2181.085936543757
 10
1486.761638641281
 20
2182.074920892045
 10
1485.559088184709
 20
2182.935804511756
  0
LINE
  5
275
330
22F
100
AcDbEntity
  8
Camada 1
 62
    18
420
        0
370
    70
100
AcDbLine
 10
1485.559088184709
 20
2182.935804511756
 30
0.0
 11
1485.559088184709
 21
2186.604001970509
 31
0.0
  0
LINE
  5
276
330
22F
100
AcDbEntity
  8
Camada 1
 62
    18
420
        0
370
    70
100
AcDbLine
 10
1552.369847960595
 20
2129.572701007143
 30
0.0
 11
1553.007820738025
 21
2129.221884118241
 31
0.0
  0
LWPOLYLINE
  5
277
330
22F
100
AcDbEntity
  8
Camada 1
 62
    18
420
        0
370
    70
100
AcDbPolyline
 90
        4
 70
     0
 43
0.0
 10
1537.024431959573
 20
2129.572701007143
 10
1541.888560688316
 20
2131.199463450902
 10
1547.505719231856
 20
2131.199463450902
 10
1552.369847960595
 20
2129.572701007143
  0
LINE
  5
278
330
22F
100
AcDbEntity
  8
Camada 1
 62
    18
420
        0
370
    70
100
AcDbLine
 10
1552.369847960595
 20
2133.27282630706
 30
0.0
 11
1552.369847960595
 21
2129.572701007143
 31
0.0
  0
LWPOLYLINE
  5
279
330
22F
100
AcDbEntity
  8
Camada 1
 62
    18
420
        0
370
    70
100
AcDbPolyline
 90
        3
 70
     0
 43
0.0
 10
1553.007820738025
 20
2129.221884118241
 10
1554.631468270454
 20
2128.009794245713
 10
1555.706307362365
 20
2126.638454531273
  0
LINE
  5
27A
330
22F
100
AcDbEntity
  8
Camada 1
 62
    18
420
        0
370
    70
100
AcDbLine
 10
1553.007820738025
 20
2132.922009418159
 30
0.0
 11
1553.007820738025
 21
2129.221884118241
 31
0.0
  0
LINE
  5
27B
330
22F
100
AcDbEntity
  8
Camada 1
 62
    18
420
        0
370
    70
100
AcDbLine
 10
1657.858656442713
 20
2068.682024901948
 30
0.0
 11
1658.499744131477
 21
2068.299280171882
 31
0.0
  0
LWPOLYLINE
  5
27C
330
22F
100
AcDbEntity
  8
Camada 1
 62
    18
420
        0
370
    70
100
AcDbPolyline
 90
        4
 70
     0
 43
0.0
 10
1642.516355353025
 20
2068.682024901948
 10
1647.380484081764
 20
2070.308787345709
 10
1652.997642625305
 20
2070.308787345709
 10
1657.858656442713
 20
2068.682024901948
  0
LINE
  5
27D
330
22F
100
AcDbEntity
  8
Camada 1
 62
    18
420
        0
370
    70
100
AcDbLine
 10
1657.858656442713
 20
2072.382150201866
 30
0.0
 11
1657.858656442713
 21
2068.682024901948
 31
0.0
  0
LWPOLYLINE
  5
27E
330
22F
100
AcDbEntity
  8
Camada 1
 62
    18
420
        0
370
    70
100
AcDbPolyline
 90
        3
 70
     0
 43
0.0
 10
1658.499744131477
 20
2068.299280171882
 10
1660.12008207061
 20
2067.119118140519
 10
1661.195115844479
 20
2065.715461220997
  0
LINE
  5
27F
330
22F
100
AcDbEntity
  8
Camada 1
 62
    18
420
        0
370
    70
100
AcDbLine
 10
1658.499744131477
 20
2071.9994054718
 30
0.0
 11
1658.499744131477
 21
2068.299280171882
 31
0.0
  0
LINE
  5
280
330
22F
100
AcDbEntity
  8
Camada 1
 62
    18
420
        0
370
    70
100
AcDbLine
 10
1763.350579836162
 20
2007.791348796754
 30
0.0
 11
1763.988552613591
 21
2007.408604066688
 31
0.0
  0
LWPOLYLINE
  5
281
330
22F
100
AcDbEntity
  8
Camada 1
 62
    18
420
        0
370
    70
100
AcDbPolyline
 90
        4
 70
     0
 43
0.0
 10
1748.00516383514
 20
2007.791348796754
 10
1752.869292563882
 20
2009.38618339935
 10
1758.486256425465
 20
2009.38618339935
 10
1763.350579836162
 20
2007.791348796754
  0
LINE
  5
282
330
22F
100
AcDbEntity
  8
Camada 1
 62
    18
420
        0
370
    70
100
AcDbLine
 10
1763.350579836162
 20
2011.459546255507
 30
0.0
 11
1763.350579836162
 21
2007.791348796754
 31
0.0
  0
LWPOLYLINE
  5
283
330
22F
100
AcDbEntity
  8
Camada 1
 62
    18
420
        0
370
    70
100
AcDbPolyline
 90
        3
 70
     0
 43
0.0
 10
1763.988552613591
 20
2007.408604066688
 10
1765.612005464063
 20
2006.196514194159
 10
1766.687039237931
 20
2004.824785115804
  0
LINE
  5
284
330
22F
100
AcDbEntity
  8
Camada 1
 62
    18
420
        0
370
    70
100
AcDbLine
 10
1763.988552613591
 20
2011.10834000269
 30
0.0
 11
1763.988552613591
 21
2007.408604066688
 31
0.0
  0
LINE
  5
285
330
22F
100
AcDbEntity
  8
Camada 1
 62
    18
420
        0
370
    70
100
AcDbLine
 10
1868.842503229614
 20
1946.868744850395
 30
0.0
 11
1869.480476007043
 21
1946.517538597577
 31
0.0
  0
LWPOLYLINE
  5
286
330
22F
100
AcDbEntity
  8
Camada 1
 62
    18
420
        0
370
    70
100
AcDbPolyline
 90
        4
 70
     0
 43
0.0
 10
1853.497087228592
 20
1946.868744850395
 10
1858.361215957331
 20
1948.495117930239
 10
1863.978179818914
 20
1948.495117930239
 10
1868.842503229614
 20
1946.868744850395
  0
LINE
  5
287
330
22F
100
AcDbEntity
  8
Camada 1
 62
    18
420
        0
370
    70
100
AcDbLine
 10
1868.842503229614
 20
1950.568480786395
 30
0.0
 11
1868.842503229614
 21
1946.868744850395
 31
0.0
  0
LWPOLYLINE
  5
288
330
22F
100
AcDbEntity
  8
Camada 1
 62
    18
420
        0
370
    70
100
AcDbPolyline
 90
        3
 70
     0
 43
0.0
 10
1869.480476007043
 20
1946.517538597577
 10
1871.100813946177
 20
1945.305448725049
 10
1872.175653038088
 20
1943.934109010609
  0
LINE
  5
289
330
22F
100
AcDbEntity
  8
Camada 1
 62
    18
420
        0
370
    70
100
AcDbLine
 10
1869.480476007043
 20
1950.18573605633
 30
0.0
 11
1869.480476007043
 21
1946.517538597577
 31
0.0
  0
LINE
  5
28A
330
22F
100
AcDbEntity
  8
Camada 1
 62
    18
420
        0
370
    70
100
AcDbLine
 10
1168.767543867956
 20
1916.981170608398
 30
0.0
 11
1537.024431959573
 21
2129.572701007143
 31
0.0
  0
LINE
  5
28B
330
22F
100
AcDbEntity
  8
Camada 1
 62
    18
420
        0
370
    70
100
AcDbLine
 10
1537.024431959573
 20
2133.27282630706
 30
0.0
 11
1537.024431959573
 21
2129.572701007143
 31
0.0
  0
LWPOLYLINE
  5
28C
330
22F
100
AcDbEntity
  8
Camada 1
 62
    18
420
        0
370
    70
100
AcDbPolyline
 90
        3
 70
     0
 43
0.0
 10
1166.072172154952
 20
1914.39774102143
 10
1167.147205928821
 20
1915.769470099785
 10
1168.767543867956
 20
1916.981170608398
  0
LINE
  5
28D
330
22F
100
AcDbEntity
  8
Camada 1
 62
    18
420
        0
370
    70
100
AcDbLine
 10
1168.767543867956
 20
1920.64936806715
 30
0.0
 11
1168.767543867956
 21
1916.981170608398
 31
0.0
  0
LINE
  5
28E
330
22F
100
AcDbEntity
  8
Camada 1
 62
    18
420
        0
370
    70
100
AcDbLine
 10
1974.324692525148
 20
1885.977679381284
 30
0.0
 11
1974.962859984534
 21
1885.594934651218
 31
0.0
  0
LWPOLYLINE
  5
28F
330
22F
100
AcDbEntity
  8
Camada 1
 62
    18
420
        0
370
    70
100
AcDbPolyline
 90
        4
 70
     0
 43
0.0
 10
1958.982586117414
 20
1885.977679381284
 10
1963.862873448699
 20
1887.572513983879
 10
1969.476722398947
 20
1887.572513983879
 10
1974.324692525148
 20
1885.977679381284
  0
LINE
  5
290
330
22F
100
AcDbEntity
  8
Camada 1
 62
    18
420
        0
370
    70
100
AcDbLine
 10
1974.324692525148
 20
1889.645876840037
 30
0.0
 11
1974.324692525148
 21
1885.977679381284
 31
0.0
  0
LWPOLYLINE
  5
291
330
22F
100
AcDbEntity
  8
Camada 1
 62
    18
420
        0
370
    70
100
AcDbPolyline
 90
        3
 70
     0
 43
0.0
 10
1974.962859984534
 20
1885.594934651218
 10
1976.589622428295
 20
1884.414772619854
 10
1977.674000936164
 20
1883.011505064249
  0
LINE
  5
292
330
22F
100
AcDbEntity
  8
Camada 1
 62
    18
420
        0
370
    70
100
AcDbLine
 10
1974.962859984534
 20
1889.295059951136
 30
0.0
 11
1974.962859984534
 21
1885.594934651218
 31
0.0
  0
LINE
  5
293
330
22F
100
AcDbEntity
  8
Camada 1
 62
    18
420
        0
370
    70
100
AcDbLine
 10
1274.259467261407
 20
1856.058566662038
 30
0.0
 11
1642.516355353025
 21
2068.682024901948
 31
0.0
  0
LINE
  5
294
330
22F
100
AcDbEntity
  8
Camada 1
 62
    18
420
        0
370
    70
100
AcDbLine
 10
1642.516355353025
 20
2072.382150201866
 30
0.0
 11
1642.516355353025
 21
2068.682024901948
 31
0.0
  0
LWPOLYLINE
  5
295
330
22F
100
AcDbEntity
  8
Camada 1
 62
    18
420
        0
370
    70
100
AcDbPolyline
 90
        3
 70
     0
 43
0.0
 10
1023.637595031779
 20
2521.583124197866
 10
1026.575345782898
 20
2524.708937720725
 10
1027.793665478093
 20
2528.791807750709
  0
LINE
  5
296
330
22F
100
AcDbEntity
  8
Camada 1
 62
    18
420
        0
370
    70
100
AcDbLine
 10
2162.610959154896
 20
1905.721934230651
 30
0.0
 11
1050.169241676176
 21
2547.993678664183
 31
0.0
  0
LINE
  5
297
330
22F
100
AcDbEntity
  8
Camada 1
 62
    18
420
        0
370
    70
100
AcDbLine
 10
1050.169241676176
 20
2547.993678664183
 30
0.0
 11
1046.97314796636
 21
2546.143421332268
 31
0.0
  0
LINE
  5
298
330
22F
100
AcDbEntity
  8
Camada 1
 62
    18
420
        0
370
    70
100
AcDbLine
 10
2181.780902227205
 20
1866.233813895834
 30
0.0
 11
2181.780902227205
 21
1872.485440941554
 31
0.0
  0
LWPOLYLINE
  5
299
330
22F
100
AcDbEntity
  8
Camada 1
 62
    18
420
        0
370
    70
100
AcDbPolyline
 90
        3
 70
     0
 43
0.0
 10
2174.444896673616
 20
1857.174873011072
 10
2177.379143149483
 20
1860.269148056683
 10
2178.591233022013
 20
1864.383556563916
  0
LWPOLYLINE
  5
29A
330
22F
100
AcDbEntity
  8
Camada 1
 62
    18
420
        0
370
    70
100
AcDbPolyline
 90
        3
 70
     0
 43
0.0
 10
2177.124109784079
 20
1855.611966249641
 10
2180.504956672347
 20
1860.683820627914
 10
2181.780902227205
 20
1866.233813895834
  0
LWPOLYLINE
  5
29B
330
22F
100
AcDbEntity
  8
Camada 1
 62
    18
420
        0
370
    70
100
AcDbPolyline
 90
        3
 70
     0
 43
0.0
 10
1271.560980637068
 20
1853.47513707507
 10
1272.635819728981
 20
1854.878404630676
 10
1274.259467261407
 20
1856.058566662038
  0
LINE
  5
29C
330
22F
100
AcDbEntity
  8
Camada 1
 62
    18
420
        0
370
    70
100
AcDbLine
 10
1274.259467261407
 20
1859.758691961956
 30
0.0
 11
1274.259467261407
 21
1856.058566662038
 31
0.0
  0
LINE
  5
29D
330
22F
100
AcDbEntity
  8
Camada 1
 62
    18
420
        0
370
    70
100
AcDbLine
 10
2178.591233022013
 20
1864.383556563916
 30
0.0
 11
2178.591233022013
 21
1870.635572973554
 31
0.0
  0
LINE
  5
29E
330
22F
100
AcDbEntity
  8
Camada 1
 62
    18
420
        0
370
    70
100
AcDbLine
 10
2159.421289949703
 20
1903.871676898733
 30
0.0
 11
1046.97314796636
 21
2546.143421332268
 31
0.0
  0
LWPOLYLINE
  5
29F
330
22F
100
AcDbEntity
  8
Camada 1
 62
    18
420
        0
370
    70
100
AcDbPolyline
 90
        7
 70
     0
 43
0.0
 10
1046.97314796636
 20
2546.143421332268
 10
1042.01012080279
 20
2548.24871202959
 10
1037.385061518871
 20
2548.695312441986
 10
1033.410629339676
 20
2547.483222569458
 10
1030.364635419728
 20
2544.644370253168
 10
1028.447602176105
 20
2540.434178222438
 10
1027.793665478093
 20
2535.075362637595
  0
LINE
  5
2A0
330
22F
100
AcDbEntity
  8
Camada 1
 62
    18
420
        0
370
    70
100
AcDbLine
 10
1027.793665478093
 20
2528.791807750709
 30
0.0
 11
1027.793665478093
 21
2535.075362637595
 31
0.0
  0
LINE
  5
2A1
330
22F
100
AcDbEntity
  8
Camada 1
 62
    18
420
        0
370
    70
100
AcDbLine
 10
2178.591233022013
 20
1864.383556563916
 30
0.0
 11
1027.793665478093
 21
2528.791807750709
 31
0.0
  0
LWPOLYLINE
  5
2A2
330
22F
100
AcDbEntity
  8
Camada 1
 62
    18
420
        0
370
    70
100
AcDbPolyline
 90
        7
 70
     0
 43
0.0
 10
2162.610959154896
 20
1905.721934230651
 10
2167.587030009672
 20
1902.085664613063
 10
2172.211894611632
 20
1897.205377281783
 10
2176.167053276953
 20
1891.400350648458
 10
2179.229400481399
 20
1885.052940079242
 10
2181.143124131733
 20
1878.609745986531
 10
2181.780902227205
 20
1872.485440941554
  0
LINE
  5
2A3
330
22F
100
AcDbEntity
  8
Camada 1
 62
    18
420
        0
370
    70
100
AcDbLine
 10
2159.421289949703
 20
1903.871676898733
 30
0.0
 11
2162.610959154896
 21
1905.721934230651
 31
0.0
  0
LWPOLYLINE
  5
2A4
330
22F
100
AcDbEntity
  8
Camada 1
 62
    18
420
        0
370
    70
100
AcDbPolyline
 90
        7
 70
     0
 43
0.0
 10
2178.591233022013
 20
1870.635572973554
 10
2177.953454926541
 20
1876.759488654613
 10
2176.03973127621
 20
1883.202682747324
 10
2172.977384071764
 20
1889.550093316541
 10
2169.022225406443
 20
1895.355509313782
 10
2164.397360804484
 20
1900.235407281147
 10
2159.421289949703
 20
1903.871676898733
  0
LINE
  5
2A5
330
22F
100
AcDbEntity
  8
Camada 1
 62
    18
420
        0
370
    70
100
AcDbLine
 10
2181.780902227205
 20
1872.485440941554
 30
0.0
 11
2178.591233022013
 21
1870.635572973554
 31
0.0
  0
LINE
  5
2A6
330
22F
100
AcDbEntity
  8
Camada 1
 62
    18
420
        0
370
    70
100
AcDbLine
 10
2079.807271184596
 20
1825.055075434924
 30
0.0
 11
2080.476977121234
 21
1824.704258546023
 31
0.0
  0
LWPOLYLINE
  5
2A7
330
22F
100
AcDbEntity
  8
Camada 1
 62
    18
420
        0
370
    70
100
AcDbPolyline
 90
        4
 70
     0
 43
0.0
 10
2064.464775412951
 20
1825.055075434924
 10
2069.345062744233
 20
1826.681837878686
 10
2074.958911694481
 20
1826.681837878686
 10
2079.807271184596
 20
1825.055075434924
  0
LINE
  5
2A8
330
22F
100
AcDbEntity
  8
Camada 1
 62
    18
420
        0
370
    70
100
AcDbLine
 10
2079.807271184596
 20
1828.755200734842
 30
0.0
 11
2079.807271184596
 21
1825.055075434924
 31
0.0
  0
LWPOLYLINE
  5
2A9
330
22F
100
AcDbEntity
  8
Camada 1
 62
    18
420
        0
370
    70
100
AcDbPolyline
 90
        3
 70
     0
 43
0.0
 10
2080.476977121234
 20
1824.704258546023
 10
2082.071811723829
 20
1823.492168673495
 10
2083.156190231697
 20
1822.120439595139
  0
LINE
  5
2AA
330
22F
100
AcDbEntity
  8
Camada 1
 62
    18
420
        0
370
    70
100
AcDbLine
 10
2080.476977121234
 20
1828.372456004777
 30
0.0
 11
2080.476977121234
 21
1824.704258546023
 31
0.0
  0
LINE
  5
2AB
330
22F
100
AcDbEntity
  8
Camada 1
 62
    18
420
        0
370
    70
100
AcDbLine
 10
1379.748275743524
 20
1795.167890556845
 30
0.0
 11
1748.00516383514
 21
2007.791348796754
 31
0.0
  0
LINE
  5
2AC
330
22F
100
AcDbEntity
  8
Camada 1
 62
    18
420
        0
370
    70
100
AcDbLine
 10
1748.00516383514
 20
2011.459546255507
 30
0.0
 11
1748.00516383514
 21
2007.791348796754
 31
0.0
  0
LWPOLYLINE
  5
2AD
330
22F
100
AcDbEntity
  8
Camada 1
 62
    18
420
        0
370
    70
100
AcDbPolyline
 90
        3
 70
     0
 43
0.0
 10
1377.052904030519
 20
1792.58407160596
 10
1378.127937804387
 20
1793.955800684315
 10
1379.748275743524
 20
1795.167890556845
  0
LINE
  5
2AE
330
22F
100
AcDbEntity
  8
Camada 1
 62
    18
420
        0
370
    70
100
AcDbLine
 10
1379.748275743524
 20
1798.868015856763
 30
0.0
 11
1379.748275743524
 21
1795.167890556845
 31
0.0
  0
LWPOLYLINE
  5
2AF
330
22F
100
AcDbEntity
  8
Camada 1
 62
    18
420
        0
370
    70
100
AcDbPolyline
 90
        4
 70
     0
 43
0.0
 10
2233.549171129224
 20
1827.63889438581
 10
2232.624431827182
 20
1823.58795219699
 10
2229.912901511634
 20
1819.823971214742
 10
2225.574998116248
 20
1816.57044632722
  0
LINE
  5
2B0
330
22F
100
AcDbEntity
  8
Camada 1
 62
    18
420
        0
370
    70
100
AcDbLine
 10
2233.549171129224
 20
1827.63889438581
 30
0.0
 11
2233.549171129224
 21
1831.33863032181
 31
0.0
  0
LINE
  5
2B1
330
22F
100
AcDbEntity
  8
Camada 1
 62
    18
420
        0
370
    70
100
AcDbLine
 10
1485.240199136973
 20
1734.245286610485
 30
0.0
 11
1853.497087228592
 21
1946.868744850395
 31
0.0
  0
LINE
  5
2B2
330
22F
100
AcDbEntity
  8
Camada 1
 62
    18
420
        0
370
    70
100
AcDbLine
 10
1853.497087228592
 20
1950.568480786395
 30
0.0
 11
1853.497087228592
 21
1946.868744850395
 31
0.0
  0
LWPOLYLINE
  5
2B3
330
22F
100
AcDbEntity
  8
Camada 1
 62
    18
420
        0
370
    70
100
AcDbPolyline
 90
        3
 70
     0
 43
0.0
 10
1482.541712512637
 20
1731.661467659601
 10
1483.616551604544
 20
1733.065124579122
 10
1485.240199136973
 20
1734.245286610485
  0
LINE
  5
2B4
330
22F
100
AcDbEntity
  8
Camada 1
 62
    18
420
        0
370
    70
100
AcDbLine
 10
1485.240199136973
 20
1737.945411910403
 30
0.0
 11
1485.240199136973
 21
1734.245286610485
 31
0.0
  0
LINE
  5
2B5
330
22F
100
AcDbEntity
  8
Camada 1
 62
    18
420
        0
370
    70
100
AcDbLine
 10
1590.72881293713
 20
1673.354610505291
 30
0.0
 11
1958.982586117414
 21
1885.977679381284
 31
0.0
  0
LINE
  5
2B6
330
22F
100
AcDbEntity
  8
Camada 1
 62
    18
420
        0
370
    70
100
AcDbLine
 10
1958.982586117414
 20
1889.645876840037
 30
0.0
 11
1958.982586117414
 21
1885.977679381284
 31
0.0
  0
LWPOLYLINE
  5
2B7
330
22F
100
AcDbEntity
  8
Camada 1
 62
    18
420
        0
370
    70
100
AcDbPolyline
 90
        3
 70
     0
 43
0.0
 10
1588.033635906086
 20
1670.770791554407
 10
1589.108474997996
 20
1672.142520632762
 10
1590.72881293713
 20
1673.354610505291
  0
LINE
  5
2B8
330
22F
100
AcDbEntity
  8
Camada 1
 62
    18
420
        0
370
    70
100
AcDbLine
 10
1590.72881293713
 20
1677.054346441292
 30
0.0
 11
1590.72881293713
 21
1673.354610505291
 31
0.0
  0
LINE
  5
2B9
330
22F
100
AcDbEntity
  8
Camada 1
 62
    18
420
        0
370
    70
100
AcDbLine
 10
1696.220736330582
 20
1612.431617195015
 30
0.0
 11
2064.464775412951
 21
1825.055075434924
 31
0.0
  0
LINE
  5
2BA
330
22F
100
AcDbEntity
  8
Camada 1
 62
    18
420
        0
370
    70
100
AcDbLine
 10
2064.464775412951
 20
1828.755200734842
 30
0.0
 11
2064.464775412951
 21
1825.055075434924
 31
0.0
  0
LWPOLYLINE
  5
2BB
330
22F
100
AcDbEntity
  8
Camada 1
 62
    18
420
        0
370
    70
100
AcDbPolyline
 90
        3
 70
     0
 43
0.0
 10
1693.522249706242
 20
1609.848187608047
 10
1694.597283480114
 20
1611.251455163651
 10
1696.220736330582
 20
1612.431617195015
  0
LINE
  5
2BC
330
22F
100
AcDbEntity
  8
Camada 1
 62
    18
420
        0
370
    70
100
AcDbLine
 10
1696.220736330582
 20
1616.131742494933
 30
0.0
 11
1696.220736330582
 21
1612.431617195015
 31
0.0
  0
LWPOLYLINE
  5
2BD
330
22F
100
AcDbEntity
  8
Camada 1
 62
    18
420
        0
370
    70
100
AcDbPolyline
 90
        3
 70
     0
 43
0.0
 10
490.9883411014688
 20
2212.854917231001
 10
489.3935064988736
 20
2214.705174562919
 10
488.8320437310658
 20
2217.607493197623
  0
LINE
  5
2BE
330
22F
100
AcDbEntity
  8
Camada 1
 62
    18
420
        0
370
    70
100
AcDbLine
 10
490.9883411014688
 20
2212.854917231001
 30
0.0
 11
1641.792333150017
 21
1548.447055408126
 31
0.0
  0
LINE
  5
2BF
330
22F
100
AcDbEntity
  8
Camada 1
 62
    18
420
        0
370
    70
100
AcDbLine
 10
511.2109295224399
 20
2236.809364111097
 30
0.0
 11
1623.65576191249
 21
1594.537619677566
 31
0.0
  0
LINE
  5
2C0
330
22F
100
AcDbEntity
  8
Camada 1
 62
    18
420
        0
370
    70
100
AcDbLine
 10
511.2109295224399
 20
2236.809364111097
 30
0.0
 11
508.0148358126262
 21
2234.959496143097
 31
0.0
  0
LINE
  5
2C1
330
22F
100
AcDbEntity
  8
Camada 1
 62
    18
420
        0
370
    70
100
AcDbLine
 10
1642.835244400761
 20
1555.049499342748
 30
0.0
 11
1642.835244400761
 21
1561.333054229632
 31
0.0
  0
LWPOLYLINE
  5
2C2
330
22F
100
AcDbEntity
  8
Camada 1
 62
    18
420
        0
370
    70
100
AcDbPolyline
 90
        4
 70
     0
 43
0.0
 10
1646.991509529031
 20
1548.957511502854
 10
1643.313772654321
 20
1547.968527154565
 10
1640.624825445942
 20
1549.531433915995
 10
1639.639345372903
 20
1553.199631374747
  0
LWPOLYLINE
  5
2C3
330
22F
100
AcDbEntity
  8
Camada 1
 62
    18
420
        0
370
    70
100
AcDbPolyline
 90
        3
 70
     0
 43
0.0
 10
1646.991509529031
 20
1552.657247438854
 10
1644.053758777914
 20
1552.370286232283
 10
1642.835244400761
 20
1555.049499342748
  0
LINE
  5
2C4
330
22F
100
AcDbEntity
  8
Camada 1
 62
    18
420
        0
370
    70
100
AcDbLine
 10
1646.991509529031
 20
1548.957511502854
 30
0.0
 11
1668.410029219991
 21
1536.581579412156
 31
0.0
  0
LINE
  5
2C5
330
22F
100
AcDbEntity
  8
Camada 1
 62
    18
420
        0
370
    70
100
AcDbLine
 10
1646.991509529031
 20
1548.957511502854
 30
0.0
 11
1646.991509529031
 21
1552.657247438854
 31
0.0
  0
LINE
  5
2C6
330
22F
100
AcDbEntity
  8
Camada 1
 62
    18
420
        0
370
    70
100
AcDbLine
 10
1737.542955394776
 20
1536.071123317429
 30
0.0
 11
1792.896487241298
 21
1568.031671051666
 31
0.0
  0
LINE
  5
2C7
330
22F
100
AcDbEntity
  8
Camada 1
 62
    18
420
        0
370
    70
100
AcDbLine
 10
1642.835244400761
 20
1561.333054229632
 30
0.0
 11
1639.639345372903
 21
1559.483186261633
 31
0.0
  0
LWPOLYLINE
  5
2C8
330
22F
100
AcDbEntity
  8
Camada 1
 62
    18
420
        0
370
    70
100
AcDbPolyline
 90
        7
 70
     0
 43
0.0
 10
1623.65576191249
 20
1594.537619677566
 10
1628.61898375802
 20
1590.933277901143
 10
1633.244043041937
 20
1586.052990569861
 10
1637.218280539178
 20
1580.216036095372
 10
1640.264469141082
 20
1573.868625526155
 10
1642.181502384705
 20
1567.425431433444
 10
1642.835244400761
 20
1561.333054229632
  0
LINE
  5
2C9
330
22F
100
AcDbEntity
  8
Camada 1
 62
    18
420
        0
370
    70
100
AcDbLine
 10
1620.459862884636
 20
1592.687751709564
 30
0.0
 11
1623.65576191249
 21
1594.537619677566
 31
0.0
  0
LINE
  5
2CA
330
22F
100
AcDbEntity
  8
Camada 1
 62
    18
420
        0
370
    70
100
AcDbLine
 10
508.0148358126262
 20
2234.959496143097
 30
0.0
 11
1620.459862884636
 21
1592.687751709564
 31
0.0
  0
LWPOLYLINE
  5
2CB
330
22F
100
AcDbEntity
  8
Camada 1
 62
    18
420
        0
370
    70
100
AcDbPolyline
 90
        7
 70
     0
 43
0.0
 10
508.0148358126262
 20
2234.959496143097
 10
503.0484990557633
 20
2237.096714681585
 10
498.4234397718455
 20
2237.542925730065
 10
494.4523171859409
 20
2236.299297380288
 10
491.4030136727014
 20
2233.492372905162
 10
489.4859804290799
 20
2229.249863669352
 10
488.8320437310658
 20
2223.891437448425
  0
LINE
  5
2CC
330
22F
100
AcDbEntity
  8
Camada 1
 62
    18
420
        0
370
    70
100
AcDbLine
 10
488.8320437310658
 20
2217.607493197623
 30
0.0
 11
488.8320437310658
 21
2223.891437448425
 31
0.0
  0
LINE
  5
2CD
330
22F
100
AcDbEntity
  8
Camada 1
 62
    18
420
        0
370
    70
100
AcDbLine
 10
488.8320437310658
 20
2217.607493197623
 30
0.0
 11
1639.639345372903
 21
1553.199631374747
 31
0.0
  0
LINE
  5
2CE
330
22F
100
AcDbEntity
  8
Camada 1
 62
    18
420
        0
370
    70
100
AcDbLine
 10
1639.639345372903
 20
1553.199631374747
 30
0.0
 11
1639.639345372903
 21
1559.483186261633
 31
0.0
  0
LWPOLYLINE
  5
2CF
330
22F
100
AcDbEntity
  8
Camada 1
 62
    18
420
        0
370
    70
100
AcDbPolyline
 90
        7
 70
     0
 43
0.0
 10
1639.639345372903
 20
1559.483186261633
 10
1638.985408674889
 20
1565.575563465442
 10
1637.068375431267
 20
1572.05068539932
 10
1634.022186829363
 20
1578.398095968537
 10
1630.047949332122
 20
1584.20312260186
 10
1625.422890048205
 20
1589.083409933141
 10
1620.459862884636
 20
1592.687751709564
  0
LINE
  5
2D0
330
22F
100
AcDbEntity
  8
Camada 1
 62
    18
420
        0
370
    70
100
AcDbLine
 10
1668.410029219991
 20
1536.581579412156
 30
0.0
 11
1668.410029219991
 21
1540.281315348157
 31
0.0
  0
LWPOLYLINE
  5
2D1
330
22F
100
AcDbEntity
  8
Camada 1
 62
    18
420
        0
370
    70
100
AcDbPolyline
 90
        8
 70
     0
 43
0.0
 10
1732.343779015758
 20
1536.581579412156
 10
1724.427037180485
 20
1532.945309794569
 10
1715.307744888643
 20
1530.425346526015
 10
1705.43892705725
 20
1529.11747312999
 10
1695.314881178496
 20
1529.11747312999
 10
1685.446063347106
 20
1530.425346526015
 10
1676.32365614393
 20
1532.945309794569
 10
1668.410029219991
 20
1536.581579412156
  0
LINE
  5
2D2
330
22F
100
AcDbEntity
  8
Camada 1
 62
    18
420
        0
370
    70
100
AcDbLine
 10
1696.220736330582
 20
1616.131742494933
 30
0.0
 11
2064.464775412951
 21
1828.755200734842
 31
0.0
  0
LWPOLYLINE
  5
2D3
330
22F
100
AcDbEntity
  8
Camada 1
 62
    18
420
        0
370
    70
100
AcDbPolyline
 90
        4
 70
     0
 43
0.0
 10
2064.464775412951
 20
1828.755200734842
 10
2069.345062744233
 20
1830.381963178604
 10
2074.958911694481
 20
1830.381963178604
 10
2079.807271184596
 20
1828.755200734842
  0
LINE
  5
2D4
330
22F
100
AcDbEntity
  8
Camada 1
 62
    18
420
        0
370
    70
100
AcDbLine
 10
2079.807271184596
 20
1828.755200734842
 30
0.0
 11
2080.476977121234
 21
1828.372456004777
 31
0.0
  0
LWPOLYLINE
  5
2D5
330
22F
100
AcDbEntity
  8
Camada 1
 62
    18
420
        0
370
    70
100
AcDbPolyline
 90
        4
 70
     0
 43
0.0
 10
2080.476977121234
 20
1828.372456004777
 10
2083.283901596358
 20
1825.565531529652
 10
2083.283901596358
 20
1822.343934483296
 10
2080.476977121234
 20
1819.537010008171
  0
LINE
  5
2D6
330
22F
100
AcDbEntity
  8
Camada 1
 62
    18
420
        0
370
    70
100
AcDbLine
 10
2080.476977121234
 20
1819.537010008171
 30
0.0
 11
1712.204319790991
 21
1606.913551768261
 31
0.0
  0
LWPOLYLINE
  5
2D7
330
22F
100
AcDbEntity
  8
Camada 1
 62
    18
420
        0
370
    70
100
AcDbPolyline
 90
        4
 70
     0
 43
0.0
 10
1712.204319790991
 20
1606.913551768261
 10
1707.339996380291
 20
1605.286789324501
 10
1701.723032518712
 20
1605.286789324501
 10
1696.858709108012
 20
1606.913551768261
  0
LINE
  5
2D8
330
22F
100
AcDbEntity
  8
Camada 1
 62
    18
420
        0
370
    70
100
AcDbLine
 10
1696.858709108012
 20
1606.913551768261
 30
0.0
 11
1696.220736330582
 21
1607.264368657163
 31
0.0
  0
LWPOLYLINE
  5
2D9
330
22F
100
AcDbEntity
  8
Camada 1
 62
    18
420
        0
370
    70
100
AcDbPolyline
 90
        4
 70
     0
 43
0.0
 10
1696.220736330582
 20
1607.264368657163
 10
1693.410696944124
 20
1610.103220973452
 10
1693.410696944124
 20
1613.324818019808
 10
1696.220736330582
 20
1616.131742494933
  0
LINE
  5
2DA
330
22F
100
AcDbEntity
  8
Camada 1
 62
    18
420
        0
370
    70
100
AcDbLine
 10
1590.72881293713
 20
1677.054346441292
 30
0.0
 11
1958.982586117414
 21
1889.645876840037
 31
0.0
  0
LWPOLYLINE
  5
2DB
330
22F
100
AcDbEntity
  8
Camada 1
 62
    18
420
        0
370
    70
100
AcDbPolyline
 90
        4
 70
     0
 43
0.0
 10
1958.982586117414
 20
1889.645876840037
 10
1963.862873448699
 20
1891.272639283797
 10
1969.476722398947
 20
1891.272639283797
 10
1974.324692525148
 20
1889.645876840037
  0
LINE
  5
2DC
330
22F
100
AcDbEntity
  8
Camada 1
 62
    18
420
        0
370
    70
100
AcDbLine
 10
1974.324692525148
 20
1889.645876840037
 30
0.0
 11
1974.962859984534
 21
1889.295059951136
 31
0.0
  0
LWPOLYLINE
  5
2DD
330
22F
100
AcDbEntity
  8
Camada 1
 62
    18
420
        0
370
    70
100
AcDbPolyline
 90
        4
 70
     0
 43
0.0
 10
1974.962859984534
 20
1889.295059951136
 10
1977.769784459659
 20
1886.488135476012
 10
1977.769784459659
 20
1883.234610588491
 10
1974.962859984534
 20
1880.427686113367
  0
LINE
  5
2DE
330
22F
100
AcDbEntity
  8
Camada 1
 62
    18
420
        0
370
    70
100
AcDbLine
 10
1974.962859984534
 20
1880.427686113367
 30
0.0
 11
1606.712201715582
 21
1667.804227873455
 31
0.0
  0
LWPOLYLINE
  5
2DF
330
22F
100
AcDbEntity
  8
Camada 1
 62
    18
420
        0
370
    70
100
AcDbPolyline
 90
        4
 70
     0
 43
0.0
 10
1606.712201715582
 20
1667.804227873455
 10
1601.848072986842
 20
1666.20939327086
 10
1596.234224036594
 20
1666.20939327086
 10
1591.369900625894
 20
1667.804227873455
  0
LINE
  5
2E0
330
22F
100
AcDbEntity
  8
Camada 1
 62
    18
420
        0
370
    70
100
AcDbLine
 10
1591.369900625894
 20
1667.804227873455
 30
0.0
 11
1590.72881293713
 21
1668.186972603523
 31
0.0
  0
LWPOLYLINE
  5
2E1
330
22F
100
AcDbEntity
  8
Camada 1
 62
    18
420
        0
370
    70
100
AcDbPolyline
 90
        4
 70
     0
 43
0.0
 10
1590.72881293713
 20
1668.186972603523
 10
1587.921888462006
 20
1670.993897078646
 10
1587.921888462006
 20
1674.247421966167
 10
1590.72881293713
 20
1677.054346441292
  0
LINE
  5
2E2
330
22F
100
AcDbEntity
  8
Camada 1
 62
    18
420
        0
370
    70
100
AcDbLine
 10
1485.240199136973
 20
1737.945411910403
 30
0.0
 11
1853.497087228592
 21
1950.568480786395
 31
0.0
  0
LWPOLYLINE
  5
2E3
330
22F
100
AcDbEntity
  8
Camada 1
 62
    18
420
        0
370
    70
100
AcDbPolyline
 90
        4
 70
     0
 43
0.0
 10
1853.497087228592
 20
1950.568480786395
 10
1858.361215957331
 20
1952.195243230157
 10
1863.978179818914
 20
1952.195243230157
 10
1868.842503229614
 20
1950.568480786395
  0
LINE
  5
2E4
330
22F
100
AcDbEntity
  8
Camada 1
 62
    18
420
        0
370
    70
100
AcDbLine
 10
1868.842503229614
 20
1950.568480786395
 30
0.0
 11
1869.480476007043
 21
1950.18573605633
 31
0.0
  0
LWPOLYLINE
  5
2E5
330
22F
100
AcDbEntity
  8
Camada 1
 62
    18
420
        0
370
    70
100
AcDbPolyline
 90
        4
 70
     0
 43
0.0
 10
1869.480476007043
 20
1950.18573605633
 10
1872.287400482168
 20
1947.378811581205
 10
1872.287400482168
 20
1944.157214534849
 10
1869.480476007043
 20
1941.350290059724
  0
LINE
  5
2E6
330
22F
100
AcDbEntity
  8
Camada 1
 62
    18
420
        0
370
    70
100
AcDbLine
 10
1869.480476007043
 20
1941.350290059724
 30
0.0
 11
1501.223587915425
 21
1728.727221183731
 31
0.0
  0
LWPOLYLINE
  5
2E7
330
22F
100
AcDbEntity
  8
Camada 1
 62
    18
420
        0
370
    70
100
AcDbPolyline
 90
        4
 70
     0
 43
0.0
 10
1501.223587915425
 20
1728.727221183731
 10
1496.359264504724
 20
1727.100458739972
 10
1490.742300643142
 20
1727.100458739972
 10
1485.877977232445
 20
1728.727221183731
  0
LINE
  5
2E8
330
22F
100
AcDbEntity
  8
Camada 1
 62
    18
420
        0
370
    70
100
AcDbLine
 10
1485.877977232445
 20
1728.727221183731
 30
0.0
 11
1485.240199136973
 21
1729.078038072633
 31
0.0
  0
LWPOLYLINE
  5
2E9
330
22F
100
AcDbEntity
  8
Camada 1
 62
    18
420
        0
370
    70
100
AcDbPolyline
 90
        4
 70
     0
 43
0.0
 10
1485.240199136973
 20
1729.078038072633
 10
1482.429965068557
 20
1731.884962547757
 10
1482.429965068557
 20
1735.138487435278
 10
1485.240199136973
 20
1737.945411910403
  0
LINE
  5
2EA
330
22F
100
AcDbEntity
  8
Camada 1
 62
    18
420
        0
370
    70
100
AcDbLine
 10
1379.748275743524
 20
1798.868015856763
 30
0.0
 11
1748.00516383514
 21
2011.459546255507
 31
0.0
  0
LWPOLYLINE
  5
2EB
330
22F
100
AcDbEntity
  8
Camada 1
 62
    18
420
        0
370
    70
100
AcDbPolyline
 90
        4
 70
     0
 43
0.0
 10
1748.00516383514
 20
2011.459546255507
 10
1752.869292563882
 20
2013.085919335351
 10
1758.486256425465
 20
2013.085919335351
 10
1763.350579836162
 20
2011.459546255507
  0
LINE
  5
2EC
330
22F
100
AcDbEntity
  8
Camada 1
 62
    18
420
        0
370
    70
100
AcDbLine
 10
1763.350579836162
 20
2011.459546255507
 30
0.0
 11
1763.988552613591
 21
2011.10834000269
 31
0.0
  0
LWPOLYLINE
  5
2ED
330
22F
100
AcDbEntity
  8
Camada 1
 62
    18
420
        0
370
    70
100
AcDbPolyline
 90
        4
 70
     0
 43
0.0
 10
1763.988552613591
 20
2011.10834000269
 10
1766.79859200005
 20
2008.301415527566
 10
1766.79859200005
 20
2005.04828000396
 10
1763.988552613591
 20
2002.241355528836
  0
LINE
  5
2EE
330
22F
100
AcDbEntity
  8
Camada 1
 62
    18
420
        0
370
    70
100
AcDbLine
 10
1763.988552613591
 20
2002.241355528836
 30
0.0
 11
1395.731664521976
 21
1789.617897288925
 31
0.0
  0
LWPOLYLINE
  5
2EF
330
22F
100
AcDbEntity
  8
Camada 1
 62
    18
420
        0
370
    70
100
AcDbPolyline
 90
        4
 70
     0
 43
0.0
 10
1395.731664521976
 20
1789.617897288925
 10
1390.867341111276
 20
1787.991134845165
 10
1385.250377249693
 20
1787.991134845165
 10
1380.389363432285
 20
1789.617897288925
  0
LINE
  5
2F0
330
22F
100
AcDbEntity
  8
Camada 1
 62
    18
420
        0
370
    70
100
AcDbLine
 10
1380.389363432285
 20
1789.617897288925
 30
0.0
 11
1379.748275743524
 21
1790.000642018992
 31
0.0
  0
LWPOLYLINE
  5
2F1
330
22F
100
AcDbEntity
  8
Camada 1
 62
    18
420
        0
370
    70
100
AcDbPolyline
 90
        4
 70
     0
 43
0.0
 10
1379.748275743524
 20
1790.000642018992
 10
1376.941351268397
 20
1792.807566494117
 10
1376.941351268397
 20
1796.061091381638
 10
1379.748275743524
 20
1798.868015856763
  0
LINE
  5
2F2
330
22F
100
AcDbEntity
  8
Camada 1
 62
    18
420
        0
370
    70
100
AcDbLine
 10
1274.259467261407
 20
1859.758691961956
 30
0.0
 11
1642.516355353025
 21
2072.382150201866
 31
0.0
  0
LWPOLYLINE
  5
2F3
330
22F
100
AcDbEntity
  8
Camada 1
 62
    18
420
        0
370
    70
100
AcDbPolyline
 90
        4
 70
     0
 43
0.0
 10
1642.516355353025
 20
2072.382150201866
 10
1647.380484081764
 20
2074.008912645627
 10
1652.997642625305
 20
2074.008912645627
 10
1657.858656442713
 20
2072.382150201866
  0
LINE
  5
2F4
330
22F
100
AcDbEntity
  8
Camada 1
 62
    18
420
        0
370
    70
100
AcDbLine
 10
1657.858656442713
 20
2072.382150201866
 30
0.0
 11
1658.499744131477
 21
2071.9994054718
 31
0.0
  0
LWPOLYLINE
  5
2F5
330
22F
100
AcDbEntity
  8
Camada 1
 62
    18
420
        0
370
    70
100
AcDbPolyline
 90
        4
 70
     0
 43
0.0
 10
1658.499744131477
 20
2071.9994054718
 10
1661.306668606601
 20
2069.192480996676
 10
1661.306668606601
 20
2065.938956109154
 10
1658.499744131477
 20
2063.132031634029
  0
LINE
  5
2F6
330
22F
100
AcDbEntity
  8
Camada 1
 62
    18
420
        0
370
    70
100
AcDbLine
 10
1658.499744131477
 20
2063.132031634029
 30
0.0
 11
1290.242856039858
 21
1850.540501235285
 31
0.0
  0
LWPOLYLINE
  5
2F7
330
22F
100
AcDbEntity
  8
Camada 1
 62
    18
420
        0
370
    70
100
AcDbPolyline
 90
        4
 70
     0
 43
0.0
 10
1290.242856039858
 20
1850.540501235285
 10
1285.378727311119
 20
1848.913738791525
 10
1279.761568767577
 20
1848.913738791525
 10
1274.897440038836
 20
1850.540501235285
  0
LINE
  5
2F8
330
22F
100
AcDbEntity
  8
Camada 1
 62
    18
420
        0
370
    70
100
AcDbLine
 10
1274.897440038836
 20
1850.540501235285
 30
0.0
 11
1274.259467261407
 21
1850.891318124186
 31
0.0
  0
LWPOLYLINE
  5
2F9
330
22F
100
AcDbEntity
  8
Camada 1
 62
    18
420
        0
370
    70
100
AcDbPolyline
 90
        4
 70
     0
 43
0.0
 10
1274.259467261407
 20
1850.891318124186
 10
1271.449427874948
 20
1853.698242599311
 10
1271.449427874948
 20
1856.951767486832
 10
1274.259467261407
 20
1859.758691961956
  0
LINE
  5
2FA
330
22F
100
AcDbEntity
  8
Camada 1
 62
    18
420
        0
370
    70
100
AcDbLine
 10
1168.767543867956
 20
1920.64936806715
 30
0.0
 11
1537.024431959573
 21
2133.27282630706
 31
0.0
  0
LWPOLYLINE
  5
2FB
330
22F
100
AcDbEntity
  8
Camada 1
 62
    18
420
        0
370
    70
100
AcDbPolyline
 90
        4
 70
     0
 43
0.0
 10
1537.024431959573
 20
2133.27282630706
 10
1541.888560688316
 20
2134.89958875082
 10
1547.505719231856
 20
2134.89958875082
 10
1552.369847960595
 20
2133.27282630706
  0
LINE
  5
2FC
330
22F
100
AcDbEntity
  8
Camada 1
 62
    18
420
        0
370
    70
100
AcDbLine
 10
1552.369847960595
 20
2133.27282630706
 30
0.0
 11
1553.007820738025
 21
2132.922009418159
 31
0.0
  0
LWPOLYLINE
  5
2FD
330
22F
100
AcDbEntity
  8
Camada 1
 62
    18
420
        0
370
    70
100
AcDbPolyline
 90
        4
 70
     0
 43
0.0
 10
1553.007820738025
 20
2132.922009418159
 10
1555.817860124483
 20
2130.115084943035
 10
1555.817860124483
 20
2126.861560055514
 10
1553.007820738025
 20
2124.05463558039
  0
LINE
  5
2FE
330
22F
100
AcDbEntity
  8
Camada 1
 62
    18
420
        0
370
    70
100
AcDbLine
 10
1553.007820738025
 20
2124.05463558039
 30
0.0
 11
1184.75093264641
 21
1911.431177340479
 31
0.0
  0
LWPOLYLINE
  5
2FF
330
22F
100
AcDbEntity
  8
Camada 1
 62
    18
420
        0
370
    70
100
AcDbPolyline
 90
        4
 70
     0
 43
0.0
 10
1184.75093264641
 20
1911.431177340479
 10
1179.886803917667
 20
1909.804414896719
 10
1174.269645374126
 20
1909.804414896719
 10
1169.405516645387
 20
1911.431177340479
  0
LINE
  5
300
330
22F
100
AcDbEntity
  8
Camada 1
 62
    18
420
        0
370
    70
100
AcDbLine
 10
1169.405516645387
 20
1911.431177340479
 30
0.0
 11
1168.767543867956
 21
1911.813922070546
 31
0.0
  0
LWPOLYLINE
  5
301
330
22F
100
AcDbEntity
  8
Camada 1
 62
    18
420
        0
370
    70
100
AcDbPolyline
 90
        4
 70
     0
 43
0.0
 10
1168.767543867956
 20
1911.813922070546
 10
1165.96061939283
 20
1914.62084654567
 10
1165.96061939283
 20
1917.842443592025
 10
1168.767543867956
 20
1920.64936806715
  0
LINE
  5
302
330
22F
100
AcDbEntity
  8
Camada 1
 62
    18
420
        0
370
    70
100
AcDbLine
 10
1023.637595031779
 20
2521.583124197866
 30
0.0
 11
1002.218880658862
 21
2533.959056288562
 31
0.0
  0
LWPOLYLINE
  5
303
330
22F
100
AcDbEntity
  8
Camada 1
 62
    18
420
        0
370
    70
100
AcDbPolyline
 90
        8
 70
     0
 43
0.0
 10
1002.218880658862
 20
2533.959056288562
 10
994.3054484168824
 20
2537.595325906149
 10
985.1861561250407
 20
2540.147217015869
 10
975.3140287003571
 20
2541.422773206811
 10
965.1932924148914
 20
2541.422773206811
 10
955.3211649902095
 20
2540.147217015869
 10
946.2020673803253
 20
2537.595325906149
 10
938.2851308630943
 20
2533.959056288562
  0
LINE
  5
304
330
22F
100
AcDbEntity
  8
Camada 1
 62
    18
420
        0
370
    70
100
AcDbLine
 10
938.2851308630943
 20
2533.959056288562
 30
0.0
 11
474.7688031075703
 21
2266.345732100277
 31
0.0
  0
LWPOLYLINE
  5
305
330
22F
100
AcDbEntity
  8
Camada 1
 62
    18
420
        0
370
    70
100
AcDbPolyline
 90
        8
 70
     0
 43
0.0
 10
474.7688031075703
 20
2266.345732100277
 10
468.4564352908519
 20
2261.784723180648
 10
464.0644103110481
 20
2256.521691119299
 10
461.8125240991076
 20
2250.812058645554
 10
461.8125240991076
 20
2244.975104171065
 10
464.0644103110481
 20
2239.26547169732
 10
468.4564352908519
 20
2234.002439635972
 10
474.7688031075703
 20
2229.441430716343
  0
LINE
  5
306
330
22F
100
AcDbEntity
  8
Camada 1
 62
    18
420
        0
370
    70
100
AcDbLine
 10
474.7688031075703
 20
2229.441430716343
 30
0.0
 11
488.8320437310658
 21
2221.307618497541
 31
0.0
  0
LINE
  5
307
330
22F
100
AcDbEntity
  8
Camada 1
 62
    18
420
        0
370
    70
100
AcDbLine
 10
1642.819280480176
 20
1555.049499342748
 30
0.0
 11
1646.991509529031
 21
1552.657247438854
 31
0.0
  0
LINE
  5
308
330
22F
100
AcDbEntity
  8
Camada 1
 62
    18
420
        0
370
    70
100
AcDbLine
 10
1646.991509529031
 20
1552.657247438854
 30
0.0
 11
1668.410029219991
 21
1540.281315348157
 31
0.0
  0
LWPOLYLINE
  5
309
330
22F
100
AcDbEntity
  8
Camada 1
 62
    18
420
        0
370
    70
100
AcDbPolyline
 90
        8
 70
     0
 43
0.0
 10
1668.410029219991
 20
1540.281315348157
 10
1676.32365614393
 20
1536.64504573057
 10
1685.446063347106
 20
1534.093543984767
 10
1695.314881178496
 20
1532.817598429908
 10
1705.43892705725
 20
1532.817598429908
 10
1715.307744888643
 20
1534.093543984767
 10
1724.427037180485
 20
1536.64504573057
 10
1732.343779015758
 20
1540.281315348157
  0
LINE
  5
30A
330
22F
100
AcDbEntity
  8
Camada 1
 62
    18
420
        0
370
    70
100
AcDbLine
 10
1732.343779015758
 20
1540.281315348157
 30
0.0
 11
1736.49984946207
 21
1542.673567252051
 31
0.0
  0
LINE
  5
30B
330
22F
100
AcDbEntity
  8
Camada 1
 62
    18
420
        0
370
    70
100
AcDbLine
 10
2191.541476889768
 20
1847.318904188929
 30
0.0
 11
2174.444896673616
 21
1857.174873011072
 31
0.0
  0
LINE
  5
30C
330
22F
100
AcDbEntity
  8
Camada 1
 62
    18
420
        0
370
    70
100
AcDbLine
 10
2174.444896673616
 20
1857.174873011072
 30
0.0
 11
1023.637595031779
 21
2521.583124197866
 31
0.0
  0
LINE
  5
30D
330
22F
100
AcDbEntity
  8
Camada 1
 62
    18
420
        0
370
    70
100
AcDbLine
 10
945.3184059714894
 20
2491.153555383892
 30
0.0
 11
548.9319217215461
 21
2262.294789911458
 31
0.0
  0
LWPOLYLINE
  5
30E
330
22F
100
AcDbEntity
  8
Camada 1
 62
    18
420
        0
370
    70
100
AcDbPolyline
 90
        4
 70
     0
 43
0.0
 10
945.3184059714894
 20
2491.153555383892
 10
949.3724630716405
 20
2492.493356621082
 10
954.0518386219318
 20
2492.493356621082
 10
958.1058957220831
 20
2491.153555383892
  0
LINE
  5
30F
330
22F
100
AcDbEntity
  8
Camada 1
 62
    18
420
        0
370
    70
100
AcDbLine
 10
958.1058957220831
 20
2491.153555383892
 30
0.0
 11
1485.559088184709
 21
2186.604001970509
 31
0.0
  0
LWPOLYLINE
  5
310
330
22F
100
AcDbEntity
  8
Camada 1
 62
    18
420
        0
370
    70
100
AcDbPolyline
 90
        4
 70
     0
 43
0.0
 10
1485.559088184709
 20
2186.604001970509
 10
1487.90033341552
 20
2184.275605748946
 10
1487.90033341552
 20
2181.564464797318
 10
1485.559088184709
 20
2179.236068575756
  0
LINE
  5
311
330
22F
100
AcDbEntity
  8
Camada 1
 62
    18
420
        0
370
    70
100
AcDbLine
 10
1479.699745285012
 20
2175.854832323574
 30
0.0
 11
1485.559088184709
 21
2179.236068575756
 31
0.0
  0
LINE
  5
312
330
22F
100
AcDbEntity
  8
Camada 1
 62
    18
420
        0
370
    70
100
AcDbLine
 10
1089.169294341474
 20
1950.377303103321
 30
0.0
 11
1090.167623423764
 21
1950.951225516462
 31
0.0
  0
LWPOLYLINE
  5
313
330
22F
100
AcDbEntity
  8
Camada 1
 62
    18
420
        0
370
    70
100
AcDbPolyline
 90
        4
 70
     0
 43
0.0
 10
1089.169294341474
 20
1950.377303103321
 10
1085.118546834612
 20
1949.037501866132
 10
1080.43605637299
 20
1949.037501866132
 10
1076.381999272837
 20
1950.377303103321
  0
LINE
  5
314
330
22F
100
AcDbEntity
  8
Camada 1
 62
    18
420
        0
370
    70
100
AcDbLine
 10
1076.381999272837
 20
1950.377303103321
 30
0.0
 11
548.9319217215461
 21
2254.894928675539
 31
0.0
  0
LWPOLYLINE
  5
315
330
22F
100
AcDbEntity
  8
Camada 1
 62
    18
420
        0
370
    70
100
AcDbPolyline
 90
        4
 70
     0
 43
0.0
 10
548.9319217215461
 20
2254.894928675539
 10
546.5906764907331
 20
2257.255252738266
 10
546.5906764907331
 20
2259.934465848731
 10
548.9319217215461
 20
2262.294789911458
  0
LINE
  5
316
330
22F
100
AcDbEntity
  8
Camada 1
 62
    18
420
        0
370
    70
100
AcDbLine
 10
1739.695943171886
 20
1540.823699284049
 30
0.0
 11
1784.360851460515
 21
1566.628014132146
 31
0.0
  0
LINE
  5
317
330
22F
100
AcDbEntity
  8
Camada 1
 62
    18
420
        0
370
    70
100
AcDbLine
 10
1739.695943171886
 20
1579.227441111
 30
0.0
 11
1743.852208300159
 21
1581.619693014892
 31
0.0
  0
LWPOLYLINE
  5
318
330
22F
100
AcDbEntity
  8
Camada 1
 62
    18
420
        0
370
    70
100
AcDbPolyline
 90
        3
 70
     0
 43
0.0
 10
2202.162935172044
 20
1853.443209233905
 10
2204.555187075937
 20
1853.921737487467
 10
2207.362111551057
 20
1852.932753139178
  0
LINE
  5
319
330
22F
100
AcDbEntity
  8
Camada 1
 62
    18
420
        0
370
    70
100
AcDbLine
 10
2202.162935172044
 20
1853.443209233905
 30
0.0
 11
1738.653031921141
 21
1585.82988504562
 31
0.0
  0
LINE
  5
31A
330
22F
100
AcDbEntity
  8
Camada 1
 62
    18
420
        0
370
    70
100
AcDbLine
 10
1743.852208300159
 20
1581.619693014892
 30
0.0
 11
1762.071519369969
 21
1571.093628892196
 31
0.0
  0
LWPOLYLINE
  5
31B
330
22F
100
AcDbEntity
  8
Camada 1
 62
    18
420
        0
370
    70
100
AcDbPolyline
 90
        4
 70
     0
 43
0.0
 10
1736.49984946207
 20
1581.077309079
 10
1737.482409305736
 20
1584.745506537753
 10
1740.174471425449
 20
1586.308413299183
 10
1743.852208300159
 20
1585.319428950894
  0
LINE
  5
31C
330
22F
100
AcDbEntity
  8
Camada 1
 62
    18
420
        0
370
    70
100
AcDbLine
 10
1736.49984946207
 20
1542.673567252051
 30
0.0
 11
1736.49984946207
 21
1581.077309079
 31
0.0
  0
LWPOLYLINE
  5
31D
330
22F
100
AcDbEntity
  8
Camada 1
 62
    18
420
        0
370
    70
100
AcDbPolyline
 90
        3
 70
     0
 43
0.0
 10
1732.343779015758
 20
1540.281315348157
 10
1735.281529766875
 20
1539.994354141588
 10
1736.49984946207
 20
1542.673567252051
  0
LINE
  5
31E
330
22F
100
AcDbEntity
  8
Camada 1
 62
    18
420
        0
370
    70
100
AcDbLine
 10
1732.343779015758
 20
1536.581579412156
 30
0.0
 11
1732.343779015758
 21
1540.281315348157
 31
0.0
  0
LWPOLYLINE
  5
31F
330
22F
100
AcDbEntity
  8
Camada 1
 62
    18
420
        0
370
    70
100
AcDbPolyline
 90
        4
 70
     0
 43
0.0
 10
1732.343779015758
 20
1536.581579412156
 10
1736.018206297176
 20
1535.592595063867
 10
1738.710463098847
 20
1537.155501825297
 10
1739.695943171886
 20
1540.823699284049
  0
LINE
  5
320
330
22F
100
AcDbEntity
  8
Camada 1
 62
    18
420
        0
370
    70
100
AcDbLine
 10
1739.695943171886
 20
1540.823699284049
 30
0.0
 11
1739.695943171886
 21
1579.227441111
 31
0.0
  0
LWPOLYLINE
  5
321
330
22F
100
AcDbEntity
  8
Camada 1
 62
    18
420
        0
370
    70
100
AcDbPolyline
 90
        3
 70
     0
 43
0.0
 10
1739.695943171886
 20
1579.227441111
 10
1740.911342637708
 20
1581.906654221463
 10
1743.852208300159
 20
1581.619693014892
  0
LINE
  5
322
330
22F
100
AcDbEntity
  8
Camada 1
 62
    18
420
        0
370
    70
100
AcDbLine
 10
2225.574998116248
 20
1816.57044632722
 30
0.0
 11
1800.430484346507
 21
1571.093628892196
 31
0.0
  0
LINE
  5
323
330
22F
100
AcDbEntity
  8
Camada 1
 62
    18
420
        0
370
    70
100
AcDbLine
 10
2225.574998116248
 20
1816.57044632722
 30
0.0
 11
2225.574998116248
 21
1820.270571627138
 31
0.0
  0
LINE
  5
324
330
22F
100
AcDbEntity
  8
Camada 1
 62
    18
420
        0
370
    70
100
AcDbLine
 10
1762.071519369969
 20
1571.093628892196
 30
0.0
 11
1762.071519369969
 21
1574.793754192113
 31
0.0
  0
LWPOLYLINE
  5
325
330
22F
100
AcDbEntity
  8
Camada 1
 62
    18
420
        0
370
    70
100
AcDbPolyline
 90
        7
 70
     0
 43
0.0
 10
1800.430484346507
 20
1571.093628892196
 10
1794.813520484924
 20
1568.605593464807
 10
1788.271427957381
 20
1567.042686703377
 10
1781.251001858236
 20
1566.532230608651
 10
1774.230575759094
 20
1567.042686703377
 10
1767.688483231552
 20
1568.605593464807
 10
1762.071519369969
 20
1571.093628892196
  0
LINE
  5
326
330
22F
100
AcDbEntity
  8
Camada 1
 62
    18
420
        0
370
    70
100
AcDbLine
 10
1800.430484346507
 20
1574.793754192113
 30
0.0
 11
1800.430484346507
 21
1571.093628892196
 31
0.0
  0
LINE
  5
327
330
22F
100
AcDbEntity
  8
Camada 1
 62
    18
420
        0
370
    70
100
AcDbLine
 10
2225.574998116248
 20
1820.270571627138
 30
0.0
 11
1800.430484346507
 21
1574.793754192113
 31
0.0
  0
LWPOLYLINE
  5
328
330
22F
100
AcDbEntity
  8
Camada 1
 62
    18
420
        0
370
    70
100
AcDbPolyline
 90
        7
 70
     0
 43
0.0
 10
2225.574998116248
 20
1820.270571627138
 10
2229.912901511634
 20
1823.492168673495
 10
2232.624431827182
 20
1827.287688132991
 10
2233.549171129224
 20
1831.33863032181
 10
2232.624431827182
 20
1835.389572510629
 10
2229.912901511634
 20
1839.153553492878
 10
2225.574998116248
 20
1842.407078380399
  0
LINE
  5
329
330
22F
100
AcDbEntity
  8
Camada 1
 62
    18
420
        0
370
    70
100
AcDbLine
 10
2207.362111551057
 20
1852.932753139178
 30
0.0
 11
2225.574998116248
 21
1842.407078380399
 31
0.0
  0
LINE
  5
32A
330
22F
100
AcDbEntity
  8
Camada 1
 62
    18
420
        0
370
    70
100
AcDbLine
 10
2207.362111551057
 20
1852.932753139178
 30
0.0
 11
1743.852208300159
 21
1585.319428950894
 31
0.0
  0
LINE
  5
32B
330
22F
100
AcDbEntity
  8
Camada 1
 62
    18
420
        0
370
    70
100
AcDbLine
 10
1743.852208300159
 20
1585.319428950894
 30
0.0
 11
1762.071519369969
 21
1574.793754192113
 31
0.0
  0
LWPOLYLINE
  5
32C
330
22F
100
AcDbEntity
  8
Camada 1
 62
    18
420
        0
370
    70
100
AcDbPolyline
 90
        7
 70
     0
 43
0.0
 10
1762.071519369969
 20
1574.793754192113
 10
1767.688483231552
 20
1572.305718764725
 10
1774.230575759094
 20
1570.742812003295
 10
1781.251001858236
 20
1570.200428067403
 10
1788.271427957381
 20
1570.742812003295
 10
1794.813520484924
 20
1572.305718764725
 10
1800.430484346507
 20
1574.793754192113
  0
LWPOLYLINE
  5
32D
330
22F
100
AcDbEntity
  8
Camada 1
 62
    18
420
        0
370
    70
100
AcDbPolyline
 90
        3
 70
     0
 43
0.0
 10
552.4469044790976
 20
1842.63018390464
 10
550.5586841653066
 20
1846.617270411127
 10
549.8887835467103
 20
1850.540501235285
  0
LINE
  5
32E
330
22F
100
AcDbEntity
  8
Camada 1
 62
    18
420
        0
370
    70
100
AcDbLine
 10
1071.2688723194
 20
1544.715002267043
 30
0.0
 11
1067.112801873085
 21
1547.107254170935
 31
0.0
  0
LINE
  5
32F
330
22F
100
AcDbEntity
  8
Camada 1
 62
    18
420
        0
370
    70
100
AcDbLine
 10
1077.983258380056
 20
1545.640130933001
 30
0.0
 11
1073.826993251785
 21
1543.247879029109
 31
0.0
  0
LWPOLYLINE
  5
330
330
22F
100
AcDbEntity
  8
Camada 1
 62
    18
420
        0
370
    70
100
AcDbPolyline
 90
        3
 70
     0
 43
0.0
 10
554.5998922562084
 20
1835.80424508186
 10
553.008172564947
 20
1837.654113049862
 10
552.4469044790976
 20
1840.556821048481
  0
LINE
  5
331
330
22F
100
AcDbEntity
  8
Camada 1
 62
    18
420
        0
370
    70
100
AcDbLine
 10
554.5998922562084
 20
1835.80424508186
 30
0.0
 11
1066.069695940381
 21
1540.504810236313
 31
0.0
  0
LWPOLYLINE
  5
332
330
22F
100
AcDbEntity
  8
Camada 1
 62
    18
420
        0
370
    70
100
AcDbPolyline
 90
        4
 70
     0
 43
0.0
 10
1071.2688723194
 20
1541.014876967125
 10
1067.591135444689
 20
1540.026281982752
 10
1064.902382918266
 20
1541.589188744182
 10
1063.916708163269
 20
1545.257386202935
  0
LWPOLYLINE
  5
333
330
22F
100
AcDbEntity
  8
Camada 1
 62
    18
420
        0
370
    70
100
AcDbPolyline
 90
        3
 70
     0
 43
0.0
 10
1071.2688723194
 20
1544.715002267043
 10
1068.331316250238
 20
1544.428041060472
 10
1067.112801873085
 20
1547.107254170935
  0
LINE
  5
334
330
22F
100
AcDbEntity
  8
Camada 1
 62
    18
420
        0
370
    70
100
AcDbLine
 10
552.4469044790976
 20
1840.556821048481
 30
0.0
 11
1063.916708163269
 21
1545.257386202935
 31
0.0
  0
LWPOLYLINE
  5
335
330
22F
100
AcDbEntity
  8
Camada 1
 62
    18
420
        0
370
    70
100
AcDbPolyline
 90
        3
 70
     0
 43
0.0
 10
1073.826993251785
 20
1543.247879029109
 10
1076.764744002903
 20
1542.960917822537
 10
1077.983258380056
 20
1545.640130933001
  0
LINE
  5
336
330
22F
100
AcDbEntity
  8
Camada 1
 62
    18
420
        0
370
    70
100
AcDbLine
 10
1073.826993251785
 20
1543.247879029109
 30
0.0
 11
1071.2688723194
 21
1544.715002267043
 31
0.0
  0
LINE
  5
337
330
22F
100
AcDbEntity
  8
Camada 1
 62
    18
420
        0
370
    70
100
AcDbLine
 10
1071.2688723194
 20
1541.014876967125
 30
0.0
 11
1071.2688723194
 21
1544.715002267043
 31
0.0
  0
LINE
  5
338
330
22F
100
AcDbEntity
  8
Camada 1
 62
    18
420
        0
370
    70
100
AcDbLine
 10
1073.826993251785
 20
1539.547753729191
 30
0.0
 11
1071.2688723194
 21
1541.014876967125
 31
0.0
  0
LWPOLYLINE
  5
339
330
22F
100
AcDbEntity
  8
Camada 1
 62
    18
420
        0
370
    70
100
AcDbPolyline
 90
        4
 70
     0
 43
0.0
 10
1073.826993251785
 20
1539.547753729191
 10
1077.501615215162
 20
1538.559158744818
 10
1080.193677334875
 20
1540.122065506248
 10
1081.179157407914
 20
1543.789873601084
  0
LWPOLYLINE
  5
33A
330
22F
100
AcDbEntity
  8
Camada 1
 62
    18
420
        0
370
    70
100
AcDbPolyline
 90
        4
 70
     0
 43
0.0
 10
960.9733662862472
 20
2476.194193706227
 10
965.9397030431081
 20
2477.757100467658
 10
971.7194210218513
 20
2477.1827886906
 10
977.9264658991142
 20
2474.535503421302
  0
LINE
  5
33B
330
22F
100
AcDbEntity
  8
Camada 1
 62
    18
420
        0
370
    70
100
AcDbLine
 10
960.9733662862472
 20
2476.194193706227
 30
0.0
 11
957.7772725764317
 21
2474.375864215476
 31
0.0
  0
LWPOLYLINE
  5
33C
330
22F
100
AcDbEntity
  8
Camada 1
 62
    18
420
        0
370
    70
100
AcDbPolyline
 90
        4
 70
     0
 43
0.0
 10
542.2175356608877
 20
2267.270860766235
 10
536.8302965101293
 20
2271.321802955054
 10
533.4428304352796
 20
2276.04245108051
 10
532.2881717404562
 20
2281.113916094866
  0
LINE
  5
33D
330
22F
100
AcDbEntity
  8
Camada 1
 62
    18
420
        0
370
    70
100
AcDbLine
 10
532.2881717404562
 20
2284.814041394784
 30
0.0
 11
532.2881717404562
 21
2281.113916094866
 31
0.0
  0
LINE
  5
33E
330
22F
100
AcDbEntity
  8
Camada 1
 62
    18
420
        0
370
    70
100
AcDbLine
 10
542.2175356608877
 20
2298.657096723416
 30
0.0
 11
881.0657671279868
 21
2494.279758270669
 31
0.0
  0
LWPOLYLINE
  5
33F
330
22F
100
AcDbEntity
  8
Camada 1
 62
    18
420
        0
370
    70
100
AcDbPolyline
 90
        7
 70
     0
 43
0.0
 10
542.2175356608877
 20
2298.657096723416
 10
536.8302965101293
 20
2294.574226693431
 10
533.4428304352796
 20
2289.853578567976
 10
532.2881717404562
 20
2284.814041394784
 10
533.4428304352796
 20
2279.742576380428
 10
536.8302965101293
 20
2275.021538891056
 10
542.2175356608877
 20
2270.970986066152
  0
LINE
  5
340
330
22F
100
AcDbEntity
  8
Camada 1
 62
    18
420
        0
370
    70
100
AcDbLine
 10
932.5342258141864
 20
2492.238323255677
 30
0.0
 11
929.016128145302
 21
2494.279758270669
 31
0.0
  0
LWPOLYLINE
  5
341
330
22F
100
AcDbEntity
  8
Camada 1
 62
    18
420
        0
370
    70
100
AcDbPolyline
 90
        7
 70
     0
 43
0.0
 10
929.016128145302
 20
2494.279758270669
 10
921.9955073641996
 20
2497.373643952364
 10
913.8173076588991
 20
2499.351223285025
 10
905.0424077513325
 20
2500.020929221662
 10
896.2645876143888
 20
2499.351223285025
 10
888.0893081384638
 20
2497.373643952364
 10
881.0657671279868
 20
2494.279758270669
  0
LINE
  5
342
330
22F
100
AcDbEntity
  8
Camada 1
 62
    18
420
        0
370
    70
100
AcDbLine
 10
939.8863899703156
 20
2442.543027845899
 30
0.0
 11
939.8863899703156
 21
2479.51157427608
 31
0.0
  0
LWPOLYLINE
  5
343
330
22F
100
AcDbEntity
  8
Camada 1
 62
    18
420
        0
370
    70
100
AcDbPolyline
 90
        4
 70
     0
 43
0.0
 10
939.8863899703156
 20
2479.51157427608
 10
938.9009098972765
 20
2484.328005925031
 10
936.2086530956057
 20
2488.984798368156
 10
932.5342258141864
 20
2492.238323255677
  0
LINE
  5
344
330
22F
100
AcDbEntity
  8
Camada 1
 62
    18
420
        0
370
    70
100
AcDbLine
 10
545.7358280117305
 20
2268.929551051161
 30
0.0
 11
932.5342258141864
 21
2492.238323255677
 31
0.0
  0
LINE
  5
345
330
22F
100
AcDbEntity
  8
Camada 1
 62
    18
420
        0
370
    70
100
AcDbLine
 10
939.8863899703156
 20
2479.51157427608
 30
0.0
 11
553.0879921678597
 21
2256.202802071563
 31
0.0
  0
LINE
  5
346
330
22F
100
AcDbEntity
  8
Camada 1
 62
    18
420
        0
370
    70
100
AcDbLine
 10
1077.986373291391
 20
1674.088172124258
 30
0.0
 11
1067.115916784418
 21
1667.804227873455
 31
0.0
  0
LINE
  5
347
330
22F
100
AcDbEntity
  8
Camada 1
 62
    18
420
        0
370
    70
100
AcDbLine
 10
545.7358280117305
 20
2268.929551051161
 30
0.0
 11
542.2175356608877
 21
2270.970986066152
 31
0.0
  0
LINE
  5
348
330
22F
100
AcDbEntity
  8
Camada 1
 62
    18
420
        0
370
    70
100
AcDbLine
 10
542.2175356608877
 20
2270.970986066152
 30
0.0
 11
542.2175356608877
 21
2267.270860766235
 31
0.0
  0
LINE
  5
349
330
22F
100
AcDbEntity
  8
Camada 1
 62
    18
420
        0
370
    70
100
AcDbLine
 10
545.7358280117305
 20
2265.229425751243
 30
0.0
 11
542.2175356608877
 21
2267.270860766235
 31
0.0
  0
LWPOLYLINE
  5
34A
330
22F
100
AcDbEntity
  8
Camada 1
 62
    18
420
        0
370
    70
100
AcDbPolyline
 90
        3
 70
     0
 43
0.0
 10
549.8887835467103
 20
2258.052670039564
 10
548.6735787628486
 20
2262.135540069549
 10
545.7358280117305
 20
2265.229425751243
  0
LINE
  5
34B
330
22F
100
AcDbEntity
  8
Camada 1
 62
    18
420
        0
370
    70
100
AcDbLine
 10
549.8887835467103
 20
2254.352544739646
 30
0.0
 11
549.8887835467103
 21
2258.052670039564
 31
0.0
  0
LINE
  5
34C
330
22F
100
AcDbEntity
  8
Camada 1
 62
    18
420
        0
370
    70
100
AcDbLine
 10
549.8887835467103
 20
1850.540501235285
 30
0.0
 11
549.8887835467103
 21
2178.853323845689
 31
0.0
  0
LINE
  5
34D
330
22F
100
AcDbEntity
  8
Camada 1
 62
    18
420
        0
370
    70
100
AcDbLine
 10
553.0879921678597
 20
2252.502676771646
 30
0.0
 11
553.0879921678597
 21
2256.202802071563
 31
0.0
  0
LWPOLYLINE
  5
34E
330
22F
100
AcDbEntity
  8
Camada 1
 62
    18
420
        0
370
    70
100
AcDbPolyline
 90
        4
 70
     0
 43
0.0
 10
553.0879921678597
 20
2256.202802071563
 10
552.1023174128622
 20
2261.019233720515
 10
549.410255293149
 20
2265.67602616364
 10
545.7358280117305
 20
2268.929551051161
  0
LWPOLYLINE
  5
34F
330
22F
100
AcDbEntity
  8
Camada 1
 62
    18
420
        0
370
    70
100
AcDbPolyline
 90
        4
 70
     0
 43
0.0
 10
563.3173609860696
 20
2246.601866614827
 10
568.1591012896023
 20
2247.813956487355
 10
573.705979646188
 20
2247.111933345637
 10
579.619638812258
 20
2244.560431599835
  0
LINE
  5
350
330
22F
100
AcDbEntity
  8
Camada 1
 62
    18
420
        0
370
    70
100
AcDbLine
 10
1441.445908565973
 20
2206.922179233018
 30
0.0
 11
977.9264658991142
 21
2474.535503421302
 31
0.0
  0
LINE
  5
351
330
22F
100
AcDbEntity
  8
Camada 1
 62
    18
420
        0
370
    70
100
AcDbLine
 10
977.9264658991142
 20
2474.535503421302
 30
0.0
 11
974.7303721892986
 21
2472.685635453301
 31
0.0
  0
LWPOLYLINE
  5
352
330
22F
100
AcDbEntity
  8
Camada 1
 62
    18
420
        0
370
    70
100
AcDbPolyline
 90
        5
 70
     0
 43
0.0
 10
1441.445908565973
 20
2206.922179233018
 10
1448.048547182552
 20
2202.042281265653
 10
1454.144039297695
 20
2195.375592284784
 10
1459.253856657844
 20
2187.497202795303
 10
1462.985715116967
 20
2178.948718005269
  0
LINE
  5
353
330
22F
100
AcDbEntity
  8
Camada 1
 62
    18
420
        0
370
    70
100
AcDbLine
 10
1438.246699944822
 20
2205.072311265017
 30
0.0
 11
1441.445908565973
 21
2206.922179233018
 31
0.0
  0
LWPOLYLINE
  5
354
330
22F
100
AcDbEntity
  8
Camada 1
 62
    18
420
        0
370
    70
100
AcDbPolyline
 90
        5
 70
     0
 43
0.0
 10
1459.789816089109
 20
2177.098850037269
 10
1456.057762948028
 20
2185.647334827302
 10
1450.947945587879
 20
2193.525724316784
 10
1444.852453472736
 20
2200.192023933735
 10
1438.246699944822
 20
2205.072311265017
  0
LINE
  5
355
330
22F
100
AcDbEntity
  8
Camada 1
 62
    18
420
        0
370
    70
100
AcDbLine
 10
1438.246699944822
 20
2205.072311265017
 30
0.0
 11
974.7303721892986
 21
2472.685635453301
 31
0.0
  0
LWPOLYLINE
  5
356
330
22F
100
AcDbEntity
  8
Camada 1
 62
    18
420
        0
370
    70
100
AcDbPolyline
 90
        7
 70
     0
 43
0.0
 10
974.7303721892986
 20
2472.685635453301
 10
968.5233273120356
 20
2475.332920722599
 10
962.7404944219597
 20
2475.907232499658
 10
957.7772725764317
 20
2474.375864215476
 10
953.965594514395
 20
2470.835378121384
 10
951.5702276991669
 20
2465.540807582787
 10
950.7537315659556
 20
2458.842190760754
  0
LINE
  5
357
330
22F
100
AcDbEntity
  8
Camada 1
 62
    18
420
        0
370
    70
100
AcDbLine
 10
950.7537315659556
 20
2444.16979028966
 30
0.0
 11
950.7537315659556
 21
2458.842190760754
 31
0.0
  0
LINE
  5
358
330
22F
100
AcDbEntity
  8
Camada 1
 62
    18
420
        0
370
    70
100
AcDbLine
 10
1077.986373291391
 20
1677.78790806026
 30
0.0
 11
1067.115916784418
 21
1671.504353173373
 31
0.0
  0
LINE
  5
359
330
22F
100
AcDbEntity
  8
Camada 1
 62
    18
420
        0
370
    70
100
AcDbLine
 10
1067.115916784418
 20
1653.067971720032
 30
0.0
 11
1077.983258380056
 21
1659.319988129668
 31
0.0
  0
LINE
  5
35A
330
22F
100
AcDbEntity
  8
Camada 1
 62
    18
420
        0
370
    70
100
AcDbLine
 10
1079.026169630802
 20
1539.037297634463
 30
0.0
 11
1368.555620595522
 21
1706.176041859239
 31
0.0
  0
LWPOLYLINE
  5
35B
330
22F
100
AcDbEntity
  8
Camada 1
 62
    18
420
        0
370
    70
100
AcDbPolyline
 90
        4
 70
     0
 43
0.0
 10
1485.581476609917
 20
2161.150504011315
 10
1484.423508321801
 20
2156.079038996958
 10
1481.03623692891
 20
2151.358390871502
 10
1475.648803096192
 20
2147.307448682683
  0
LINE
  5
35C
330
22F
100
AcDbEntity
  8
Camada 1
 62
    18
420
        0
370
    70
100
AcDbLine
 10
1485.581476609917
 20
2161.150504011315
 30
0.0
 11
1485.581476609917
 21
2164.850629311232
 31
0.0
  0
LINE
  5
35D
330
22F
100
AcDbEntity
  8
Camada 1
 62
    18
420
        0
370
    70
100
AcDbLine
 10
1067.112801873085
 20
1547.107254170935
 30
0.0
 11
1067.112801873085
 21
1880.23650843029
 31
0.0
  0
LINE
  5
35E
330
22F
100
AcDbEntity
  8
Camada 1
 62
    18
420
        0
370
    70
100
AcDbLine
 10
579.619638812258
 20
2244.560431599835
 30
0.0
 11
1043.139276161073
 21
1976.94710741155
 31
0.0
  0
LINE
  5
35F
330
22F
100
AcDbEntity
  8
Camada 1
 62
    18
420
        0
370
    70
100
AcDbLine
 10
579.619638812258
 20
2244.560431599835
 30
0.0
 11
576.4235451024424
 21
2242.710563631834
 31
0.0
  0
LINE
  5
360
330
22F
100
AcDbEntity
  8
Camada 1
 62
    18
420
        0
370
    70
100
AcDbLine
 10
1467.977555210371
 20
2074.965579788834
 30
0.0
 11
1467.977555210371
 21
2089.701835942257
 31
0.0
  0
LINE
  5
361
330
22F
100
AcDbEntity
  8
Camada 1
 62
    18
420
        0
370
    70
100
AcDbLine
 10
1467.977555210371
 20
1953.152299737281
 30
0.0
 11
1467.977555210371
 21
1967.920483731871
 31
0.0
  0
LINE
  5
362
330
22F
100
AcDbEntity
  8
Camada 1
 62
    18
420
        0
370
    70
100
AcDbLine
 10
1467.977555210371
 20
1831.33863032181
 30
0.0
 11
1467.977555210371
 21
1846.1068143164
 31
0.0
  0
LINE
  5
363
330
22F
100
AcDbEntity
  8
Camada 1
 62
    18
420
        0
370
    70
100
AcDbLine
 10
1081.179157407914
 20
1543.789873601084
 30
0.0
 11
1365.51274158691
 21
1707.962443508826
 31
0.0
  0
LINE
  5
364
330
22F
100
AcDbEntity
  8
Camada 1
 62
    18
420
        0
370
    70
100
AcDbLine
 10
576.4235451024424
 20
2242.710563631834
 30
0.0
 11
1039.940067539926
 21
1975.097239443549
 31
0.0
  0
LWPOLYLINE
  5
365
330
22F
100
AcDbEntity
  8
Camada 1
 62
    18
420
        0
370
    70
100
AcDbPolyline
 90
        3
 70
     0
 43
0.0
 10
576.4235451024424
 20
2242.710563631834
 10
570.2324641457598
 20
2245.357848901132
 10
564.4622855829757
 20
2245.931771314274
  0
LINE
  5
366
330
22F
100
AcDbEntity
  8
Camada 1
 62
    18
420
        0
370
    70
100
AcDbLine
 10
552.4469044790976
 20
1840.556821048481
 30
0.0
 11
552.4469044790976
 21
2177.385811243838
 31
0.0
  0
LINE
  5
367
330
22F
100
AcDbEntity
  8
Camada 1
 62
    18
420
        0
370
    70
100
AcDbLine
 10
1063.916708163269
 20
1545.257386202935
 30
0.0
 11
1063.916708163269
 21
1882.086376398292
 31
0.0
  0
LWPOLYLINE
  5
368
330
22F
100
AcDbEntity
  8
Camada 1
 62
    18
420
        0
370
    70
100
AcDbPolyline
 90
        3
 70
     0
 43
0.0
 10
1051.901327059389
 20
1964.507319638523
 10
1046.131148496606
 20
1970.599696842334
 10
1039.940067539926
 20
1975.097239443549
  0
LWPOLYLINE
  5
369
330
22F
100
AcDbEntity
  8
Camada 1
 62
    18
420
        0
370
    70
100
AcDbPolyline
 90
        4
 70
     0
 43
0.0
 10
1043.139276161073
 20
1976.94710741155
 10
1049.049625733853
 20
1972.673059698492
 10
1054.599619001768
 20
1966.963427224747
 10
1059.438439075928
 20
1960.169416243134
  0
LINE
  5
36A
330
22F
100
AcDbEntity
  8
Camada 1
 62
    18
420
        0
370
    70
100
AcDbLine
 10
1039.940067539926
 20
1975.097239443549
 30
0.0
 11
1043.139276161073
 21
1976.94710741155
 31
0.0
  0
LINE
  5
36B
330
22F
100
AcDbEntity
  8
Camada 1
 62
    18
420
        0
370
    70
100
AcDbLine
 10
1081.179157407914
 20
1951.302042405364
 30
0.0
 11
1085.335422536187
 21
1953.694294309256
 31
0.0
  0
LWPOLYLINE
  5
36C
330
22F
100
AcDbEntity
  8
Camada 1
 62
    18
420
        0
370
    70
100
AcDbPolyline
 90
        3
 70
     0
 43
0.0
 10
1466.934643959626
 20
2181.213647908417
 10
1469.320471358893
 20
2181.692176161979
 10
1472.13382033864
 20
2180.70319181369
  0
LINE
  5
36D
330
22F
100
AcDbEntity
  8
Camada 1
 62
    18
420
        0
370
    70
100
AcDbLine
 10
1466.934643959626
 20
2181.213647908417
 30
0.0
 11
1080.136246157169
 21
1957.904875703902
 31
0.0
  0
LINE
  5
36E
330
22F
100
AcDbEntity
  8
Camada 1
 62
    18
420
        0
370
    70
100
AcDbLine
 10
1085.335422536187
 20
1953.694294309256
 30
0.0
 11
1088.850405293738
 21
1951.684787135429
 31
0.0
  0
LWPOLYLINE
  5
36F
330
22F
100
AcDbEntity
  8
Camada 1
 62
    18
420
        0
370
    70
100
AcDbPolyline
 90
        4
 70
     0
 43
0.0
 10
1077.983258380056
 20
1953.152299737281
 10
1078.965623541764
 20
1956.820497196033
 10
1081.657685661477
 20
1958.383403957464
 10
1085.335422536187
 20
1957.394419609174
  0
LINE
  5
370
330
22F
100
AcDbEntity
  8
Camada 1
 62
    18
420
        0
370
    70
100
AcDbLine
 10
1077.983258380056
 20
1949.643741484354
 30
0.0
 11
1077.983258380056
 21
1953.152299737281
 31
0.0
  0
LINE
  5
371
330
22F
100
AcDbEntity
  8
Camada 1
 62
    18
420
        0
370
    70
100
AcDbLine
 10
1077.983258380056
 20
1545.640130933001
 30
0.0
 11
1077.983258380056
 21
1873.952564179489
 31
0.0
  0
LINE
  5
372
330
22F
100
AcDbEntity
  8
Camada 1
 62
    18
420
        0
370
    70
100
AcDbLine
 10
1081.179157407914
 20
1948.90979050147
 30
0.0
 11
1081.179157407914
 21
1951.302042405364
 31
0.0
  0
LINE
  5
373
330
22F
100
AcDbEntity
  8
Camada 1
 62
    18
420
        0
370
    70
100
AcDbLine
 10
1081.179157407914
 20
1543.789873601084
 30
0.0
 11
1081.179157407914
 21
1872.102696211488
 31
0.0
  0
LWPOLYLINE
  5
374
330
22F
100
AcDbEntity
  8
Camada 1
 62
    18
420
        0
370
    70
100
AcDbPolyline
 90
        3
 70
     0
 43
0.0
 10
1081.179157407914
 20
1951.302042405364
 10
1082.394556873736
 20
1953.981644879744
 10
1085.335422536187
 20
1953.694294309256
  0
LINE
  5
375
330
22F
100
AcDbEntity
  8
Camada 1
 62
    18
420
        0
370
    70
100
AcDbLine
 10
1475.648803096192
 20
2147.307448682683
 30
0.0
 11
1136.800571629093
 21
1951.684787135429
 31
0.0
  0
LINE
  5
376
330
22F
100
AcDbEntity
  8
Camada 1
 62
    18
420
        0
370
    70
100
AcDbLine
 10
1475.648803096192
 20
2147.307448682683
 30
0.0
 11
1475.648803096192
 21
2151.007573982602
 31
0.0
  0
LINE
  5
377
330
22F
100
AcDbEntity
  8
Camada 1
 62
    18
420
        0
370
    70
100
AcDbLine
 10
1475.648803096192
 20
2151.007573982602
 30
0.0
 11
1136.800571629093
 21
1955.352984594182
 31
0.0
  0
LWPOLYLINE
  5
378
330
22F
100
AcDbEntity
  8
Camada 1
 62
    18
420
        0
370
    70
100
AcDbPolyline
 90
        7
 70
     0
 43
0.0
 10
1475.648803096192
 20
2151.007573982602
 10
1481.03623692891
 20
2155.058126807503
 10
1484.423508321801
 20
2159.779164296876
 10
1485.581476609917
 20
2164.850629311232
 10
1484.423508321801
 20
2169.890166484423
 10
1481.03623692891
 20
2174.610814609879
 10
1475.648803096192
 20
2178.693684639863
  0
LINE
  5
379
330
22F
100
AcDbEntity
  8
Camada 1
 62
    18
420
        0
370
    70
100
AcDbLine
 10
1472.13382033864
 20
2180.70319181369
 30
0.0
 11
1475.648803096192
 21
2178.693684639863
 31
0.0
  0
LINE
  5
37A
330
22F
100
AcDbEntity
  8
Camada 1
 62
    18
420
        0
370
    70
100
AcDbLine
 10
1472.13382033864
 20
2180.70319181369
 30
0.0
 11
1085.335422536187
 21
1957.394419609174
 31
0.0
  0
LINE
  5
37B
330
22F
100
AcDbEntity
  8
Camada 1
 62
    18
420
        0
370
    70
100
AcDbLine
 10
1085.335422536187
 20
1957.394419609174
 30
0.0
 11
1088.850405293738
 21
1955.352984594182
 31
0.0
  0
LWPOLYLINE
  5
37C
330
22F
100
AcDbEntity
  8
Camada 1
 62
    18
420
        0
370
    70
100
AcDbPolyline
 90
        7
 70
     0
 43
0.0
 10
1088.850405293738
 20
1955.352984594182
 10
1095.873946304215
 20
1952.259098912486
 10
1104.049225780141
 20
1950.281519579826
 10
1112.827045917081
 20
1949.611813643189
 10
1121.601945824648
 20
1950.281519579826
 10
1129.78014552995
 20
1952.259098912486
 10
1136.800571629093
 20
1955.352984594182
  0
LINE
  5
37D
330
22F
100
AcDbEntity
  8
Camada 1
 62
    18
420
        0
370
    70
100
AcDbLine
 10
1088.850405293738
 20
1951.684787135429
 30
0.0
 11
1088.850405293738
 21
1955.352984594182
 31
0.0
  0
LWPOLYLINE
  5
37E
330
22F
100
AcDbEntity
  8
Camada 1
 62
    18
420
        0
370
    70
100
AcDbPolyline
 90
        7
 70
     0
 43
0.0
 10
1136.800571629093
 20
1951.684787135429
 10
1129.78014552995
 20
1948.558973612568
 10
1121.601945824648
 20
1946.613322121072
 10
1112.827045917081
 20
1945.943616184436
 10
1104.049225780141
 20
1946.613322121072
 10
1095.873946304215
 20
1948.558973612568
 10
1088.850405293738
 20
1951.684787135429
  0
LINE
  5
37F
330
22F
100
AcDbEntity
  8
Camada 1
 62
    18
420
        0
370
    70
100
AcDbLine
 10
1136.800571629093
 20
1955.352984594182
 30
0.0
 11
1136.800571629093
 21
1951.684787135429
 31
0.0
  0
ENDBLK
  5
232
330
22F
100
AcDbEntity
  8
0
100
AcDbBlockEnd
  0
ENDSEC
  0
SECTION
  2
ENTITIES
  0
MTEXT
  5
79
330
70
100
AcDbEntity
  8
Camada 1
100
AcDbMText
 10
1527.342893225053
 20
2365.196582395729
 30
0.0
 40
0.2
 41
0.0
 46
0.0
 71
     7
 72
     1
  1
\C18;\c0;\FTramontina SmCd Titulos|b0|i0|c1;\H45.784485;\W1.000000;424
 11
0.8704032100003081
 21
-0.4923395698307822
 31
0.0
 73
     1
 44
1.0
  0
MTEXT
  5
7A
330
70
100
AcDbEntity
  8
Camada 1
100
AcDbMText
 10
383.1967021601395
 20
2095.96700394049
 30
0.0
 40
0.2
 41
0.0
 46
0.0
 71
     7
 72
     1
  1
\C18;\c0;\FTramontina SmCd Titulos|b0|i0|c1;\H45.784485;\W1.000000;128
 11
-0.0015203288869067
 21
0.99999884429937
 31
0.0
 73
     1
 44
1.0
  0
MTEXT
  5
7B
330
70
100
AcDbEntity
  8
Camada 1
100
AcDbMText
 10
552.7862122933002
 20
2473.306809852664
 30
0.0
 40
0.2
 41
0.0
 46
0.0
 71
     7
 72
     1
  1
\C18;\c0;\FTramontina SmCd Titulos|b0|i0|c1;\H45.784484;\W1.000000;169,5
 11
0.8620920812293167
 21
0.5067516585880162
 31
0.0
 73
     1
 44
1.0
  0
INSERT
  5
7D
330
70
100
AcDbEntity
  8
Camada 1
100
AcDbBlockReference
  2
Block_0
 10
0.0
 20
0.0
 30
0.0
  0
INSERT
  5
230
330
70
100
AcDbEntity
  8
Camada 1
100
AcDbBlockReference
  2
Block_1
 10
0.0
 20
0.0
 30
0.0
  0
LINE
  5
380
330
70
100
AcDbEntity
  8
Camada 1
 62
    18
420
        0
370
    35
100
AcDbLine
 10
2339.424584134622
 20
1883.307616138931
 30
0.0
 11
981.9766962842905
 21
2667.029921929167
 31
0.0
  0
LINE
  5
381
330
70
100
AcDbEntity
  8
Camada 1
 62
    18
420
        0
370
    35
100
AcDbLine
 10
2350.398438319178
 20
1889.126307825397
 30
0.0
 11
2256.365146445194
 21
1834.831844473422
 31
0.0
  0
LINE
  5
382
330
70
100
AcDbEntity
  8
Camada 1
 62
    18
420
        0
370
    35
100
AcDbLine
 10
1000.651005166922
 20
2677.824275603528
 30
0.0
 11
906.6177132929379
 21
2623.529812251554
 31
0.0
  0
MTEXT
  5
383
330
70
100
AcDbEntity
  8
Camada 1
100
AcDbMText
 10
505.1099678100144
 20
1367.261928159889
 30
0.0
 40
0.2
 41
0.0
 46
0.0
 71
     7
 72
     1
  1
\C18;\c0;\FTramontina SmCd Titulos|b0|i0|c1;\H45.784485;\W1.000000;424
 11
0.8704032100003081
 21
-0.4923395698307822
 31
0.0
 73
     1
 44
1.0
  0
LINE
  5
384
330
70
100
AcDbEntity
  8
Camada 1
 62
    18
420
        0
370
    35
100
AcDbLine
 10
1317.191657455947
 20
885.3728729345894
 30
0.0
 11
-40.25623039438506
 21
1669.095178724825
 31
0.0
  0
LINE
  5
385
330
70
100
AcDbEntity
  8
Camada 1
 62
    18
420
        0
370
    35
100
AcDbLine
 10
1328.165511640502
 20
891.1915646210555
 30
0.0
 11
1234.132219766517
 21
836.8971012690817
 31
0.0
  0
LINE
  5
386
330
70
100
AcDbEntity
  8
Camada 1
 62
    18
420
        0
370
    35
100
AcDbLine
 10
-21.58192151175354
 20
1679.889532399186
 30
0.0
 11
-115.6152133857376
 21
1625.595069047212
 31
0.0
  0
LINE
  5
387
330
70
100
AcDbEntity
  8
Camada 1
 62
    18
420
        0
370
    35
100
AcDbLine
 10
394.9463002410157
 20
1927.920111116838
 30
0.0
 11
394.9463002410157
 21
2365.366252028211
 31
0.0
  0
LINE
  5
388
330
70
100
AcDbEntity
  8
Camada 1
 62
    18
420
        0
370
    35
100
AcDbLine
 10
418.346304013924
 20
2352.084055910359
 30
0.0
 11
389.9846532715819
 21
2368.466801282647
 31
0.0
  0
LINE
  5
389
330
70
100
AcDbEntity
  8
Camada 1
 62
    18
420
        0
370
    35
100
AcDbLine
 10
531.3989719701813
 20
1848.606975199384
 30
0.0
 11
386.9678317393209
 21
1932.035778964282
 31
0.0
  0
MTEXT
  5
38A
330
70
100
AcDbEntity
  8
Camada 1
100
AcDbMText
 10
-640.5601292784813
 20
1214.61049850111
 30
0.0
 40
0.2
 41
0.0
 46
0.0
 71
     7
 72
     1
  1
\C18;\c0;\FTramontina SmCd Titulos|b0|i0|c1;\H45.784485;\W1.000000;63
 11
-0.0015203288869067
 21
0.99999884429937
 31
0.0
 73
     1
 44
1.0
  0
LINE
  5
38B
330
70
100
AcDbEntity
  8
Camada 1
 62
    18
420
        0
370
    35
100
AcDbLine
 10
-628.7708147481699
 20
1138.051321202367
 30
0.0
 11
-628.7708147481699
 21
1366.215578895734
 31
0.0
  0
LINE
  5
38C
330
70
100
AcDbEntity
  8
Camada 1
 62
    18
420
        0
370
    35
100
AcDbLine
 10
141.5500308885584
 20
692.8456724992575
 30
0.0
 11
-636.7492832498647
 21
1142.420332408613
 31
0.0
  0
LINE
  5
38D
330
70
100
AcDbEntity
  8
Camada 1
 62
    18
420
        0
370
    35
100
AcDbLine
 10
395.3651377235683
 20
2365.756389105765
 30
0.0
 11
856.7975432725726
 21
2632.140918989644
 31
0.0
  0
LINE
  5
38E
330
70
100
AcDbEntity
  8
Camada 1
 62
    18
420
        0
370
    35
100
AcDbLine
 10
871.2559106554962
 20
2623.857519610606
 30
0.0
 11
849.7416894683047
 21
2636.284607811659
 31
0.0
  0
MTEXT
  5
38F
330
70
100
AcDbEntity
  8
Camada 1
100
AcDbMText
 10
-471.1105162223248
 20
1474.413255165164
 30
0.0
 40
0.2
 41
0.0
 46
0.0
 71
     7
 72
     1
  1
\C18;\c0;\FTramontina SmCd Titulos|b0|i0|c1;\H45.784484;\W1.000000;169,5
 11
0.8620920812293167
 21
0.5067516585880162
 31
0.0
 73
     1
 44
1.0
  0
LINE
  5
390
330
70
100
AcDbEntity
  8
Camada 1
 62
    18
420
        0
370
    35
100
AcDbLine
 10
-605.550405592804
 20
1353.191041332096
 30
0.0
 11
-633.9120563351461
 21
1369.573786704384
 31
0.0
  0
LINE
  5
391
330
70
100
AcDbEntity
  8
Camada 1
 62
    18
420
        0
370
    35
100
AcDbLine
 10
-628.5315718831598
 20
1366.863374527502
 30
0.0
 11
-167.0991663341547
 21
1633.247904411382
 31
0.0
  0
LINE
  5
392
330
70
100
AcDbEntity
  8
Camada 1
 62
    18
420
        0
370
    35
100
AcDbLine
 10
-152.6407989512327
 20
1624.964505032343
 30
0.0
 11
-174.1550201384225
 21
1637.391593233396
 31
0.0
  0
ENDSEC
  0
SECTION
  2
OBJECTS
  0
DICTIONARY
  5
C
330
0
100
AcDbDictionary
281
     1
  3
ACAD_COLOR
350
63
  3
ACAD_DETAILVIEWSTYLE
350
6A
  3
ACAD_GROUP
350
D
  3
ACAD_LAYOUT
350
62
  3
ACAD_MATERIAL
350
10
  3
ACAD_MLEADERSTYLE
350
66
  3
ACAD_MLINESTYLE
350
5F
  3
ACAD_PLOTSETTINGS
350
61
  3
ACAD_PLOTSTYLENAME
350
E
  3
ACAD_SCALELIST
350
42
  3
ACAD_SECTIONVIEWSTYLE
350
68
  3
ACAD_TABLESTYLE
350
64
  3
ACAD_VISUALSTYLE
350
29
  3
ACDB_RECOMPOSE_DATA
350
39B
  3
AcDbVariableDictionary
350
393
  0
DICTIONARY
  5
63
102
{ACAD_REACTORS
330
C
102
}
330
C
100
AcDbDictionary
281
     1
  0
DICTIONARY
  5
6A
102
{ACAD_REACTORS
330
C
102
}
330
C
100
AcDbDictionary
281
     1
  3
Imperial24
350
6B
  0
DICTIONARY
  5
D
102
{ACAD_REACTORS
330
C
102
}
330
C
100
AcDbDictionary
281
     1
  0
DICTIONARY
  5
62
102
{ACAD_REACTORS
330
C
102
}
330
C
100
AcDbDictionary
281
     1
  3
Layout1
350
6F
  3
Layout2
350
77
  3
Model
350
73
  0
DICTIONARY
  5
10
102
{ACAD_REACTORS
330
C
102
}
330
C
100
AcDbDictionary
281
     1
  3
ByBlock
350
19
  3
ByLayer
350
11
  3
Global
350
21
  0
DICTIONARY
  5
66
102
{ACAD_REACTORS
330
C
102
}
330
C
100
AcDbDictionary
281
     1
  3
Standard
350
67
  0
DICTIONARY
  5
5F
102
{ACAD_REACTORS
330
C
102
}
330
C
100
AcDbDictionary
281
     1
  3
Standard
350
60
  0
DICTIONARY
  5
61
102
{ACAD_REACTORS
330
C
102
}
330
C
100
AcDbDictionary
281
     1
  0
ACDBDICTIONARYWDFLT
  5
E
102
{ACAD_REACTORS
330
C
102
}
330
C
100
AcDbDictionary
281
     1
  3
Normal
350
F
100
AcDbDictionaryWithDefault
340
F
  0
DICTIONARY
  5
42
102
{ACAD_REACTORS
330
C
102
}
330
C
100
AcDbDictionary
281
     1
  3
A0
350
43
  3
A1
350
44
  3
A2
350
45
  3
A3
350
46
  3
A4
350
47
  3
A5
350
48
  3
A6
350
49
  3
A7
350
4A
  3
A8
350
4B
  3
A9
350
4C
  3
B0
350
4D
  3
B1
350
4E
  3
B2
350
4F
  3
B3
350
50
  3
B4
350
51
  3
B5
350
52
  3
B6
350
53
  0
DICTIONARY
  5
68
102
{ACAD_REACTORS
330
C
102
}
330
C
100
AcDbDictionary
281
     1
  3
Imperial24
350
69
  0
DICTIONARY
  5
64
102
{ACAD_REACTORS
330
C
102
}
330
C
100
AcDbDictionary
281
     1
  3
Standard
350
65
  0
DICTIONARY
  5
29
102
{ACAD_REACTORS
330
C
102
}
330
C
100
AcDbDictionary
281
     1
  3
2dWireframe
350
2F
  3
Basic
350
2E
  3
Brighten
350
35
  3
ColorChange
350
39
  3
Conceptual
350
32
  3
Dim
350
34
  3
EdgeColorOff
350
41
  3
Facepattern
350
38
  3
Flat
350
2A
  3
FlatWithEdges
350
2B
  3
Gouraud
350
2C
  3
GouraudWithEdges
350
2D
  3
Hidden
350
31
  3
JitterOff
350
3F
  3
Linepattern
350
37
  3
OverhangOff
350
40
  3
Realistic
350
33
  3
Shaded
350
3E
  3
Shaded with edges
350
3D
  3
Shades of Gray
350
3A
  3
Sketchy
350
3B
  3
Thicken
350
36
  3
Wireframe
350
30
  3
X-Ray
350
3C
  0
XRECORD
  5
39B
102
{ACAD_REACTORS
330
C
102
}
330
C
100
AcDbXrecord
280
     1
 90
        1
330
65
  0
DICTIONARY
  5
393
102
{ACAD_REACTORS
330
C
102
}
330
C
100
AcDbDictionary
281
     1
  3
CANNOSCALE
350
398
  3
CMLEADERSTYLE
350
395
  3
CTABLESTYLE
350
394
  3
CVIEWDETAILSTYLE
350
396
  3
CVIEWSECTIONSTYLE
350
397
  0
ACDBDETAILVIEWSTYLE
  5
6B
102
{ACAD_REACTORS
330
6A
102
}
330
6A
100
AcDbModelDocViewStyle
 70
     0
  3
Imperial24
290
     1
300
Imperial24
 90
        0
100
AcDbDetailViewStyle
 70
     0
 71
     0
 90
        3
 71
     1
340
55
 62
   256
 40
0.24
340
0
 62
   256
 40
0.24
300

 40
0.36
280
     3
 71
     2
340
5D
 90
       25
 62
   256
 71
     3
340
55
 62
   256
 40
0.24
 90
        1
 40
0.75
 90
        1
300
%<\AcVar ViewType \f "%tc1">% %<\AcVar ViewDetailId>%\PSCALE %<\AcVar ViewScale \f "%sn">%
 71
     4
340
5D
 90
       25
 62
   256
340
5D
 90
       25
 62
   256
280
     0
  0
LAYOUT
  5
6F
102
{ACAD_REACTORS
330
62
102
}
330
62
100
AcDbPlotSettings
  1

  2

  4

  6

 40
0.0
 41
0.0
 42
0.0
 43
0.0
 44
0.0
 45
0.0
 46
0.0
 47
0.0
 48
0.0
 49
0.0
140
0.0
141
0.0
142
1.0
143
1.0
 70
   688
 72
     0
 73
     0
 74
     5
  7

 75
    16
147
1.0
 76
     0
 77
     2
 78
   300
148
0.0
149
0.0
100
AcDbLayout
  1
Layout1
 70
     1
 71
     1
 10
0.0
 20
0.0
 11
12.0
 21
9.0
 12
0.0
 22
0.0
 32
0.0
 14
0.0
 24
0.0
 34
0.0
 15
0.0
 25
0.0
 35
0.0
146
0.0
 13
0.0
 23
0.0
 33
0.0
 16
1.0
 26
0.0
 36
0.0
 17
0.0
 27
1.0
 37
0.0
 76
     0
330
6C
  0
LAYOUT
  5
77
102
{ACAD_REACTORS
330
62
102
}
330
62
100
AcDbPlotSettings
  1

  2

  4

  6

 40
0.0
 41
0.0
 42
0.0
 43
0.0
 44
0.0
 45
0.0
 46
0.0
 47
0.0
 48
0.0
 49
0.0
140
0.0
141
0.0
142
1.0
143
1.0
 70
   688
 72
     0
 73
     0
 74
     5
  7

 75
    16
147
1.0
 76
     0
 77
     2
 78
   300
148
0.0
149
0.0
100
AcDbLayout
  1
Layout2
 70
     1
 71
     2
 10
0.0
 20
0.0
 11
12.0
 21
9.0
 12
0.0
 22
0.0
 32
0.0
 14
0.0
 24
0.0
 34
0.0
 15
0.0
 25
0.0
 35
0.0
146
0.0
 13
0.0
 23
0.0
 33
0.0
 16
1.0
 26
0.0
 36
0.0
 17
0.0
 27
1.0
 37
0.0
 76
     0
330
74
  0
LAYOUT
  5
73
102
{ACAD_REACTORS
330
62
102
}
330
62
100
AcDbPlotSettings
  1

  2

  4

  6

 40
0.0
 41
0.0
 42
0.0
 43
0.0
 44
0.0
 45
0.0
 46
0.0
 47
0.0
 48
0.0
 49
0.0
140
0.0
141
0.0
142
1.0
143
1.0
 70
  1712
 72
     0
 73
     0
 74
     0
  7

 75
     0
147
1.0
 76
     0
 77
     2
 78
   300
148
0.0
149
0.0
100
AcDbLayout
  1
Model
 70
     1
 71
     0
 10
0.0
 20
0.0
 11
12.0
 21
9.0
 12
0.0
 22
0.0
 32
0.0
 14
0.0
 24
0.0
 34
0.0
 15
0.0
 25
0.0
 35
0.0
146
0.0
 13
0.0
 23
0.0
 33
0.0
 16
1.0
 26
0.0
 36
0.0
 17
0.0
 27
1.0
 37
0.0
 76
     0
330
70
  0
MATERIAL
  5
19
102
{ACAD_XDICTIONARY
360
1A
102
}
102
{ACAD_REACTORS
330
10
102
}
330
10
100
AcDbMaterial
  1
ByBlock
 72
     0
 43
0.0208333333333333
 43
0.0
 43
0.0
 43
0.0
 43
0.0
 43
0.0208333333333333
 43
0.0
 43
0.0
 43
0.0
 43
0.0
 43
1.0
 43
0.0
 43
0.0
 43
0.0
 43
0.0
 43
1.0
 77
     0
 47
0.0208333333333333
 47
0.0
 47
0.0
 47
0.0
 47
0.0
 47
0.0208333333333333
 47
0.0
 47
0.0
 47
0.0
 47
0.0
 47
1.0
 47
0.0
 47
0.0
 47
0.0
 47
0.0
 47
1.0
171
     0
 49
0.0208333333333333
 49
0.0
 49
0.0
 49
0.0
 49
0.0
 49
0.0208333333333333
 49
0.0
 49
0.0
 49
0.0
 49
0.0
 49
1.0
 49
0.0
 49
0.0
 49
0.0
 49
0.0
 49
1.0
175
     0
142
0.0208333333333333
142
0.0
142
0.0
142
0.0
142
0.0
142
0.0208333333333333
142
0.0
142
0.0
142
0.0
142
0.0
142
1.0
142
0.0
142
0.0
142
0.0
142
0.0
142
1.0
179
     0
144
0.0208333333333333
144
0.0
144
0.0
144
0.0
144
0.0
144
0.0208333333333333
144
0.0
144
0.0
144
0.0
144
0.0
144
1.0
144
0.0
144
0.0
144
0.0
144
0.0
144
1.0
147
0.0208333333333333
147
0.0
147
0.0
147
0.0
147
0.0
147
0.0208333333333333
147
0.0
147
0.0
147
0.0
147
0.0
147
1.0
147
0.0
147
0.0
147
0.0
147
0.0
147
1.0
  0
MATERIAL
  5
11
102
{ACAD_XDICTIONARY
360
12
102
}
102
{ACAD_REACTORS
330
10
102
}
330
10
100
AcDbMaterial
  1
ByLayer
 72
     0
 43
0.0208333333333333
 43
0.0
 43
0.0
 43
0.0
 43
0.0
 43
0.0208333333333333
 43
0.0
 43
0.0
 43
0.0
 43
0.0
 43
1.0
 43
0.0
 43
0.0
 43
0.0
 43
0.0
 43
1.0
 77
     0
 47
0.0208333333333333
 47
0.0
 47
0.0
 47
0.0
 47
0.0
 47
0.0208333333333333
 47
0.0
 47
0.0
 47
0.0
 47
0.0
 47
1.0
 47
0.0
 47
0.0
 47
0.0
 47
0.0
 47
1.0
171
     0
 49
0.0208333333333333
 49
0.0
 49
0.0
 49
0.0
 49
0.0
 49
0.0208333333333333
 49
0.0
 49
0.0
 49
0.0
 49
0.0
 49
1.0
 49
0.0
 49
0.0
 49
0.0
 49
0.0
 49
1.0
175
     0
142
0.0208333333333333
142
0.0
142
0.0
142
0.0
142
0.0
142
0.0208333333333333
142
0.0
142
0.0
142
0.0
142
0.0
142
1.0
142
0.0
142
0.0
142
0.0
142
0.0
142
1.0
179
     0
144
0.0208333333333333
144
0.0
144
0.0
144
0.0
144
0.0
144
0.0208333333333333
144
0.0
144
0.0
144
0.0
144
0.0
144
1.0
144
0.0
144
0.0
144
0.0
144
0.0
144
1.0
147
0.0208333333333333
147
0.0
147
0.0
147
0.0
147
0.0
147
0.0208333333333333
147
0.0
147
0.0
147
0.0
147
0.0
147
1.0
147
0.0
147
0.0
147
0.0
147
0.0
147
1.0
  0
MATERIAL
  5
21
102
{ACAD_XDICTIONARY
360
22
102
}
102
{ACAD_REACTORS
330
10
102
}
330
10
100
AcDbMaterial
  1
Global
 72
     0
 43
0.0208333333333333
 43
0.0
 43
0.0
 43
0.0
 43
0.0
 43
0.0208333333333333
 43
0.0
 43
0.0
 43
0.0
 43
0.0
 43
1.0
 43
0.0
 43
0.0
 43
0.0
 43
0.0
 43
1.0
 77
     0
 47
0.0208333333333333
 47
0.0
 47
0.0
 47
0.0
 47
0.0
 47
0.0208333333333333
 47
0.0
 47
0.0
 47
0.0
 47
0.0
 47
1.0
 47
0.0
 47
0.0
 47
0.0
 47
0.0
 47
1.0
171
     0
 49
0.0208333333333333
 49
0.0
 49
0.0
 49
0.0
 49
0.0
 49
0.0208333333333333
 49
0.0
 49
0.0
 49
0.0
 49
0.0
 49
1.0
 49
0.0
 49
0.0
 49
0.0
 49
0.0
 49
1.0
175
     0
142
0.0208333333333333
142
0.0
142
0.0
142
0.0
142
0.0
142
0.0208333333333333
142
0.0
142
0.0
142
0.0
142
0.0
142
1.0
142
0.0
142
0.0
142
0.0
142
0.0
142
1.0
179
     0
144
0.0208333333333333
144
0.0
144
0.0
144
0.0
144
0.0
144
0.0208333333333333
144
0.0
144
0.0
144
0.0
144
0.0
144
1.0
144
0.0
144
0.0
144
0.0
144
0.0
144
1.0
147
0.0208333333333333
147
0.0
147
0.0
147
0.0
147
0.0
147
0.0208333333333333
147
0.0
147
0.0
147
0.0
147
0.0
147
1.0
147
0.0
147
0.0
147
0.0
147
0.0
147
1.0
  0
MLEADERSTYLE
  5
67
102
{ACAD_REACTORS
330
66
102
}
330
66
100
AcDbMLeaderStyle
179
     2
170
     2
171
     1
172
     0
 90
        2
 40
0.0
 41
0.0
173
     1
 91
-1056964608
340
5B
 92
       -2
290
     1
 42
0.09
291
     1
 43
0.36
  3
Standard
 44
0.18
300

342
55
174
     1
178
     6
175
     1
176
     0
 93
-1056964608
 45
0.18
292
     0
297
     0
 46
0.18
 94
-1056964608
 47
1.0
 49
1.0
140
1.0
293
     1
141
0.0
294
     1
177
     0
142
1.0
295
     1
296
     0
143
0.125
271
     0
272
     9
273
     9
298
     1
  0
MLINESTYLE
  5
60
102
{ACAD_REACTORS
330
5F
102
}
330
5F
100
AcDbMlineStyle
  2
STANDARD
 70
     0
  3

 62
   256
 51
90.0
 52
90.0
 71
     2
 49
0.5
 62
   256
  6
BYLAYER
 49
-0.5
 62
   256
  6
BYLAYER
  0
ACDBPLACEHOLDER
  5
F
102
{ACAD_REACTORS
330
E
102
}
330
E
  0
SCALE
  5
43
102
{ACAD_REACTORS
330
42
102
}
330
42
100
AcDbScale
 70
     0
300
1:1
140
1.0
141
1.0
290
     1
  0
SCALE
  5
44
102
{ACAD_REACTORS
330
42
102
}
330
42
100
AcDbScale
 70
     0
300
1/128" = 1'-0"
140
0.0078125
141
12.0
290
     0
  0
SCALE
  5
45
102
{ACAD_REACTORS
330
42
102
}
330
42
100
AcDbScale
 70
     0
300
1/64" = 1'-0"
140
0.015625
141
12.0
290
     0
  0
SCALE
  5
46
102
{ACAD_REACTORS
330
42
102
}
330
42
100
AcDbScale
 70
     0
300
1/32" = 1'-0"
140
0.03125
141
12.0
290
     0
  0
SCALE
  5
47
102
{ACAD_REACTORS
330
42
102
}
330
42
100
AcDbScale
 70
     0
300
1/16" = 1'-0"
140
0.0625
141
12.0
290
     0
  0
SCALE
  5
48
102
{ACAD_REACTORS
330
42
102
}
330
42
100
AcDbScale
 70
     0
300
3/32" = 1'-0"
140
0.09375
141
12.0
290
     0
  0
SCALE
  5
49
102
{ACAD_REACTORS
330
42
102
}
330
42
100
AcDbScale
 70
     0
300
1/8" = 1'-0"
140
0.125
141
12.0
290
     0
  0
SCALE
  5
4A
102
{ACAD_REACTORS
330
42
102
}
330
42
100
AcDbScale
 70
     0
300
3/16" = 1'-0"
140
0.1875
141
12.0
290
     0
  0
SCALE
  5
4B
102
{ACAD_REACTORS
330
42
102
}
330
42
100
AcDbScale
 70
     0
300
1/4" = 1'-0"
140
0.25
141
12.0
290
     0
  0
SCALE
  5
4C
102
{ACAD_REACTORS
330
42
102
}
330
42
100
AcDbScale
 70
     0
300
3/8" = 1'-0"
140
0.375
141
12.0
290
     0
  0
SCALE
  5
4D
102
{ACAD_REACTORS
330
42
102
}
330
42
100
AcDbScale
 70
     0
300
1/2" = 1'-0"
140
0.5
141
12.0
290
     0
  0
SCALE
  5
4E
102
{ACAD_REACTORS
330
42
102
}
330
42
100
AcDbScale
 70
     0
300
3/4" = 1'-0"
140
0.75
141
12.0
290
     0
  0
SCALE
  5
4F
102
{ACAD_REACTORS
330
42
102
}
330
42
100
AcDbScale
 70
     0
300
1" = 1'-0"
140
1.0
141
12.0
290
     0
  0
SCALE
  5
50
102
{ACAD_REACTORS
330
42
102
}
330
42
100
AcDbScale
 70
     0
300
1-1/2" = 1'-0"
140
1.5
141
12.0
290
     0
  0
SCALE
  5
51
102
{ACAD_REACTORS
330
42
102
}
330
42
100
AcDbScale
 70
     0
300
3" = 1'-0"
140
3.0
141
12.0
290
     0
  0
SCALE
  5
52
102
{ACAD_REACTORS
330
42
102
}
330
42
100
AcDbScale
 70
     0
300
6" = 1'-0"
140
6.0
141
12.0
290
     0
  0
SCALE
  5
53
102
{ACAD_REACTORS
330
42
102
}
330
42
100
AcDbScale
 70
     0
300
1'-0" = 1'-0"
140
12.0
141
12.0
290
     0
  0
ACDBSECTIONVIEWSTYLE
  5
69
102
{ACAD_REACTORS
330
68
102
}
330
68
100
AcDbModelDocViewStyle
 70
     0
  3
Imperial24
290
     1
300
Imperial24
 90
        0
100
AcDbSectionViewStyle
 70
     0
 71
     0
 90
       78
 71
     1
340
55
 62
   256
 40
0.24
340
0
340
0
 62
   256
 40
0.24
300
I, O, Q, S, X, Z
 40
0.48
 90
        3
 40
0.18
 90
        1
 71
     2
340
5D
 90
       25
 62
   256
340
5D
 90
       50
 62
   256
 40
0.24
 40
0.0
 40
0.24
 71
     3
340
55
 62
   256
 40
0.24
 90
        1
 40
0.75
 90
        1
300
%<\AcVar ViewType \f "%tc1">% %<\AcVar ViewSectionStartId>%-%<\AcVar ViewSectionEndId>%\PSCALE %<\AcVar ViewScale \f "%sn">%
 71
     4
 62
   256
 62
   257
300
ANSI31
 40
1.0
 90
        0
290
     0
290
     0
 90
        6
 40
0.0
 40
1.570796326794896
 40
0.2617993877991494
 40
1.308996938995747
 40
-0.2617993877991494
 40
1.832595714594046
  0
TABLESTYLE
  5
65
102
{ACAD_XDICTIONARY
360
399
102
}
102
{ACAD_REACTORS
330
64
102
}
330
64
100
AcDbTableStyle
280
     0
  3
Standard
 70
     0
 71
     0
 40
0.06
 41
0.06
280
     0
281
     0
  7
Standard
140
0.18
170
     2
 62
     0
 63
     7
283
     0
 90
      512
 91
        0
  1

274
    -2
284
     1
 64
     0
275
    -2
285
     1
 65
     0
276
    -2
286
     1
 66
     0
277
    -2
287
     1
 67
     0
278
    -2
288
     1
 68
     0
279
    -2
289
     1
 69
     0
  7
Standard
140
0.25
170
     5
 62
     0
 63
     7
283
     0
 90
      512
 91
        0
  1

274
    -2
284
     1
 64
     0
275
    -2
285
     1
 65
     0
276
    -2
286
     1
 66
     0
277
    -2
287
     1
 67
     0
278
    -2
288
     1
 68
     0
279
    -2
289
     1
 69
     0
  7
Standard
140
0.18
170
     5
 62
     0
 63
     7
283
     0
 90
      512
 91
        0
  1

274
    -2
284
     1
 64
     0
275
    -2
285
     1
 65
     0
276
    -2
286
     1
 66
     0
277
    -2
287
     1
 67
     0
278
    -2
288
     1
 68
     0
279
    -2
289
     1
 69
     0
  0
VISUALSTYLE
  5
2F
102
{ACAD_REACTORS
330
29
102
}
330
29
100
AcDbVisualStyle
  2
2dWireframe
 70
     4
177
     3
291
     0
 70
    58
 90
        0
176
     1
 90
        2
176
     1
 90
        0
176
     1
 90
        0
176
     1
 40
0.6
176
     1
 40
30.0
176
     1
 62
     7
420
 16777215
176
     1
 90
        1
176
     1
 90
        4
176
     1
 62
     7
176
     1
 62
   257
176
     1
 90
        1
176
     1
 90
        1
176
     1
 40
1.0
176
     1
 90
        0
176
     1
 62
   257
176
     1
 40
1.0
176
     1
 90
        1
176
     1
 90
        6
176
     1
 90
        2
176
     1
 62
     7
176
     1
 90
        5
176
     1
 90
        0
176
     1
 90
        0
176
     1
290
     0
176
     1
 90
        1
176
     1
 40
0.0
176
     1
 90
        0
176
     1
290
     1
176
     1
290
     1
176
     1
290
     0
176
     1
290
     0
176
     1
290
     0
176
     1
290
     0
176
     1
290
     0
176
     1
290
     0
176
     1
290
     0
176
     1
 90
       50
176
     1
 40
0.0
176
     1
 40
1.0
176
     1
 90
        0
176
     1
 62
    18
420
        0
176
     1
 90
       50
176
     1
 90
        3
176
     1
 62
     5
420
      255
176
     1
290
     0
176
     1
 90
       50
176
     1
 90
       50
176
     1
 90
       50
176
     1
290
     0
176
     1
 90
       50
176
     1
 62
   256
176
     0
 40
1.0
176
     0
 90
        2
176
     1
  1
strokes_ogs.tif
176
     1
290
     0
176
     1
 40
1.0
176
     1
 40
1.0
176
     1
  0
VISUALSTYLE
  5
2E
102
{ACAD_REACTORS
330
29
102
}
330
29
100
AcDbVisualStyle
  2
Basic
 70
     7
177
     3
291
     1
 70
    58
 90
        1
176
     1
 90
        0
176
     1
 90
        1
176
     1
 90
        0
176
     1
 40
0.6
176
     1
 40
30.0
176
     1
 62
     7
420
 16777215
176
     1
 90
        0
176
     1
 90
        4
176
     1
 62
     7
176
     1
 62
   257
176
     1
 90
        1
176
     1
 90
        1
176
     1
 40
1.0
176
     1
 90
        8
176
     1
 62
     7
176
     1
 40
1.0
176
     1
 90
        1
176
     1
 90
        6
176
     1
 90
        2
176
     1
 62
     7
176
     1
 90
        5
176
     1
 90
        0
176
     1
 90
        0
176
     1
290
     0
176
     1
 90
        1
176
     1
 40
0.0
176
     1
 90
        0
176
     1
290
     0
176
     1
290
     1
176
     1
290
     1
176
     1
290
     0
176
     1
290
     0
176
     1
290
     0
176
     1
290
     0
176
     1
290
     0
176
     1
290
     0
176
     1
 90
       50
176
     1
 40
0.0
176
     1
 40
1.0
176
     1
 90
        0
176
     1
 62
    18
420
        0
176
     1
 90
       50
176
     1
 90
        3
176
     1
 62
     5
420
      255
176
     1
290
     0
176
     1
 90
       50
176
     1
 90
       50
176
     1
 90
       50
176
     1
290
     0
176
     1
 90
       50
176
     1
 62
   256
176
     0
 40
1.0
176
     0
 90
        2
176
     1
  1
strokes_ogs.tif
176
     1
290
     0
176
     1
 40
1.0
176
     1
 40
1.0
176
     1
  0
VISUALSTYLE
  5
35
102
{ACAD_REACTORS
330
29
102
}
330
29
100
AcDbVisualStyle
  2
Brighten
 70
    12
177
     3
291
     1
 70
    58
 90
        2
176
     1
 90
        2
176
     1
 90
        0
176
     1
 90
        0
176
     1
 40
0.6
176
     1
 40
30.0
176
     1
 62
     7
420
 16777215
176
     1
 90
        1
176
     1
 90
        4
176
     1
 62
     7
176
     1
 62
   257
176
     1
 90
        1
176
     1
 90
        1
176
     1
 40
1.0
176
     1
 90
        8
176
     1
 62
     7
176
     1
 40
1.0
176
     1
 90
        1
176
     1
 90
        6
176
     1
 90
        2
176
     1
 62
     7
176
     1
 90
        5
176
     1
 90
        0
176
     1
 90
        0
176
     1
290
     0
176
     1
 90
        1
176
     1
 40
50.0
176
     1
 90
        0
176
     1
290
     0
176
     1
290
     1
176
     1
290
     1
176
     1
290
     0
176
     1
290
     0
176
     1
290
     0
176
     1
290
     0
176
     1
290
     0
176
     1
290
     0
176
     1
 90
       50
176
     1
 40
0.0
176
     1
 40
1.0
176
     1
 90
        0
176
     1
 62
    18
420
        0
176
     1
 90
       50
176
     1
 90
        3
176
     1
 62
     5
420
      255
176
     1
290
     0
176
     1
 90
       50
176
     1
 90
       50
176
     1
 90
       50
176
     1
290
     0
176
     1
 90
       50
176
     1
 62
   256
176
     0
 40
1.0
176
     0
 90
        2
176
     1
  1
strokes_ogs.tif
176
     1
290
     0
176
     1
 40
1.0
176
     1
 40
1.0
176
     1
  0
VISUALSTYLE
  5
39
102
{ACAD_REACTORS
330
29
102
}
330
29
100
AcDbVisualStyle
  2
ColorChange
 70
    16
177
     3
291
     1
 70
    58
 90
        2
176
     1
 90
        2
176
     1
 90
        3
176
     1
 90
        0
176
     1
 40
0.6
176
     1
 40
30.0
176
     1
 62
     8
420
  8421504
176
     1
 90
        1
176
     1
 90
        4
176
     1
 62
     7
176
     1
 62
   257
176
     1
 90
        1
176
     1
 90
        1
176
     1
 40
1.0
176
     1
 90
        8
176
     1
 62
     8
420
  8421504
176
     1
 40
1.0
176
     1
 90
        1
176
     1
 90
        6
176
     1
 90
        2
176
     1
 62
     7
176
     1
 90
        5
176
     1
 90
        0
176
     1
 90
        0
176
     1
290
     0
176
     1
 90
        1
176
     1
 40
0.0
176
     1
 90
        0
176
     1
290
     0
176
     1
290
     1
176
     1
290
     1
176
     1
290
     0
176
     1
290
     0
176
     1
290
     0
176
     1
290
     0
176
     1
290
     0
176
     1
290
     0
176
     1
 90
       50
176
     1
 40
0.0
176
     1
 40
1.0
176
     1
 90
        0
176
     1
 62
    18
420
        0
176
     1
 90
       50
176
     1
 90
        3
176
     1
 62
     5
420
      255
176
     1
290
     0
176
     1
 90
       50
176
     1
 90
       50
176
     1
 90
       50
176
     1
290
     0
176
     1
 90
       50
176
     1
 62
   256
176
     0
 40
1.0
176
     0
 90
        2
176
     1
  1
strokes_ogs.tif
176
     1
290
     0
176
     1
 40
1.0
176
     1
 40
1.0
176
     1
  0
VISUALSTYLE
  5
32
102
{ACAD_REACTORS
330
29
102
}
330
29
100
AcDbVisualStyle
  2
Conceptual
 70
     9
177
     3
291
     0
 70
    58
 90
        3
176
     1
 90
        2
176
     1
 90
        0
176
     1
 90
        0
176
     1
 40
0.6
176
     1
 40
30.0
176
     1
 62
     7
420
 16777215
176
     1
 90
        2
176
     1
 90
        2
176
     1
 62
     7
176
     1
 62
   257
176
     1
 90
        1
176
     1
 90
        1
176
     1
 40
179.0
176
     1
 90
        8
176
     1
 62
     7
176
     1
 40
1.0
176
     1
 90
        1
176
     1
 90
        6
176
     1
 90
        2
176
     1
 62
     7
176
     1
 90
        3
176
     1
 90
        0
176
     1
 90
        0
176
     1
290
     0
176
     1
 90
        1
176
     1
 40
0.0
176
     1
 90
        0
176
     1
290
     0
176
     1
290
     1
176
     1
290
     1
176
     1
290
     0
176
     1
290
     0
176
     1
290
     0
176
     1
290
     0
176
     1
290
     0
176
     1
290
     0
176
     1
 90
       50
176
     1
 40
0.0
176
     1
 40
1.0
176
     1
 90
        0
176
     1
 62
    18
420
        0
176
     1
 90
       50
176
     1
 90
        3
176
     1
 62
     5
420
      255
176
     1
290
     0
176
     1
 90
       50
176
     1
 90
       50
176
     1
 90
       50
176
     1
290
     0
176
     1
 90
       50
176
     1
 62
   256
176
     0
 40
1.0
176
     0
 90
        2
176
     1
  1
strokes_ogs.tif
176
     1
290
     0
176
     1
 40
1.0
176
     1
 40
1.0
176
     1
  0
VISUALSTYLE
  5
34
102
{ACAD_REACTORS
330
29
102
}
330
29
100
AcDbVisualStyle
  2
Dim
 70
    11
177
     3
291
     1
 70
    58
 90
        2
176
     1
 90
        2
176
     1
 90
        0
176
     1
 90
        0
176
     1
 40
0.6
176
     1
 40
30.0
176
     1
 62
     7
420
 16777215
176
     1
 90
        1
176
     1
 90
        4
176
     1
 62
     7
176
     1
 62
   257
176
     1
 90
        1
176
     1
 90
        1
176
     1
 40
1.0
176
     1
 90
        8
176
     1
 62
     7
176
     1
 40
1.0
176
     1
 90
        1
176
     1
 90
        6
176
     1
 90
        2
176
     1
 62
     7
176
     1
 90
        5
176
     1
 90
        0
176
     1
 90
        0
176
     1
290
     0
176
     1
 90
        1
176
     1
 40
-50.0
176
     1
 90
        0
176
     1
290
     0
176
     1
290
     1
176
     1
290
     1
176
     1
290
     0
176
     1
290
     0
176
     1
290
     0
176
     1
290
     0
176
     1
290
     0
176
     1
290
     0
176
     1
 90
       50
176
     1
 40
0.0
176
     1
 40
1.0
176
     1
 90
        0
176
     1
 62
    18
420
        0
176
     1
 90
       50
176
     1
 90
        3
176
     1
 62
     5
420
      255
176
     1
290
     0
176
     1
 90
       50
176
     1
 90
       50
176
     1
 90
       50
176
     1
290
     0
176
     1
 90
       50
176
     1
 62
   256
176
     0
 40
1.0
176
     0
 90
        2
176
     1
  1
strokes_ogs.tif
176
     1
290
     0
176
     1
 40
1.0
176
     1
 40
1.0
176
     1
  0
VISUALSTYLE
  5
41
102
{ACAD_REACTORS
330
29
102
}
330
29
100
AcDbVisualStyle
  2
EdgeColorOff
 70
    22
177
     3
291
     1
 70
    58
 90
        2
176
     0
 90
        2
176
     0
 90
        0
176
     0
 90
        0
176
     0
 40
0.6
176
     0
 40
30.0
176
     0
 62
     7
420
 16777215
176
     0
 90
        1
176
     0
 90
        4
176
     0
 62
     7
176
     0
 62
   257
176
     0
 90
        1
176
     0
 90
        1
176
     0
 40
1.0
176
     0
 90
        8
176
     2
 62
     7
176
     0
 40
1.0
176
     0
 90
        1
176
     0
 90
        6
176
     0
 90
        2
176
     0
 62
     7
176
     0
 90
        5
176
     0
 90
        0
176
     0
 90
        0
176
     0
290
     0
176
     0
 90
        1
176
     0
 40
0.0
176
     0
 90
        0
176
     0
290
     0
176
     0
290
     1
176
     0
290
     1
176
     0
290
     0
176
     0
290
     0
176
     0
290
     0
176
     0
290
     0
176
     0
290
     0
176
     0
290
     0
176
     0
 90
       50
176
     0
 40
0.0
176
     0
 40
1.0
176
     0
 90
        0
176
     0
 62
    18
420
        0
176
     0
 90
       50
176
     0
 90
        3
176
     0
 62
     5
420
      255
176
     0
290
     0
176
     0
 90
       50
176
     0
 90
       50
176
     0
 90
       50
176
     0
290
     0
176
     0
 90
       50
176
     0
 62
   256
176
     0
 40
1.0
176
     0
 90
        2
176
     0
  1
strokes_ogs.tif
176
     0
290
     0
176
     0
 40
1.0
176
     0
 40
1.0
176
     0
  0
VISUALSTYLE
  5
38
102
{ACAD_REACTORS
330
29
102
}
330
29
100
AcDbVisualStyle
  2
Facepattern
 70
    15
177
     3
291
     1
 70
    58
 90
        2
176
     1
 90
        2
176
     1
 90
        0
176
     1
 90
        0
176
     1
 40
0.6
176
     1
 40
30.0
176
     1
 62
     7
420
 16777215
176
     1
 90
        1
176
     1
 90
        4
176
     1
 62
     7
176
     1
 62
   257
176
     1
 90
        1
176
     1
 90
        1
176
     1
 40
1.0
176
     1
 90
        8
176
     1
 62
     7
176
     1
 40
1.0
176
     1
 90
        1
176
     1
 90
        6
176
     1
 90
        2
176
     1
 62
     7
176
     1
 90
        5
176
     1
 90
        0
176
     1
 90
        0
176
     1
290
     0
176
     1
 90
        1
176
     1
 40
0.0
176
     1
 90
        0
176
     1
290
     0
176
     1
290
     1
176
     1
290
     1
176
     1
290
     0
176
     1
290
     0
176
     1
290
     0
176
     1
290
     0
176
     1
290
     0
176
     1
290
     0
176
     1
 90
       50
176
     1
 40
0.0
176
     1
 40
1.0
176
     1
 90
        0
176
     1
 62
    18
420
        0
176
     1
 90
       50
176
     1
 90
        3
176
     1
 62
     5
420
      255
176
     1
290
     0
176
     1
 90
       50
176
     1
 90
       50
176
     1
 90
       50
176
     1
290
     0
176
     1
 90
       50
176
     1
 62
   256
176
     0
 40
1.0
176
     0
 90
        2
176
     1
  1
strokes_ogs.tif
176
     1
290
     0
176
     1
 40
1.0
176
     1
 40
1.0
176
     1
  0
VISUALSTYLE
  5
2A
102
{ACAD_REACTORS
330
29
102
}
330
29
100
AcDbVisualStyle
  2
Flat
 70
     0
177
     3
291
     1
 70
    58
 90
        2
176
     1
 90
        1
176
     1
 90
        1
176
     1
 90
        2
176
     1
 40
0.6
176
     1
 40
30.0
176
     1
 62
     7
420
 16777215
176
     1
 90
        0
176
     1
 90
        0
176
     1
 62
     7
176
     1
 62
   257
176
     1
 90
        1
176
     1
 90
        1
176
     1
 40
1.0
176
     1
 90
        8
176
     1
 62
     7
176
     1
 40
1.0
176
     1
 90
        1
176
     1
 90
        6
176
     1
 90
        2
176
     1
 62
     7
176
     1
 90
        5
176
     1
 90
        0
176
     1
 90
        0
176
     1
290
     0
176
     1
 90
       13
176
     1
 40
0.0
176
     1
 90
        0
176
     1
290
     0
176
     1
290
     1
176
     1
290
     1
176
     1
290
     0
176
     1
290
     0
176
     1
290
     0
176
     1
290
     0
176
     1
290
     0
176
     1
290
     0
176
     1
 90
       50
176
     1
 40
0.0
176
     1
 40
1.0
176
     1
 90
        0
176
     1
 62
    18
420
        0
176
     1
 90
       50
176
     1
 90
        3
176
     1
 62
     5
420
      255
176
     1
290
     0
176
     1
 90
       50
176
     1
 90
       50
176
     1
 90
       50
176
     1
290
     0
176
     1
 90
       50
176
     1
 62
   256
176
     0
 40
1.0
176
     0
 90
        2
176
     1
  1
strokes_ogs.tif
176
     1
290
     0
176
     1
 40
1.0
176
     1
 40
1.0
176
     1
  0
VISUALSTYLE
  5
2B
102
{ACAD_REACTORS
330
29
102
}
330
29
100
AcDbVisualStyle
  2
FlatWithEdges
 70
     1
177
     3
291
     1
 70
    58
 90
        2
176
     1
 90
        1
176
     1
 90
        1
176
     1
 90
        2
176
     1
 40
0.6
176
     1
 40
30.0
176
     1
 62
     7
420
 16777215
176
     1
 90
        1
176
     1
 90
        0
176
     1
 62
     7
176
     1
 62
   257
176
     1
 90
        1
176
     1
 90
        1
176
     1
 40
1.0
176
     1
 90
        0
176
     1
 62
   257
176
     1
 40
1.0
176
     1
 90
        1
176
     1
 90
        6
176
     1
 90
        2
176
     1
 62
     7
176
     1
 90
        5
176
     1
 90
        0
176
     1
 90
        0
176
     1
290
     0
176
     1
 90
       13
176
     1
 40
0.0
176
     1
 90
        0
176
     1
290
     0
176
     1
290
     1
176
     1
290
     1
176
     1
290
     0
176
     1
290
     0
176
     1
290
     0
176
     1
290
     0
176
     1
290
     0
176
     1
290
     0
176
     1
 90
       50
176
     1
 40
0.0
176
     1
 40
1.0
176
     1
 90
        0
176
     1
 62
    18
420
        0
176
     1
 90
       50
176
     1
 90
        3
176
     1
 62
     5
420
      255
176
     1
290
     0
176
     1
 90
       50
176
     1
 90
       50
176
     1
 90
       50
176
     1
290
     0
176
     1
 90
       50
176
     1
 62
   256
176
     0
 40
1.0
176
     0
 90
        2
176
     1
  1
strokes_ogs.tif
176
     1
290
     0
176
     1
 40
1.0
176
     1
 40
1.0
176
     1
  0
VISUALSTYLE
  5
2C
102
{ACAD_REACTORS
330
29
102
}
330
29
100
AcDbVisualStyle
  2
Gouraud
 70
     2
177
     3
291
     1
 70
    58
 90
        2
176
     1
 90
        2
176
     1
 90
        1
176
     1
 90
        2
176
     1
 40
0.6
176
     1
 40
30.0
176
     1
 62
     7
420
 16777215
176
     1
 90
        0
176
     1
 90
        0
176
     1
 62
     7
176
     1
 62
   257
176
     1
 90
        1
176
     1
 90
        1
176
     1
 40
1.0
176
     1
 90
        0
176
     1
 62
     7
176
     1
 40
1.0
176
     1
 90
        1
176
     1
 90
        6
176
     1
 90
        2
176
     1
 62
     7
176
     1
 90
        5
176
     1
 90
        0
176
     1
 90
        0
176
     1
290
     0
176
     1
 90
       13
176
     1
 40
0.0
176
     1
 90
        0
176
     1
290
     0
176
     1
290
     1
176
     1
290
     1
176
     1
290
     0
176
     1
290
     0
176
     1
290
     0
176
     1
290
     0
176
     1
290
     0
176
     1
290
     0
176
     1
 90
       50
176
     1
 40
0.0
176
     1
 40
1.0
176
     1
 90
        0
176
     1
 62
    18
420
        0
176
     1
 90
       50
176
     1
 90
        3
176
     1
 62
     5
420
      255
176
     1
290
     0
176
     1
 90
       50
176
     1
 90
       50
176
     1
 90
       50
176
     1
290
     0
176
     1
 90
       50
176
     1
 62
   256
176
     0
 40
1.0
176
     0
 90
        2
176
     1
  1
strokes_ogs.tif
176
     1
290
     0
176
     1
 40
1.0
176
     1
 40
1.0
176
     1
  0
VISUALSTYLE
  5
2D
102
{ACAD_REACTORS
330
29
102
}
330
29
100
AcDbVisualStyle
  2
GouraudWithEdges
 70
     3
177
     3
291
     1
 70
    58
 90
        2
176
     1
 90
        2
176
     1
 90
        1
176
     1
 90
        2
176
     1
 40
0.6
176
     1
 40
30.0
176
     1
 62
     7
420
 16777215
176
     1
 90
        1
176
     1
 90
        0
176
     1
 62
     7
176
     1
 62
   257
176
     1
 90
        1
176
     1
 90
        1
176
     1
 40
1.0
176
     1
 90
        0
176
     1
 62
   257
176
     1
 40
1.0
176
     1
 90
        1
176
     1
 90
        6
176
     1
 90
        2
176
     1
 62
     7
176
     1
 90
        5
176
     1
 90
        0
176
     1
 90
        0
176
     1
290
     0
176
     1
 90
       13
176
     1
 40
0.0
176
     1
 90
        0
176
     1
290
     0
176
     1
290
     1
176
     1
290
     1
176
     1
290
     0
176
     1
290
     0
176
     1
290
     0
176
     1
290
     0
176
     1
290
     0
176
     1
290
     0
176
     1
 90
       50
176
     1
 40
0.0
176
     1
 40
1.0
176
     1
 90
        0
176
     1
 62
    18
420
        0
176
     1
 90
       50
176
     1
 90
        3
176
     1
 62
     5
420
      255
176
     1
290
     0
176
     1
 90
       50
176
     1
 90
       50
176
     1
 90
       50
176
     1
290
     0
176
     1
 90
       50
176
     1
 62
   256
176
     0
 40
1.0
176
     0
 90
        2
176
     1
  1
strokes_ogs.tif
176
     1
290
     0
176
     1
 40
1.0
176
     1
 40
1.0
176
     1
  0
VISUALSTYLE
  5
31
102
{ACAD_REACTORS
330
29
102
}
330
29
100
AcDbVisualStyle
  2
Hidden
 70
     6
177
     3
291
     0
 70
    58
 90
        1
176
     1
 90
        2
176
     1
 90
        2
176
     1
 90
        0
176
     1
 40
0.6
176
     1
 40
30.0
176
     1
 62
     7
420
 16777215
176
     1
 90
        2
176
     1
 90
        2
176
     1
 62
     7
176
     1
 62
   257
176
     1
 90
        2
176
     1
 90
        1
176
     1
 40
40.0
176
     1
 90
        0
176
     1
 62
   257
176
     1
 40
1.0
176
     1
 90
        1
176
     1
 90
        6
176
     1
 90
        2
176
     1
 62
     7
176
     1
 90
        3
176
     1
 90
        0
176
     1
 90
        0
176
     1
290
     0
176
     1
 90
        1
176
     1
 40
0.0
176
     1
 90
        0
176
     1
290
     0
176
     1
290
     1
176
     1
290
     1
176
     1
290
     0
176
     1
290
     0
176
     1
290
     0
176
     1
290
     0
176
     1
290
     0
176
     1
290
     0
176
     1
 90
       50
176
     1
 40
0.0
176
     1
 40
1.0
176
     1
 90
        0
176
     1
 62
    18
420
        0
176
     1
 90
       50
176
     1
 90
        3
176
     1
 62
     5
420
      255
176
     1
290
     0
176
     1
 90
       50
176
     1
 90
       50
176
     1
 90
       50
176
     1
290
     0
176
     1
 90
       50
176
     1
 62
   256
176
     0
 40
1.0
176
     0
 90
        2
176
     1
  1
strokes_ogs.tif
176
     1
290
     0
176
     1
 40
1.0
176
     1
 40
1.0
176
     1
  0
VISUALSTYLE
  5
3F
102
{ACAD_REACTORS
330
29
102
}
330
29
100
AcDbVisualStyle
  2
JitterOff
 70
    20
177
     3
291
     1
 70
    58
 90
        2
176
     0
 90
        2
176
     0
 90
        0
176
     0
 90
        0
176
     0
 40
0.6
176
     0
 40
30.0
176
     0
 62
     7
420
 16777215
176
     0
 90
        1
176
     0
 90
        4
176
     0
 62
     7
176
     0
 62
   257
176
     0
 90
        1
176
     0
 90
        1
176
     0
 40
1.0
176
     0
 90
       10
176
     2
 62
     7
176
     0
 40
1.0
176
     0
 90
        1
176
     0
 90
        6
176
     0
 90
        2
176
     0
 62
     7
176
     0
 90
        5
176
     0
 90
        0
176
     0
 90
        0
176
     0
290
     0
176
     0
 90
        1
176
     0
 40
0.0
176
     0
 90
        0
176
     0
290
     0
176
     0
290
     1
176
     0
290
     1
176
     0
290
     0
176
     0
290
     0
176
     0
290
     0
176
     0
290
     0
176
     0
290
     0
176
     0
290
     0
176
     0
 90
       50
176
     0
 40
0.0
176
     0
 40
1.0
176
     0
 90
        0
176
     0
 62
    18
420
        0
176
     0
 90
       50
176
     0
 90
        3
176
     0
 62
     5
420
      255
176
     0
290
     0
176
     0
 90
       50
176
     0
 90
       50
176
     0
 90
       50
176
     0
290
     0
176
     0
 90
       50
176
     0
 62
   256
176
     0
 40
1.0
176
     0
 90
        2
176
     0
  1
strokes_ogs.tif
176
     0
290
     0
176
     0
 40
1.0
176
     0
 40
1.0
176
     0
  0
VISUALSTYLE
  5
37
102
{ACAD_REACTORS
330
29
102
}
330
29
100
AcDbVisualStyle
  2
Linepattern
 70
    14
177
     3
291
     1
 70
    58
 90
        2
176
     1
 90
        2
176
     1
 90
        0
176
     1
 90
        0
176
     1
 40
0.6
176
     1
 40
30.0
176
     1
 62
     7
420
 16777215
176
     1
 90
        1
176
     1
 90
        4
176
     1
 62
     7
176
     1
 62
   257
176
     1
 90
        7
176
     1
 90
        7
176
     1
 40
1.0
176
     1
 90
        8
176
     1
 62
     7
176
     1
 40
1.0
176
     1
 90
        1
176
     1
 90
        6
176
     1
 90
        2
176
     1
 62
     7
176
     1
 90
        5
176
     1
 90
        0
176
     1
 90
        0
176
     1
290
     0
176
     1
 90
        1
176
     1
 40
0.0
176
     1
 90
        0
176
     1
290
     0
176
     1
290
     1
176
     1
290
     1
176
     1
290
     0
176
     1
290
     0
176
     1
290
     0
176
     1
290
     0
176
     1
290
     0
176
     1
290
     0
176
     1
 90
       50
176
     1
 40
0.0
176
     1
 40
1.0
176
     1
 90
        0
176
     1
 62
    18
420
        0
176
     1
 90
       50
176
     1
 90
        3
176
     1
 62
     5
420
      255
176
     1
290
     0
176
     1
 90
       50
176
     1
 90
       50
176
     1
 90
       50
176
     1
290
     0
176
     1
 90
       50
176
     1
 62
   256
176
     0
 40
1.0
176
     0
 90
        2
176
     1
  1
strokes_ogs.tif
176
     1
290
     0
176
     1
 40
1.0
176
     1
 40
1.0
176
     1
  0
VISUALSTYLE
  5
40
102
{ACAD_REACTORS
330
29
102
}
330
29
100
AcDbVisualStyle
  2
OverhangOff
 70
    21
177
     3
291
     1
 70
    58
 90
        2
176
     0
 90
        2
176
     0
 90
        0
176
     0
 90
        0
176
     0
 40
0.6
176
     0
 40
30.0
176
     0
 62
     7
420
 16777215
176
     0
 90
        1
176
     0
 90
        4
176
     0
 62
     7
176
     0
 62
   257
176
     0
 90
        1
176
     0
 90
        1
176
     0
 40
1.0
176
     0
 90
        9
176
     2
 62
     7
176
     0
 40
1.0
176
     0
 90
        1
176
     0
 90
        6
176
     0
 90
        2
176
     0
 62
     7
176
     0
 90
        5
176
     0
 90
        0
176
     0
 90
        0
176
     0
290
     0
176
     0
 90
        1
176
     0
 40
0.0
176
     0
 90
        0
176
     0
290
     0
176
     0
290
     1
176
     0
290
     1
176
     0
290
     0
176
     0
290
     0
176
     0
290
     0
176
     0
290
     0
176
     0
290
     0
176
     0
290
     0
176
     0
 90
       50
176
     0
 40
0.0
176
     0
 40
1.0
176
     0
 90
        0
176
     0
 62
    18
420
        0
176
     0
 90
       50
176
     0
 90
        3
176
     0
 62
     5
420
      255
176
     0
290
     0
176
     0
 90
       50
176
     0
 90
       50
176
     0
 90
       50
176
     0
290
     0
176
     0
 90
       50
176
     0
 62
   256
176
     0
 40
1.0
176
     0
 90
        2
176
     0
  1
strokes_ogs.tif
176
     0
290
     0
176
     0
 40
1.0
176
     0
 40
1.0
176
     0
  0
VISUALSTYLE
  5
33
102
{ACAD_REACTORS
330
29
102
}
330
29
100
AcDbVisualStyle
  2
Realistic
 70
     8
177
     3
291
     0
 70
    58
 90
        2
176
     1
 90
        3
176
     1
 90
        0
176
     1
 90
        2
176
     1
 40
0.6
176
     1
 40
30.0
176
     1
 62
     7
420
 16777215
176
     1
 90
        0
176
     1
 90
        0
176
     1
 62
     7
176
     1
 62
   257
176
     1
 90
        1
176
     1
 90
        1
176
     1
 40
1.0
176
     1
 90
        8
176
     1
 62
   257
176
     1
 40
1.0
176
     1
 90
        1
176
     1
 90
        6
176
     1
 90
        2
176
     1
 62
     7
176
     1
 90
        3
176
     1
 90
        0
176
     1
 90
        0
176
     1
290
     0
176
     1
 90
       13
176
     1
 40
0.0
176
     1
 90
        0
176
     1
290
     0
176
     1
290
     1
176
     1
290
     1
176
     1
290
     0
176
     1
290
     0
176
     1
290
     0
176
     1
290
     0
176
     1
290
     0
176
     1
290
     0
176
     1
 90
       50
176
     1
 40
0.0
176
     1
 40
1.0
176
     1
 90
        0
176
     1
 62
    18
420
        0
176
     1
 90
       50
176
     1
 90
        3
176
     1
 62
     5
420
      255
176
     1
290
     0
176
     1
 90
       50
176
     1
 90
       50
176
     1
 90
       50
176
     1
290
     0
176
     1
 90
       50
176
     1
 62
   256
176
     0
 40
1.0
176
     0
 90
        2
176
     1
  1
strokes_ogs.tif
176
     1
290
     0
176
     1
 40
1.0
176
     1
 40
1.0
176
     1
  0
VISUALSTYLE
  5
3E
102
{ACAD_REACTORS
330
29
102
}
330
29
100
AcDbVisualStyle
  2
Shaded
 70
    27
177
     3
291
     0
 70
    58
 90
        2
176
     1
 90
        2
176
     1
 90
        1
176
     1
 90
        2
176
     1
 40
0.6
176
     1
 40
30.0
176
     1
 62
     7
420
 16777215
176
     1
 90
        0
176
     1
 90
        4
176
     1
 62
     7
176
     1
 62
   257
176
     1
 90
        1
176
     1
 90
        1
176
     1
 40
1.0
176
     1
 90
        8
176
     1
 62
   257
176
     1
 40
1.0
176
     1
 90
        1
176
     1
 90
        6
176
     1
 90
        2
176
     1
 62
     8
420
  7895160
176
     1
 90
        3
176
     1
 90
        0
176
     1
 90
        0
176
     1
290
     0
176
     1
 90
        5
176
     1
 40
0.0
176
     1
 90
        0
176
     1
290
     0
176
     1
290
     1
176
     1
290
     1
176
     1
290
     0
176
     1
290
     0
176
     1
290
     0
176
     1
290
     0
176
     1
290
     0
176
     1
290
     0
176
     1
 90
       50
176
     1
 40
0.0
176
     1
 40
1.0
176
     1
 90
        0
176
     1
 62
    18
420
        0
176
     1
 90
       50
176
     1
 90
        3
176
     1
 62
     5
420
      255
176
     1
290
     0
176
     1
 90
       50
176
     1
 90
       50
176
     1
 90
       50
176
     1
290
     0
176
     1
 90
       50
176
     1
 62
   256
176
     0
 40
1.0
176
     0
 90
        2
176
     1
  1
strokes_ogs.tif
176
     1
290
     0
176
     1
 40
1.0
176
     1
 40
1.0
176
     1
  0
VISUALSTYLE
  5
3D
102
{ACAD_REACTORS
330
29
102
}
330
29
100
AcDbVisualStyle
  2
Shaded with edges
 70
    26
177
     3
291
     0
 70
    58
 90
        2
176
     1
 90
        2
176
     1
 90
        1
176
     1
 90
        2
176
     1
 40
0.6
176
     1
 40
30.0
176
     1
 62
     7
420
 16777215
176
     1
 90
        1
176
     1
 90
        2
176
     1
 62
     7
176
     1
 62
   257
176
     1
 90
        2
176
     1
 90
        1
176
     1
 40
1.0
176
     1
 90
        8
176
     1
 62
   257
176
     1
 40
1.0
176
     1
 90
        1
176
     1
 90
        6
176
     1
 90
        2
176
     1
 62
     7
176
     1
 90
        3
176
     1
 90
        0
176
     1
 90
        0
176
     1
290
     0
176
     1
 90
        5
176
     1
 40
0.0
176
     1
 90
        0
176
     1
290
     0
176
     1
290
     1
176
     1
290
     1
176
     1
290
     0
176
     1
290
     0
176
     1
290
     0
176
     1
290
     0
176
     1
290
     0
176
     1
290
     0
176
     1
 90
       50
176
     1
 40
0.0
176
     1
 40
1.0
176
     1
 90
        0
176
     1
 62
    18
420
        0
176
     1
 90
       50
176
     1
 90
        3
176
     1
 62
     5
420
      255
176
     1
290
     0
176
     1
 90
       50
176
     1
 90
       50
176
     1
 90
       50
176
     1
290
     0
176
     1
 90
       50
176
     1
 62
   256
176
     0
 40
1.0
176
     0
 90
        2
176
     1
  1
strokes_ogs.tif
176
     1
290
     0
176
     1
 40
1.0
176
     1
 40
1.0
176
     1
  0
VISUALSTYLE
  5
3A
102
{ACAD_REACTORS
330
29
102
}
330
29
100
AcDbVisualStyle
  2
Shades of Gray
 70
    23
177
     3
291
     0
 70
    58
 90
        2
176
     1
 90
        2
176
     1
 90
        3
176
     1
 90
        0
176
     1
 40
0.6
176
     1
 40
30.0
176
     1
 62
     7
420
 16777215
176
     1
 90
        2
176
     1
 90
        2
176
     1
 62
     7
176
     1
 62
     7
176
     1
 90
        1
176
     1
 90
        1
176
     1
 40
40.0
176
     1
 90
        8
176
     1
 62
     7
176
     1
 40
1.0
176
     1
 90
        1
176
     1
 90
        6
176
     1
 90
        2
176
     1
 62
     7
176
     1
 90
        3
176
     1
 90
        0
176
     1
 90
        0
176
     1
290
     0
176
     1
 90
        1
176
     1
 40
0.0
176
     1
 90
        0
176
     1
290
     0
176
     1
290
     1
176
     1
290
     1
176
     1
290
     0
176
     1
290
     0
176
     1
290
     0
176
     1
290
     0
176
     1
290
     0
176
     1
290
     0
176
     1
 90
       50
176
     1
 40
0.0
176
     1
 40
1.0
176
     1
 90
        0
176
     1
 62
    18
420
        0
176
     1
 90
       50
176
     1
 90
        3
176
     1
 62
     5
420
      255
176
     1
290
     0
176
     1
 90
       50
176
     1
 90
       50
176
     1
 90
       50
176
     1
290
     0
176
     1
 90
       50
176
     1
 62
   256
176
     0
 40
1.0
176
     0
 90
        2
176
     1
  1
strokes_ogs.tif
176
     1
290
     0
176
     1
 40
1.0
176
     1
 40
1.0
176
     1
  0
VISUALSTYLE
  5
3B
102
{ACAD_REACTORS
330
29
102
}
330
29
100
AcDbVisualStyle
  2
Sketchy
 70
    24
177
     3
291
     0
 70
    58
 90
        1
176
     1
 90
        2
176
     1
 90
        2
176
     1
 90
        0
176
     1
 40
0.6
176
     1
 40
30.0
176
     1
 62
     7
420
 16777215
176
     1
 90
        2
176
     1
 90
        2
176
     1
 62
     7
176
     1
 62
     7
176
     1
 90
        1
176
     1
 90
        1
176
     1
 40
40.0
176
     1
 90
       11
176
     1
 62
     7
176
     1
 40
1.0
176
     1
 90
        1
176
     1
 90
        6
176
     1
 90
        2
176
     1
 62
     7
176
     1
 90
        6
176
     1
 90
        0
176
     1
 90
        0
176
     1
290
     0
176
     1
 90
        1
176
     1
 40
0.0
176
     1
 90
        0
176
     1
290
     0
176
     1
290
     1
176
     1
290
     1
176
     1
290
     0
176
     1
290
     0
176
     1
290
     0
176
     1
290
     0
176
     1
290
     0
176
     1
290
     0
176
     1
 90
       50
176
     1
 40
0.0
176
     1
 40
1.0
176
     1
 90
        0
176
     1
 62
    18
420
        0
176
     1
 90
       50
176
     1
 90
        3
176
     1
 62
     5
420
      255
176
     1
290
     0
176
     1
 90
       50
176
     1
 90
       50
176
     1
 90
       50
176
     1
290
     0
176
     1
 90
       50
176
     1
 62
   256
176
     0
 40
1.0
176
     0
 90
        2
176
     1
  1
strokes_ogs.tif
176
     1
290
     0
176
     1
 40
1.0
176
     1
 40
1.0
176
     1
  0
VISUALSTYLE
  5
36
102
{ACAD_REACTORS
330
29
102
}
330
29
100
AcDbVisualStyle
  2
Thicken
 70
    13
177
     3
291
     1
 70
    58
 90
        2
176
     1
 90
        2
176
     1
 90
        0
176
     1
 90
        0
176
     1
 40
0.6
176
     1
 40
30.0
176
     1
 62
     7
420
 16777215
176
     1
 90
        1
176
     1
 90
        4
176
     1
 62
     7
176
     1
 62
   257
176
     1
 90
        1
176
     1
 90
        1
176
     1
 40
1.0
176
     1
 90
       12
176
     1
 62
     7
176
     1
 40
1.0
176
     1
 90
        1
176
     1
 90
        6
176
     1
 90
        2
176
     1
 62
     7
176
     1
 90
        5
176
     1
 90
        0
176
     1
 90
        0
176
     1
290
     0
176
     1
 90
        1
176
     1
 40
0.0
176
     1
 90
        0
176
     1
290
     0
176
     1
290
     1
176
     1
290
     1
176
     1
290
     0
176
     1
290
     0
176
     1
290
     0
176
     1
290
     0
176
     1
290
     0
176
     1
290
     0
176
     1
 90
       50
176
     1
 40
0.0
176
     1
 40
1.0
176
     1
 90
        0
176
     1
 62
    18
420
        0
176
     1
 90
       50
176
     1
 90
        3
176
     1
 62
     5
420
      255
176
     1
290
     0
176
     1
 90
       50
176
     1
 90
       50
176
     1
 90
       50
176
     1
290
     0
176
     1
 90
       50
176
     1
 62
   256
176
     0
 40
1.0
176
     0
 90
        2
176
     1
  1
strokes_ogs.tif
176
     1
290
     0
176
     1
 40
1.0
176
     1
 40
1.0
176
     1
  0
VISUALSTYLE
  5
30
102
{ACAD_REACTORS
330
29
102
}
330
29
100
AcDbVisualStyle
  2
Wireframe
 70
     5
177
     3
291
     0
 70
    58
 90
        0
176
     1
 90
        2
176
     1
 90
        0
176
     1
 90
        0
176
     1
 40
0.6
176
     1
 40
30.0
176
     1
 62
     7
420
 16777215
176
     1
 90
        1
176
     1
 90
        4
176
     1
 62
     7
176
     1
 62
   257
176
     1
 90
        1
176
     1
 90
        1
176
     1
 40
1.0
176
     1
 90
        0
176
     1
 62
   257
176
     1
 40
1.0
176
     1
 90
        1
176
     1
 90
        6
176
     1
 90
        2
176
     1
 62
     7
176
     1
 90
        3
176
     1
 90
        0
176
     1
 90
        0
176
     1
290
     0
176
     1
 90
        1
176
     1
 40
0.0
176
     1
 90
        0
176
     1
290
     0
176
     1
290
     1
176
     1
290
     1
176
     1
290
     0
176
     1
290
     0
176
     1
290
     0
176
     1
290
     0
176
     1
290
     0
176
     1
290
     0
176
     1
 90
       50
176
     1
 40
0.0
176
     1
 40
1.0
176
     1
 90
        0
176
     1
 62
    18
420
        0
176
     1
 90
       50
176
     1
 90
        3
176
     1
 62
     5
420
      255
176
     1
290
     0
176
     1
 90
       50
176
     1
 90
       50
176
     1
 90
       50
176
     1
290
     0
176
     1
 90
       50
176
     1
 62
   256
176
     0
 40
1.0
176
     0
 90
        2
176
     1
  1
strokes_ogs.tif
176
     1
290
     0
176
     1
 40
1.0
176
     1
 40
1.0
176
     1
  0
VISUALSTYLE
  5
3C
102
{ACAD_REACTORS
330
29
102
}
330
29
100
AcDbVisualStyle
  2
X-Ray
 70
    25
177
     3
291
     0
 70
    58
 90
        2
176
     1
 90
        2
176
     1
 90
        1
176
     1
 90
        1
176
     1
 40
0.5
176
     1
 40
30.0
176
     1
 62
     7
420
 16777215
176
     1
 90
        1
176
     1
 90
        0
176
     1
 62
     7
176
     1
 62
   257
176
     1
 90
        1
176
     1
 90
        1
176
     1
 40
1.0
176
     1
 90
        8
176
     1
 62
     7
176
     1
 40
1.0
176
     1
 90
        1
176
     1
 90
        6
176
     1
 90
        2
176
     1
 62
     7
176
     1
 90
        3
176
     1
 90
        0
176
     1
 90
        0
176
     1
290
     0
176
     1
 90
       13
176
     1
 40
0.0
176
     1
 90
        0
176
     1
290
     0
176
     1
290
     1
176
     1
290
     1
176
     1
290
     0
176
     1
290
     0
176
     1
290
     0
176
     1
290
     0
176
     1
290
     0
176
     1
290
     0
176
     1
 90
       50
176
     1
 40
0.0
176
     1
 40
1.0
176
     1
 90
        0
176
     1
 62
    18
420
        0
176
     1
 90
       50
176
     1
 90
        3
176
     1
 62
     5
420
      255
176
     1
290
     0
176
     1
 90
       50
176
     1
 90
       50
176
     1
 90
       50
176
     1
290
     0
176
     1
 90
       50
176
     1
 62
   256
176
     0
 40
1.0
176
     0
 90
        2
176
     1
  1
strokes_ogs.tif
176
     1
290
     0
176
     1
 40
1.0
176
     1
 40
1.0
176
     1
  0
DICTIONARYVAR
  5
398
102
{ACAD_REACTORS
330
393
102
}
330
393
100
DictionaryVariables
280
     0
  1
1:1
  0
DICTIONARYVAR
  5
395
102
{ACAD_REACTORS
330
393
102
}
330
393
100
DictionaryVariables
280
     0
  1
STANDARD
  0
DICTIONARYVAR
  5
394
102
{ACAD_REACTORS
330
393
102
}
330
393
100
DictionaryVariables
280
     0
  1
STANDARD
  0
DICTIONARYVAR
  5
396
102
{ACAD_REACTORS
330
393
102
}
330
393
100
DictionaryVariables
280
     0
  1
Imperial24
  0
DICTIONARYVAR
  5
397
102
{ACAD_REACTORS
330
393
102
}
330
393
100
DictionaryVariables
280
     0
  1
Imperial24
  0
DICTIONARY
  5
1A
330
19
100
AcDbDictionary
280
     1
281
     1
  3
BUMPTILE
360
1C
  3
DIFFUSETILE
360
1B
  3
OPACITYTILE
360
1F
  3
REFLECTIONTILE
360
1E
  3
REFRACTIONTILE
360
20
  3
SPECULARTILE
360
1D
  0
DICTIONARY
  5
12
330
11
100
AcDbDictionary
280
     1
281
     1
  3
BUMPTILE
360
14
  3
DIFFUSETILE
360
13
  3
OPACITYTILE
360
17
  3
REFLECTIONTILE
360
16
  3
REFRACTIONTILE
360
18
  3
SPECULARTILE
360
15
  0
DICTIONARY
  5
22
330
21
100
AcDbDictionary
280
     1
281
     1
  3
BUMPTILE
360
24
  3
DIFFUSETILE
360
23
  3
OPACITYTILE
360
27
  3
REFLECTIONTILE
360
26
  3
REFRACTIONTILE
360
28
  3
SPECULARTILE
360
25
  0
DICTIONARY
  5
399
330
65
100
AcDbDictionary
280
     1
281
     1
  3
ACAD_ROUNDTRIP_2008_TABLESTYLE_CELLSTYLEMAP
360
39A
  0
XRECORD
  5
1C
102
{ACAD_REACTORS
330
1A
102
}
330
1A
100
AcDbXrecord
280
     1
270
     1
271
     1
  0
XRECORD
  5
1B
102
{ACAD_REACTORS
330
1A
102
}
330
1A
100
AcDbXrecord
280
     1
270
     1
271
     1
  0
XRECORD
  5
1F
102
{ACAD_REACTORS
330
1A
102
}
330
1A
100
AcDbXrecord
280
     1
270
     1
271
     1
  0
XRECORD
  5
1E
102
{ACAD_REACTORS
330
1A
102
}
330
1A
100
AcDbXrecord
280
     1
270
     1
271
     1
  0
XRECORD
  5
20
102
{ACAD_REACTORS
330
1A
102
}
330
1A
100
AcDbXrecord
280
     1
270
     1
271
     1
  0
XRECORD
  5
1D
102
{ACAD_REACTORS
330
1A
102
}
330
1A
100
AcDbXrecord
280
     1
270
     1
271
     1
  0
XRECORD
  5
14
102
{ACAD_REACTORS
330
12
102
}
330
12
100
AcDbXrecord
280
     1
270
     1
271
     1
  0
XRECORD
  5
13
102
{ACAD_REACTORS
330
12
102
}
330
12
100
AcDbXrecord
280
     1
270
     1
271
     1
  0
XRECORD
  5
17
102
{ACAD_REACTORS
330
12
102
}
330
12
100
AcDbXrecord
280
     1
270
     1
271
     1
  0
XRECORD
  5
16
102
{ACAD_REACTORS
330
12
102
}
330
12
100
AcDbXrecord
280
     1
270
     1
271
     1
  0
XRECORD
  5
18
102
{ACAD_REACTORS
330
12
102
}
330
12
100
AcDbXrecord
280
     1
270
     1
271
     1
  0
XRECORD
  5
15
102
{ACAD_REACTORS
330
12
102
}
330
12
100
AcDbXrecord
280
     1
270
     1
271
     1
  0
XRECORD
  5
24
102
{ACAD_REACTORS
330
22
102
}
330
22
100
AcDbXrecord
280
     1
270
     1
271
     1
  0
XRECORD
  5
23
102
{ACAD_REACTORS
330
22
102
}
330
22
100
AcDbXrecord
280
     1
270
     1
271
     1
  0
XRECORD
  5
27
102
{ACAD_REACTORS
330
22
102
}
330
22
100
AcDbXrecord
280
     1
270
     1
271
     1
  0
XRECORD
  5
26
102
{ACAD_REACTORS
330
22
102
}
330
22
100
AcDbXrecord
280
     1
270
     1
271
     1
  0
XRECORD
  5
28
102
{ACAD_REACTORS
330
22
102
}
330
22
100
AcDbXrecord
280
     1
270
     1
271
     1
  0
XRECORD
  5
25
102
{ACAD_REACTORS
330
22
102
}
330
22
100
AcDbXrecord
280
     1
270
     1
271
     1
  0
CELLSTYLEMAP
  5
39A
102
{ACAD_REACTORS
330
399
102
}
330
399
100
AcDbCellStyleMap
 90
        3
300
CELLSTYLE
  1
TABLEFORMAT_BEGIN
 90
        5
170
     1
 91
        0
 92
    32768
 62
   257
 93
        1
300
CONTENTFORMAT
  1
CONTENTFORMAT_BEGIN
 90
        0
 91
        0
 92
      512
 93
        0
300

 40
0.0
140
1.0
 94
        5
 62
     0
340
55
144
0.25
309
CONTENTFORMAT_END
171
     0
 94
        0
309
TABLEFORMAT_END
  1
CELLSTYLE_BEGIN
 90
        1
 91
        1
300
_TITLE
309
CELLSTYLE_END
300
CELLSTYLE
  1
TABLEFORMAT_BEGIN
 90
        5
170
     1
 91
        0
 92
        0
 62
   257
 93
        1
300
CONTENTFORMAT
  1
CONTENTFORMAT_BEGIN
 90
        0
 91
        0
 92
      512
 93
        0
300

 40
0.0
140
1.0
 94
        5
 62
     0
340
55
144
0.18
309
CONTENTFORMAT_END
171
     0
 94
        0
309
TABLEFORMAT_END
  1
CELLSTYLE_BEGIN
 90
        2
 91
        1
300
_HEADER
309
CELLSTYLE_END
300
CELLSTYLE
  1
TABLEFORMAT_BEGIN
 90
        5
170
     1
 91
        0
 92
        0
 62
   257
 93
        1
300
CONTENTFORMAT
  1
CONTENTFORMAT_BEGIN
 90
        0
 91
        0
 92
      512
 93
        0
300

 40
0.0
140
1.0
 94
        2
 62
     0
340
55
144
0.18
309
CONTENTFORMAT_END
171
     0
 94
        0
309
TABLEFORMAT_END
  1
CELLSTYLE_BEGIN
 90
        3
 91
        2
300
_DATA
309
CELLSTYLE_END
  0
ENDSEC
  0
EOF
