  0
SECTION
  2
HEADER
  9
$ACADVER
  1
AC1032
  9
$ACADMAINTVER
 90
      251
  9
$DWGCODEPAGE
  3
ANSI_1252
  9
$REQUIREDVERSIONS
160
                 0
  9
$INSBASE
 10
0.0
 20
0.0
 30
0.0
  9
$EXTMIN
 10
1.000000000000000E+20
 20
1.000000000000000E+20
 30
1.000000000000000E+20
  9
$EXTMAX
 10
-1.000000000000000E+20
 20
-1.000000000000000E+20
 30
-1.000000000000000E+20
  9
$LIMMIN
 10
0.0
 20
0.0
  9
$LIMMAX
 10
12.0
 20
9.0
  9
$ORTHOMODE
 70
     0
  9
$REGENMODE
 70
     1
  9
$FILLMODE
 70
     1
  9
$QTEXTMODE
 70
     0
  9
$MIRRTEXT
 70
     0
  9
$LTSCALE
 40
1.0
  9
$ATTMODE
 70
     1
  9
$TEXTSIZE
 40
0.2
  9
$TRACEWID
 40
0.05
  9
$TEXTSTYLE
  7
Standard
  9
$CLAYER
  8
0
  9
$CELTYPE
  6
ByLayer
  9
$CECOLOR
 62
   256
  9
$CELTSCALE
 40
1.0
  9
$DISPSILH
 70
     0
  9
$DIMSCALE
 40
1.0
  9
$DIMASZ
 40
0.18
  9
$DIMEXO
 40
0.0625
  9
$DIMDLI
 40
0.38
  9
$DIMRND
 40
0.0
  9
$DIMDLE
 40
0.0
  9
$DIMEXE
 40
0.18
  9
$DIMTP
 40
0.0
  9
$DIMTM
 40
0.0
  9
$DIMTXT
 40
0.18
  9
$DIMCEN
 40
0.09
  9
$DIMTSZ
 40
0.0
  9
$DIMTOL
 70
     0
  9
$DIMLIM
 70
     0
  9
$DIMTIH
 70
     1
  9
$DIMTOH
 70
     1
  9
$DIMSE1
 70
     0
  9
$DIMSE2
 70
     0
  9
$DIMTAD
 70
     0
  9
$DIMZIN
 70
     0
  9
$DIMBLK
  1

  9
$DIMASO
 70
     1
  9
$DIMSHO
 70
     1
  9
$DIMPOST
  1

  9
$DIMAPOST
  1

  9
$DIMALT
 70
     0
  9
$DIMALTD
 70
     2
  9
$DIMALTF
 40
25.4
  9
$DIMLFAC
 40
1.0
  9
$DIMTOFL
 70
     0
  9
$DIMTVP
 40
0.0
  9
$DIMTIX
 70
     0
  9
$DIMSOXD
 70
     0
  9
$DIMSAH
 70
     0
  9
$DIMBLK1
  1

  9
$DIMBLK2
  1

  9
$DIMSTYLE
  2
Standard
  9
$DIMCLRD
 70
     0
  9
$DIMCLRE
 70
     0
  9
$DIMCLRT
 70
     0
  9
$DIMTFAC
 40
1.0
  9
$DIMGAP
 40
0.09
  9
$DIMJUST
 70
     0
  9
$DIMSD1
 70
     0
  9
$DIMSD2
 70
     0
  9
$DIMTOLJ
 70
     1
  9
$DIMTZIN
 70
     0
  9
$DIMALTZ
 70
     0
  9
$DIMALTTZ
 70
     0
  9
$DIMUPT
 70
     0
  9
$DIMDEC
 70
     4
  9
$DIMTDEC
 70
     4
  9
$DIMALTU
 70
     2
  9
$DIMALTTD
 70
     2
  9
$DIMTXSTY
  7
Standard
  9
$DIMAUNIT
 70
     0
  9
$DIMADEC
 70
     0
  9
$DIMALTRND
 40
0.0
  9
$DIMAZIN
 70
     0
  9
$DIMDSEP
 70
    46
  9
$DIMATFIT
 70
     3
  9
$DIMFRAC
 70
     0
  9
$DIMLDRBLK
  1

  9
$DIMLUNIT
 70
     2
  9
$DIMLWD
 70
    -2
  9
$DIMLWE
 70
    -2
  9
$DIMTMOVE
 70
     0
  9
$DIMFXL
 40
1.0
  9
$DIMFXLON
 70
     0
  9
$DIMJOGANG
 40
0.7853981633974483
  9
$DIMTFILL
 70
     0
  9
$DIMTFILLCLR
 70
     0
  9
$DIMARCSYM
 70
     0
  9
$DIMLTYPE
  6

  9
$DIMLTEX1
  6

  9
$DIMLTEX2
  6

  9
$DIMTXTDIRECTION
 70
     0
  9
$LUNITS
 70
     2
  9
$LUPREC
 70
     4
  9
$SKETCHINC
 40
0.1
  9
$FILLETRAD
 40
0.0
  9
$AUNITS
 70
     0
  9
$AUPREC
 70
     0
  9
$MENU
  1
.
  9
$ELEVATION
 40
0.0
  9
$PELEVATION
 40
0.0
  9
$THICKNESS
 40
0.0
  9
$LIMCHECK
 70
     0
  9
$CHAMFERA
 40
0.0
  9
$CHAMFERB
 40
0.0
  9
$CHAMFERC
 40
0.0
  9
$CHAMFERD
 40
0.0
  9
$SKPOLY
 70
     0
  9
$TDCREATE
 40
2460166.379988426
  9
$TDUCREATE
 40
2460166.504988426
  9
$TDUPDATE
 40
2460166.379988426
  9
$TDUUPDATE
 40
2460166.504988426
  9
$TDINDWG
 40
0.0000000000
  9
$TDUSRTIMER
 40
0.0000000000
  9
$USRTIMER
 70
     1
  9
$ANGBASE
 50
0.0
  9
$ANGDIR
 70
     0
  9
$PDMODE
 70
     0
  9
$PDSIZE
 40
0.0
  9
$PLINEWID
 40
0.0
  9
$SPLFRAME
 70
     0
  9
$SPLINETYPE
 70
     6
  9
$SPLINESEGS
 70
     8
  9
$HANDSEED
  5
297
  9
$SURFTAB1
 70
     6
  9
$SURFTAB2
 70
     6
  9
$SURFTYPE
 70
     6
  9
$SURFU
 70
     6
  9
$SURFV
 70
     6
  9
$UCSBASE
  2

  9
$UCSNAME
  2

  9
$UCSORG
 10
0.0
 20
0.0
 30
0.0
  9
$UCSXDIR
 10
1.0
 20
0.0
 30
0.0
  9
$UCSYDIR
 10
0.0
 20
1.0
 30
0.0
  9
$UCSORTHOREF
  2

  9
$UCSORTHOVIEW
 70
     0
  9
$UCSORGTOP
 10
0.0
 20
0.0
 30
0.0
  9
$UCSORGBOTTOM
 10
0.0
 20
0.0
 30
0.0
  9
$UCSORGLEFT
 10
0.0
 20
0.0
 30
0.0
  9
$UCSORGRIGHT
 10
0.0
 20
0.0
 30
0.0
  9
$UCSORGFRONT
 10
0.0
 20
0.0
 30
0.0
  9
$UCSORGBACK
 10
0.0
 20
0.0
 30
0.0
  9
$PUCSBASE
  2

  9
$PUCSNAME
  2

  9
$PUCSORG
 10
0.0
 20
0.0
 30
0.0
  9
$PUCSXDIR
 10
1.0
 20
0.0
 30
0.0
  9
$PUCSYDIR
 10
0.0
 20
1.0
 30
0.0
  9
$PUCSORTHOREF
  2

  9
$PUCSORTHOVIEW
 70
     0
  9
$PUCSORGTOP
 10
0.0
 20
0.0
 30
0.0
  9
$PUCSORGBOTTOM
 10
0.0
 20
0.0
 30
0.0
  9
$PUCSORGLEFT
 10
0.0
 20
0.0
 30
0.0
  9
$PUCSORGRIGHT
 10
0.0
 20
0.0
 30
0.0
  9
$PUCSORGFRONT
 10
0.0
 20
0.0
 30
0.0
  9
$PUCSORGBACK
 10
0.0
 20
0.0
 30
0.0
  9
$USERI1
 70
     0
  9
$USERI2
 70
     0
  9
$USERI3
 70
     0
  9
$USERI4
 70
     0
  9
$USERI5
 70
     0
  9
$USERR1
 40
0.0
  9
$USERR2
 40
0.0
  9
$USERR3
 40
0.0
  9
$USERR4
 40
0.0
  9
$USERR5
 40
0.0
  9
$WORLDVIEW
 70
     1
  9
$SHADEDGE
 70
     3
  9
$SHADEDIF
 70
    70
  9
$TILEMODE
 70
     1
  9
$MAXACTVP
 70
    64
  9
$PINSBASE
 10
0.0
 20
0.0
 30
0.0
  9
$PLIMCHECK
 70
     0
  9
$PEXTMIN
 10
1.000000000000000E+20
 20
1.000000000000000E+20
 30
1.000000000000000E+20
  9
$PEXTMAX
 10
-1.000000000000000E+20
 20
-1.000000000000000E+20
 30
-1.000000000000000E+20
  9
$PLIMMIN
 10
0.0
 20
0.0
  9
$PLIMMAX
 10
12.0
 20
9.0
  9
$UNITMODE
 70
     0
  9
$VISRETAIN
 70
     1
  9
$PLINEGEN
 70
     0
  9
$PSLTSCALE
 70
     1
  9
$TREEDEPTH
 70
  3020
  9
$CMLSTYLE
  2
Standard
  9
$CMLJUST
 70
     0
  9
$CMLSCALE
 40
1.0
  9
$PROXYGRAPHICS
 70
     1
  9
$MEASUREMENT
 70
     0
  9
$CELWEIGHT
370
    -1
  9
$ENDCAPS
280
     0
  9
$JOINSTYLE
280
     0
  9
$LWDISPLAY
290
     1
  9
$INSUNITS
 70
     0
  9
$HYPERLINKBASE
  1

  9
$STYLESHEET
  1

  9
$XEDIT
290
     1
  9
$CEPSNTYPE
380
     0
  9
$PSTYLEMODE
290
     1
  9
$FINGERPRINTGUID
  2
{E535B3F4-2A80-FE49-A5B3-4553E0D2AEA3}
  9
$VERSIONGUID
  2
{B51206AD-0895-364D-B44A-2D5990230B57}
  9
$EXTNAMES
290
     1
  9
$PSVPSCALE
 40
0.0
  9
$OLESTARTUP
290
     0
  9
$SORTENTS
280
   127
  9
$INDEXCTL
280
     0
  9
$HIDETEXT
280
     1
  9
$XCLIPFRAME
280
     2
  9
$HALOGAP
280
     0
  9
$OBSCOLOR
 70
   257
  9
$OBSLTYPE
280
     0
  9
$INTERSECTIONDISPLAY
280
     0
  9
$INTERSECTIONCOLOR
 70
   257
  9
$DIMASSOC
280
     2
  9
$PROJECTNAME
  1

  9
$CAMERADISPLAY
290
     0
  9
$LENSLENGTH
 40
50.0
  9
$CAMERAHEIGHT
 40
0.0
  9
$STEPSPERSEC
 40
2.0
  9
$STEPSIZE
 40
6.0
  9
$3DDWFPREC
 40
2.0
  9
$PSOLWIDTH
 40
0.25
  9
$PSOLHEIGHT
 40
4.0
  9
$LOFTANG1
 40
1.570796326794896
  9
$LOFTANG2
 40
1.570796326794896
  9
$LOFTMAG1
 40
0.0
  9
$LOFTMAG2
 40
0.0
  9
$LOFTPARAM
 70
     7
  9
$LOFTNORMALS
280
     1
  9
$LATITUDE
 40
37.795
  9
$LONGITUDE
 40
-122.394
  9
$NORTHDIRECTION
 40
0.0
  9
$TIMEZONE
 70
 -8000
  9
$LIGHTGLYPHDISPLAY
280
     1
  9
$TILEMODELIGHTSYNCH
280
     1
  9
$CMATERIAL
347
11
  9
$SOLIDHIST
280
     0
  9
$SHOWHIST
280
     1
  9
$DWFFRAME
280
     2
  9
$DGNFRAME
280
     0
  9
$REALWORLDSCALE
290
     1
  9
$INTERFERECOLOR
 62
     1
  9
$INTERFEREOBJVS
345
33
  9
$INTERFEREVPVS
346
30
  9
$CSHADOW
280
     0
  9
$SHADOWPLANELOCATION
 40
0.0
  0
ENDSEC
  0
SECTION
  2
CLASSES
  0
CLASS
  1
ACDBDICTIONARYWDFLT
  2
AcDbDictionaryWithDefault
  3
ObjectDBX Classes
 90
        0
 91
        1
280
     0
281
     0
  0
CLASS
  1
MATERIAL
  2
AcDbMaterial
  3
ObjectDBX Classes
 90
     1153
 91
        3
280
     0
281
     0
  0
CLASS
  1
VISUALSTYLE
  2
AcDbVisualStyle
  3
ObjectDBX Classes
 90
     4095
 91
       24
280
     0
281
     0
  0
CLASS
  1
SCALE
  2
AcDbScale
  3
ObjectDBX Classes
 90
     1153
 91
       17
280
     0
281
     0
  0
CLASS
  1
TABLESTYLE
  2
AcDbTableStyle
  3
ObjectDBX Classes
 90
     4095
 91
        1
280
     0
281
     0
  0
CLASS
  1
MLEADERSTYLE
  2
AcDbMLeaderStyle
  3
ACDB_MLEADERSTYLE_CLASS
 90
     4095
 91
        1
280
     0
281
     0
  0
CLASS
  1
ACDBSECTIONVIEWSTYLE
  2
AcDbSectionViewStyle
  3
ObjectDBX Classes
 90
     1025
 91
        1
280
     0
281
     0
  0
CLASS
  1
ACDBDETAILVIEWSTYLE
  2
AcDbDetailViewStyle
  3
ObjectDBX Classes
 90
     1025
 91
        1
280
     0
281
     0
  0
CLASS
  1
DICTIONARYVAR
  2
AcDbDictionaryVar
  3
ObjectDBX Classes
 90
        0
 91
        5
280
     0
281
     0
  0
CLASS
  1
CELLSTYLEMAP
  2
AcDbCellStyleMap
  3
ObjectDBX Classes
 90
     1152
 91
        1
280
     0
281
     0
  0
ENDSEC
  0
SECTION
  2
TABLES
  0
TABLE
  2
VPORT
  5
8
330
0
100
AcDbSymbolTable
 70
     1
  0
VPORT
  5
57
330
8
100
AcDbSymbolTableRecord
100
AcDbViewportTableRecord
  2
*Active
 70
     0
 10
0.0
 20
0.0
 11
1.0
 21
1.0
 12
0.0
 22
0.0
 13
0.0
 23
0.0
 14
1.0
 24
1.0
 15
0.0
 25
0.0
 16
0.0
 26
0.0
 36
1.0
 17
540.0
 27
971.4905169679482
 37
0.0
 40
561.7017145519961
 41
1.961183260547135
 42
50.0
 43
0.0
 44
0.0
 50
0.0
 51
0.0
 71
     0
 72
   100
 73
     1
 74
     1
 75
     0
 76
     0
 77
     0
 78
     0
281
     0
 65
     1
110
0.0
120
0.0
130
0.0
111
1.0
121
0.0
131
0.0
112
0.0
122
1.0
132
0.0
 79
     0
146
0.0
 60
     3
 61
     5
292
     1
282
     1
141
0.0
142
0.0
 63
   250
421
  3355443
  0
ENDTAB
  0
TABLE
  2
LTYPE
  5
5
330
0
100
AcDbSymbolTable
 70
     1
  0
LTYPE
  5
5B
330
5
100
AcDbSymbolTableRecord
100
AcDbLinetypeTableRecord
  2
ByBlock
 70
     0
  3

 72
    65
 73
     0
 40
0.0
  0
LTYPE
  5
5C
330
5
100
AcDbSymbolTableRecord
100
AcDbLinetypeTableRecord
  2
ByLayer
 70
     0
  3

 72
    65
 73
     0
 40
0.0
  0
LTYPE
  5
5D
330
5
100
AcDbSymbolTableRecord
100
AcDbLinetypeTableRecord
  2
Continuous
 70
     0
  3
Solid line
 72
    65
 73
     0
 40
0.0
  0
ENDTAB
  0
TABLE
  2
LAYER
  5
2
330
0
100
AcDbSymbolTable
 70
     3
  0
LAYER
  5
54
330
2
100
AcDbSymbolTableRecord
100
AcDbLayerTableRecord
  2
0
 70
     0
 62
     7
  6
Continuous
370
     0
390
F
347
21
348
0
  0
LAYER
  5
78
330
2
100
AcDbSymbolTableRecord
100
AcDbLayerTableRecord
  2
1
 70
     0
 62
     7
  6
Continuous
370
     0
390
F
347
21
348
0
  0
LAYER
  5
8B
330
2
100
AcDbSymbolTableRecord
100
AcDbLayerTableRecord
  2
Front$1
 70
     0
 62
     7
  6
Continuous
370
     0
390
F
347
21
348
0
  0
ENDTAB
  0
TABLE
  2
STYLE
  5
3
330
0
100
AcDbSymbolTable
 70
     2
  0
STYLE
  5
55
330
3
100
AcDbSymbolTableRecord
100
AcDbTextStyleTableRecord
  2
Standard
 70
     0
 40
0.0
 41
1.0
 50
0.0
 71
     0
 42
0.2
  3
txt
  4

  0
STYLE
  5
5A
330
3
100
AcDbSymbolTableRecord
100
AcDbTextStyleTableRecord
  2
Annotative
 70
     0
 40
0.0
 41
1.0
 50
0.0
 71
     0
 42
0.2
  3
txt
  4

1001
AcadAnnotative
1000
AnnotativeData
1002
{
1070
     1
1070
     1
1002
}
  0
ENDTAB
  0
TABLE
  2
VIEW
  5
6
330
0
100
AcDbSymbolTable
 70
     0
  0
ENDTAB
  0
TABLE
  2
UCS
  5
7
330
0
100
AcDbSymbolTable
 70
     0
  0
ENDTAB
  0
TABLE
  2
APPID
  5
9
330
0
100
AcDbSymbolTable
 70
     2
  0
APPID
  5
56
330
9
100
AcDbSymbolTableRecord
100
AcDbRegAppTableRecord
  2
ACAD
 70
     0
  0
APPID
  5
5E
330
9
100
AcDbSymbolTableRecord
100
AcDbRegAppTableRecord
  2
AcadAnnotative
 70
     0
  0
ENDTAB
  0
TABLE
  2
DIMSTYLE
  5
A
330
0
100
AcDbSymbolTable
 70
     2
100
AcDbDimStyleTable
 71
     0
  0
DIMSTYLE
105
58
330
A
100
AcDbSymbolTableRecord
100
AcDbDimStyleTableRecord
  2
Standard
 70
     0
340
55
  0
DIMSTYLE
105
59
330
A
100
AcDbSymbolTableRecord
100
AcDbDimStyleTableRecord
  2
Annotative
 70
     0
340
55
1001
AcadAnnotative
1000
AnnotativeData
1002
{
1070
     1
1070
     1
1002
}
  0
ENDTAB
  0
TABLE
  2
BLOCK_RECORD
  5
1
330
0
100
AcDbSymbolTable
 70
     1
  0
BLOCK_RECORD
  5
70
330
1
100
AcDbSymbolTableRecord
100
AcDbBlockTableRecord
  2
*Model_Space
340
73
 70
     0
280
     1
281
     0
  0
BLOCK_RECORD
  5
6C
330
1
100
AcDbSymbolTableRecord
100
AcDbBlockTableRecord
  2
*Paper_Space
340
6F
 70
     0
280
     1
281
     0
  0
BLOCK_RECORD
  5
74
330
1
100
AcDbSymbolTableRecord
100
AcDbBlockTableRecord
  2
*Paper_Space0
340
77
 70
     0
280
     1
281
     0
  0
ENDTAB
  0
ENDSEC
  0
SECTION
  2
BLOCKS
  0
BLOCK
  5
71
330
70
100
AcDbEntity
  8
0
100
AcDbBlockBegin
  2
*Model_Space
 70
     0
 10
0.0
 20
0.0
 30
0.0
  3
*Model_Space
  1

  0
ENDBLK
  5
72
330
70
100
AcDbEntity
  8
0
100
AcDbBlockEnd
  0
BLOCK
  5
6D
330
6C
100
AcDbEntity
 67
     1
  8
0
100
AcDbBlockBegin
  2
*Paper_Space
 70
     0
 10
0.0
 20
0.0
 30
0.0
  3
*Paper_Space
  1

  0
ENDBLK
  5
6E
330
6C
100
AcDbEntity
 67
     1
  8
0
100
AcDbBlockEnd
  0
BLOCK
  5
75
330
74
100
AcDbEntity
 67
     1
  8
0
100
AcDbBlockBegin
  2
*Paper_Space0
 70
     0
 10
0.0
 20
0.0
 30
0.0
  3
*Paper_Space0
  1

  0
ENDBLK
  5
76
330
74
100
AcDbEntity
 67
     1
  8
0
100
AcDbBlockEnd
  0
ENDSEC
  0
SECTION
  2
ENTITIES
  0
LINE
  5
79
330
70
100
AcDbEntity
  8
1
 62
    18
420
        0
370
    18
100
AcDbLine
 10
827.4587681451139
 20
848.5982869735707
 30
0.0
 11
827.4587681451139
 21
796.7956261107866
 31
0.0
  0
LINE
  5
7A
330
70
100
AcDbEntity
  8
1
 62
    18
420
        0
370
    18
100
AcDbLine
 10
839.465789795202
 20
868.0697025756035
 30
0.0
 11
839.465789795202
 21
796.7956261107866
 31
0.0
  0
LINE
  5
7B
330
70
100
AcDbEntity
  8
1
 62
    18
420
        0
370
    18
100
AcDbLine
 10
827.4590343007602
 20
802.0531440198938
 30
0.0
 11
768.1607229008222
 21
802.0531440198938
 31
0.0
  0
LINE
  5
7C
330
70
100
AcDbEntity
  8
1
 62
    18
420
        0
370
    18
100
AcDbLine
 10
860.2678737565838
 20
802.0531440198938
 30
0.0
 11
839.465789795202
 21
802.0531440198938
 31
0.0
  0
LINE
  5
7D
330
70
100
AcDbEntity
  8
1
 62
    18
420
        0
370
    18
100
AcDbLine
 10
178.676313269867
 20
976.38331748976
 30
0.0
 11
152.3907470703125
 21
976.38331748976
 31
0.0
  0
LINE
  5
7E
330
70
100
AcDbEntity
  8
1
 62
    18
420
        0
370
    18
100
AcDbLine
 10
700.3895369536403
 20
886.3066840959618
 30
0.0
 11
152.1318359375
 21
886.3066840959618
 31
0.0
  0
LINE
  5
7F
330
70
100
AcDbEntity
  8
1
 62
    18
420
        0
370
    18
100
AcDbLine
 10
705.8247196001066
 20
845.7829860269157
 30
0.0
 11
107.6759975704508
 21
845.7829860269157
 31
0.0
  0
LINE
  5
80
330
70
100
AcDbEntity
  8
1
 62
    18
420
        0
370
    18
100
AcDbLine
 10
178.676313269867
 20
1040.396795272088
 30
0.0
 11
107.4697265625
 21
1040.396795272088
 31
0.0
  0
LINE
  5
81
330
70
100
AcDbEntity
  8
1
 62
    18
420
        0
370
    18
100
AcDbLine
 10
112.9938488813586
 20
1040.146648987712
 30
0.0
 11
112.9938488813586
 21
845.952402649469
 31
0.0
  0
LINE
  5
82
330
70
100
AcDbEntity
  8
1
 62
    18
420
        0
370
    18
100
AcDbLine
 10
158.16200753072
 20
976.5015885777048
 30
0.0
 11
158.16200753072
 21
886.4249551839057
 31
0.0
  0
LINE
  5
83
330
70
100
AcDbEntity
  8
1
 62
    18
420
        0
370
    18
100
AcDbLine
 10
807.4470653949683
 20
923.328334226475
 30
0.0
 11
807.4470653949683
 21
1079.566353634022
 31
0.0
  0
LINE
  5
84
330
70
100
AcDbEntity
  8
1
 62
    18
420
        0
370
    18
100
AcDbLine
 10
184.0825247279108
 20
1047.104520510895
 30
0.0
 11
184.0825247279108
 21
1079.566353634022
 31
0.0
  0
LINE
  5
85
330
70
100
AcDbEntity
  8
1
 62
    18
420
        0
370
    18
100
AcDbLine
 10
807.4470649546146
 20
1073.603135184318
 30
0.0
 11
184.082524287558
 21
1073.603135184318
 31
0.0
  0
LINE
  5
86
330
70
100
AcDbEntity
  8
1
 62
    18
420
        0
370
    35
100
AcDbLine
 10
837.1774095611472
 20
896.5626817554129
 30
0.0
 11
883.9416160503224
 21
896.5626817554129
 31
0.0
  0
LINE
  5
87
330
70
100
AcDbEntity
  8
1
 62
    18
420
        0
370
    35
100
AcDbLine
 10
836.5941314628434
 20
876.0506864365124
 30
0.0
 11
883.9416160503224
 21
876.0506864365124
 31
0.0
  0
LINE
  5
88
330
70
100
AcDbEntity
  8
1
 62
    18
420
        0
370
    18
100
AcDbLine
 10
881.940445775308
 20
900.3148765269706
 30
0.0
 11
881.940445775308
 21
982.5629706297076
 31
0.0
  0
LINE
  5
89
330
70
100
AcDbEntity
  8
1
 62
    18
420
        0
370
    35
100
AcDbLine
 10
881.940445775308
 20
876.0506864365124
 30
0.0
 11
881.940445775308
 21
896.5626817554129
 31
0.0
  0
LINE
  5
8A
330
70
100
AcDbEntity
  8
1
 62
    18
420
        0
370
    18
100
AcDbLine
 10
881.940445775308
 20
872.296303891164
 30
0.0
 11
881.940445775308
 21
852.2846011410184
 31
0.0
  0
LINE
  5
8C
330
70
100
AcDbEntity
  8
Front$1
 62
    18
420
        0
370
    35
100
AcDbLine
 10
710.5904240842591
 20
886.3066840959618
 30
0.0
 11
710.5904240842591
 21
886.3066840959618
 31
0.0
  0
LINE
  5
8D
330
70
100
AcDbEntity
  8
Front$1
 62
    18
420
        0
370
    35
100
AcDbLine
 10
211.7987330368633
 20
978.5606337741374
 30
0.0
 11
212.0989085781157
 21
978.8608093153889
 31
0.0
  0
LINE
  5
8E
330
70
100
AcDbEntity
  8
Front$1
 62
    18
420
        0
370
    35
100
AcDbLine
 10
184.0825247279108
 20
978.8608093153889
 30
0.0
 11
184.3827002691632
 21
978.5606337741374
 31
0.0
  0
LINE
  5
8F
330
70
100
AcDbEntity
  8
Front$1
 62
    18
420
        0
370
    35
100
AcDbLine
 10
212.0989085781157
 20
1011.579943311878
 30
0.0
 11
184.0825247279108
 21
1011.579943311878
 31
0.0
  0
LINE
  5
90
330
70
100
AcDbEntity
  8
Front$1
 62
    18
420
        0
370
    35
100
AcDbLine
 10
212.0989085781157
 20
978.8608093153889
 30
0.0
 11
198.0907166530132
 21
978.8608093153889
 31
0.0
  0
LINE
  5
91
330
70
100
AcDbEntity
  8
Front$1
 62
    18
420
        0
370
    35
100
AcDbLine
 10
198.0907166530132
 20
978.8608093153889
 30
0.0
 11
184.0825247279108
 21
978.8608093153889
 31
0.0
  0
LINE
  5
92
330
70
100
AcDbEntity
  8
Front$1
 62
    18
420
        0
370
    35
100
AcDbLine
 10
212.0989085781157
 20
978.8608093153889
 30
0.0
 11
212.0989085781157
 21
982.5630993973081
 31
0.0
  0
LINE
  5
93
330
70
100
AcDbEntity
  8
Front$1
 62
    18
420
        0
370
    35
100
AcDbLine
 10
212.0989085781157
 20
1004.575769303686
 30
0.0
 11
212.0989085781157
 21
1011.579943311878
 31
0.0
  0
LINE
  5
94
330
70
100
AcDbEntity
  8
Front$1
 62
    18
420
        0
370
    35
100
AcDbLine
 10
184.0825247279108
 20
1011.579943311878
 30
0.0
 11
184.0825247279108
 21
978.8608093153889
 31
0.0
  0
LINE
  5
95
330
70
100
AcDbEntity
  8
Front$1
 62
    18
420
        0
370
    35
100
AcDbLine
 10
739.4072760444705
 20
899.8145834523111
 30
0.0
 11
738.606807934464
 21
899.8145834523111
 31
0.0
  0
LINE
  5
96
330
70
100
AcDbEntity
  8
Front$1
 62
    18
420
        0
370
    35
100
AcDbLine
 10
738.606807934464
 20
872.7987847396143
 30
0.0
 11
739.4072760444705
 21
872.7987847396143
 31
0.0
  0
LINE
  5
97
330
70
100
AcDbEntity
  8
Front$1
 62
    18
420
        0
370
    35
100
AcDbLine
 10
744.4102017320074
 20
960.3499842715036
 30
0.0
 11
492.2627470801635
 21
960.3499842715036
 31
0.0
  0
LINE
  5
98
330
70
100
AcDbEntity
  8
Front$1
 62
    18
420
        0
370
    35
100
AcDbLine
 10
492.2627470801635
 20
938.3371112463429
 30
0.0
 11
744.4102017320074
 21
938.3371112463429
 31
0.0
  0
LINE
  5
99
330
70
100
AcDbEntity
  8
Front$1
 62
    18
420
        0
370
    35
100
AcDbLine
 10
464.2463632299587
 20
934.3347706963141
 30
0.0
 11
492.2627470801635
 21
934.3347706963141
 31
0.0
  0
LINE
  5
9A
330
70
100
AcDbEntity
  8
Front$1
 62
    18
420
        0
370
    35
100
AcDbLine
 10
464.2463632299587
 20
971.3564207840844
 30
0.0
 11
492.2627470801635
 21
971.3564207840844
 31
0.0
  0
LINE
  5
9B
330
70
100
AcDbEntity
  8
Front$1
 62
    18
420
        0
370
    35
100
AcDbLine
 10
464.2463632299587
 20
971.3564207840844
 30
0.0
 11
464.2463632299587
 21
934.3347706963141
 31
0.0
  0
LINE
  5
9C
330
70
100
AcDbEntity
  8
Front$1
 62
    18
420
        0
370
    35
100
AcDbLine
 10
492.2627470801635
 20
934.3347706963141
 30
0.0
 11
492.2627470801635
 21
938.3372363194849
 31
0.0
  0
LINE
  5
9D
330
70
100
AcDbEntity
  8
Front$1
 62
    18
420
        0
370
    35
100
AcDbLine
 10
492.2627470801635
 20
960.3501723815098
 30
0.0
 11
492.2627470801635
 21
971.3564207840844
 31
0.0
  0
LINE
  5
9E
330
70
100
AcDbEntity
  8
Front$1
 62
    18
420
        0
370
    35
100
AcDbLine
 10
491.0120156582798
 20
971.3564207840844
 30
0.0
 11
491.0120156582798
 21
971.556543815096
 31
0.0
  0
LINE
  5
9F
330
70
100
AcDbEntity
  8
Front$1
 62
    18
420
        0
370
    35
100
AcDbLine
 10
465.4970946518433
 20
971.556543815096
 30
0.0
 11
465.4970946518433
 21
971.3564207840844
 31
0.0
  0
LINE
  5
A0
330
70
100
AcDbEntity
  8
Front$1
 62
    18
420
        0
370
    35
100
AcDbLine
 10
718.2449003861911
 20
900.3148760210642
 30
0.0
 11
722.9476505324746
 21
900.3148760210642
 31
0.0
  0
LINE
  5
A1
330
70
100
AcDbEntity
  8
Front$1
 62
    18
420
        0
370
    35
100
AcDbLine
 10
202.6086367115277
 20
976.8038334054999
 30
0.0
 11
202.6086367115277
 21
976.7788057694561
 31
0.0
  0
LINE
  5
A2
330
70
100
AcDbEntity
  8
Front$1
 62
    18
420
        0
370
    35
100
AcDbLine
 10
199.5159691339968
 20
976.8181687887654
 30
0.0
 11
199.5159691339968
 21
976.9316941778816
 31
0.0
  0
LINE
  5
A3
330
70
100
AcDbEntity
  8
Front$1
 62
    18
420
        0
370
    35
100
AcDbLine
 10
200.516554271504
 20
977.0097948507901
 30
0.0
 11
200.516554271504
 21
976.8959112521942
 31
0.0
  0
LINE
  5
A4
330
70
100
AcDbEntity
  8
Front$1
 62
    18
420
        0
370
    35
100
AcDbLine
 10
200.0918869280285
 20
976.8441820011704
 30
0.0
 11
200.0918869280285
 21
976.8139112990047
 31
0.0
  0
LINE
  5
A5
330
70
100
AcDbEntity
  8
Front$1
 62
    18
420
        0
370
    35
100
AcDbLine
 10
202.153645634874
 20
976.8447003042711
 30
0.0
 11
202.153645634874
 21
976.9165903452313
 31
0.0
  0
LINE
  5
A6
330
70
100
AcDbEntity
  8
Front$1
 62
    18
420
        0
370
    35
100
AcDbLine
 10
203.146897483909
 20
977.1010372088939
 30
0.0
 11
203.146897483909
 21
977.0285087946167
 31
0.0
  0
LINE
  5
A7
330
70
100
AcDbEntity
  8
Front$1
 62
    18
420
        0
370
    35
100
AcDbLine
 10
195.1949101989466
 20
976.9628844177878
 30
0.0
 11
195.1949101989466
 21
977.0791364014039
 31
0.0
  0
LINE
  5
A8
330
70
100
AcDbEntity
  8
Front$1
 62
    18
420
        0
370
    35
100
AcDbLine
 10
196.1881620479817
 20
976.9814022469281
 30
0.0
 11
196.1881620479817
 21
976.8657065886483
 31
0.0
  0
LINE
  5
A9
330
70
100
AcDbEntity
  8
Front$1
 62
    18
420
        0
370
    35
100
AcDbLine
 10
200.0918869280285
 20
976.7825289467527
 30
0.0
 11
200.0918869280285
 21
976.6510690696314
 31
0.0
  0
LINE
  5
AA
330
70
100
AcDbEntity
  8
Front$1
 62
    18
420
        0
370
    35
100
AcDbLine
 10
199.3567650321829
 20
976.9898892100645
 30
0.0
 11
199.3567650321829
 21
976.8688494265653
 31
0.0
  0
LINE
  5
AB
330
70
100
AcDbEntity
  8
Front$1
 62
    18
420
        0
370
    35
100
AcDbLine
 10
199.1913603042712
 20
976.8023175190174
 30
0.0
 11
199.1913603042712
 21
976.8422988999409
 31
0.0
  0
LINE
  5
AC
330
70
100
AcDbEntity
  8
Front$1
 62
    18
420
        0
370
    35
100
AcDbLine
 10
199.1913603042712
 20
976.38331748976
 30
0.0
 11
199.1913603042712
 21
976.7879190988878
 31
0.0
  0
LINE
  5
AD
330
70
100
AcDbEntity
  8
Front$1
 62
    18
420
        0
370
    35
100
AcDbLine
 10
192.1022426214158
 20
977.0791364014039
 30
0.0
 11
192.1022426214158
 21
977.0883688004678
 31
0.0
  0
LINE
  5
AE
330
70
100
AcDbEntity
  8
Front$1
 62
    18
420
        0
370
    35
100
AcDbLine
 10
193.102827758923
 20
976.8657065886483
 30
0.0
 11
193.102827758923
 21
976.8565582387363
 31
0.0
  0
LINE
  5
AF
330
70
100
AcDbEntity
  8
Front$1
 62
    18
420
        0
370
    35
100
AcDbLine
 10
193.2620318607369
 20
976.8256381568171
 30
0.0
 11
193.2620318607369
 21
976.8275772908136
 31
0.0
  0
LINE
  5
B0
330
70
100
AcDbEntity
  8
Front$1
 62
    18
420
        0
370
    35
100
AcDbLine
 10
194.262616998245
 20
976.6536365710944
 30
0.0
 11
194.262616998245
 21
976.6508659508481
 31
0.0
  0
LINE
  5
B1
330
70
100
AcDbEntity
  8
Front$1
 62
    18
420
        0
370
    35
100
AcDbLine
 10
203.9276300526626
 20
977.0429752545352
 30
0.0
 11
203.9276300526626
 21
977.0536635049738
 31
0.0
  0
LINE
  5
B2
330
70
100
AcDbEntity
  8
Front$1
 62
    18
420
        0
370
    35
100
AcDbLine
 10
196.9900730017552
 20
977.1813811936809
 30
0.0
 11
196.9900730017552
 21
977.3433679227618
 31
0.0
  0
LINE
  5
B3
330
70
100
AcDbEntity
  8
Front$1
 62
    18
420
        0
370
    35
100
AcDbLine
 10
807.4470653949683
 20
915.3236530836748
 30
0.0
 11
807.4470653949683
 21
857.2897151082507
 31
0.0
  0
LINE
  5
B4
330
70
100
AcDbEntity
  8
Front$1
 62
    18
420
        0
370
    35
100
AcDbLine
 10
838.4652046576938
 20
896.5626817554129
 30
0.0
 11
838.4652046576938
 21
876.0506864365124
 31
0.0
  0
LINE
  5
B5
330
70
100
AcDbEntity
  8
Front$1
 62
    18
420
        0
370
    35
100
AcDbLine
 10
201.6153858630778
 20
976.6185270392043
 30
0.0
 11
201.6153858630778
 21
976.6432965242829
 31
0.0
  0
LINE
  5
B6
330
70
100
AcDbEntity
  8
Front$1
 62
    18
420
        0
370
    35
100
AcDbLine
 10
197.1354330076064
 20
977.3709900760676
 30
0.0
 11
197.1354330076064
 21
977.2487005617321
 31
0.0
  0
LINE
  5
B7
330
70
100
AcDbEntity
  8
Front$1
 62
    18
420
        0
370
    35
100
AcDbLine
 10
204.3066867232301
 20
977.3277047630189
 30
0.0
 11
204.3066867232301
 21
977.261865260386
 31
0.0
  0
LINE
  5
B8
330
70
100
AcDbEntity
  8
Front$1
 62
    18
420
        0
370
    35
100
AcDbLine
 10
203.6168653188997
 20
977.0063968636632
 30
0.0
 11
203.6168653188997
 21
977.0442960269164
 31
0.0
  0
LINE
  5
B9
330
70
100
AcDbEntity
  8
Front$1
 62
    18
420
        0
370
    35
100
AcDbLine
 10
204.6174504564069
 20
977.2906981217083
 30
0.0
 11
204.6174504564069
 21
977.2524167349329
 31
0.0
  0
LINE
  5
BA
330
70
100
AcDbEntity
  8
Front$1
 62
    18
420
        0
370
    35
100
AcDbLine
 10
191.9430385196019
 20
977.1383790462259
 30
0.0
 11
191.9430385196019
 21
977.1219124166181
 31
0.0
  0
LINE
  5
BB
330
70
100
AcDbEntity
  8
Front$1
 62
    18
420
        0
370
    35
100
AcDbLine
 10
191.63227378584
 20
977.2933006436515
 30
0.0
 11
191.63227378584
 21
977.2496461146866
 31
0.0
  0
LINE
  5
BC
330
70
100
AcDbEntity
  8
Front$1
 62
    18
420
        0
370
    35
100
AcDbLine
 10
192.4812982913982
 20
977.1730763370397
 30
0.0
 11
192.4812982913982
 21
977.1090879169106
 31
0.0
  0
LINE
  5
BD
330
70
100
AcDbEntity
  8
Front$1
 62
    18
420
        0
370
    35
100
AcDbLine
 10
193.1860964540665
 20
977.185495599766
 30
0.0
 11
193.1860964540665
 21
977.2892732884729
 31
0.0
  0
LINE
  5
BE
330
70
100
AcDbEntity
  8
Front$1
 62
    18
420
        0
370
    35
100
AcDbLine
 10
194.1793473025163
 20
977.110076495026
 30
0.0
 11
194.1793473025163
 21
977.0063968636632
 31
0.0
  0
LINE
  5
BF
330
70
100
AcDbEntity
  8
Front$1
 62
    18
420
        0
370
    35
100
AcDbLine
 10
464.2463632299587
 20
1004.575847349327
 30
0.0
 11
212.0989085781157
 21
1004.575847349327
 31
0.0
  0
LINE
  5
C0
330
70
100
AcDbEntity
  8
Front$1
 62
    18
420
        0
370
    35
100
AcDbLine
 10
194.4901120362783
 20
976.8688494265653
 30
0.0
 11
194.4901120362783
 21
976.7941377355182
 31
0.0
  0
LINE
  5
C1
330
70
100
AcDbEntity
  8
Front$1
 62
    18
420
        0
370
    35
100
AcDbLine
 10
194.3458856933876
 20
976.9312349093034
 30
0.0
 11
194.3458856933876
 21
977.0266797249851
 31
0.0
  0
LINE
  5
C2
330
70
100
AcDbEntity
  8
Front$1
 62
    18
420
        0
370
    35
100
AcDbLine
 10
195.3391365418374
 20
976.8959112521942
 30
0.0
 11
195.3391365418374
 21
976.8003523698071
 31
0.0
  0
LINE
  5
C3
330
70
100
AcDbEntity
  8
Front$1
 62
    18
420
        0
370
    35
100
AcDbLine
 10
839.465789795202
 20
877.0512715740206
 30
0.0
 11
839.465789795202
 21
895.5620966179049
 31
0.0
  0
LINE
  5
C4
330
70
100
AcDbEntity
  8
Front$1
 62
    18
420
        0
370
    35
100
AcDbLine
 10
839.4657887946159
 20
895.5620966179049
 30
0.0
 11
838.4652056582799
 21
896.5626817554129
 31
0.0
  0
LINE
  5
C5
330
70
100
AcDbEntity
  8
Front$1
 62
    18
420
        0
370
    35
100
AcDbLine
 10
838.4652056582799
 20
876.0506864365124
 30
0.0
 11
839.4657887946159
 21
877.0512715740206
 31
0.0
  0
LINE
  5
C6
330
70
100
AcDbEntity
  8
Front$1
 62
    18
420
        0
370
    35
100
AcDbLine
 10
184.3827002691632
 20
978.5606337741374
 30
0.0
 11
211.7987330368633
 21
978.5606337741374
 31
0.0
  0
LINE
  5
C7
330
70
100
AcDbEntity
  8
Front$1
 62
    18
420
        0
370
    35
100
AcDbLine
 10
201.987108244587
 20
976.9347329549445
 30
0.0
 11
201.987108244587
 21
976.8554465886481
 31
0.0
  0
LINE
  5
C8
330
70
100
AcDbEntity
  8
Front$1
 62
    18
420
        0
370
    35
100
AcDbLine
 10
201.3046211293158
 20
976.6398835283789
 30
0.0
 11
201.3046211293158
 21
976.6915147220597
 31
0.0
  0
LINE
  5
C9
330
70
100
AcDbEntity
  8
Front$1
 62
    18
420
        0
370
    35
100
AcDbLine
 10
202.2978719777648
 20
976.8401126214158
 30
0.0
 11
202.2978719777648
 21
976.788073188999
 31
0.0
  0
LINE
  5
CA
330
70
100
AcDbEntity
  8
Front$1
 62
    18
420
        0
370
    35
100
AcDbLine
 10
202.646604915155
 20
976.9000216559389
 30
0.0
 11
202.646604915155
 21
977.0433024458743
 31
0.0
  0
LINE
  5
CB
330
70
100
AcDbEntity
  8
Front$1
 62
    18
420
        0
370
    35
100
AcDbLine
 10
193.9898194675252
 20
976.8388508835577
 30
0.0
 11
193.9898194675252
 21
976.9898912112349
 31
0.0
  0
LINE
  5
CC
330
70
100
AcDbEntity
  8
Front$1
 62
    18
420
        0
370
    35
100
AcDbLine
 10
201.4868156758339
 20
976.7475484903453
 30
0.0
 11
201.4868156758339
 21
976.9043772030427
 31
0.0
  0
LINE
  5
CD
330
70
100
AcDbEntity
  8
Front$1
 62
    18
420
        0
370
    35
100
AcDbLine
 10
192.8373645172614
 20
977.0935948566412
 30
0.0
 11
192.8373645172614
 21
977.2596069397305
 31
0.0
  0
LINE
  5
CE
330
70
100
AcDbEntity
  8
Front$1
 62
    18
420
        0
370
    35
100
AcDbLine
 10
200.3270264365128
 20
976.6536365710944
 30
0.0
 11
200.3270264365128
 21
976.8256491632527
 31
0.0
  0
LINE
  5
CF
330
70
100
AcDbEntity
  8
Front$1
 62
    18
420
        0
370
    35
100
AcDbLine
 10
195.9986332124044
 20
976.6517114452899
 30
0.0
 11
195.9986332124044
 21
976.827621316559
 31
0.0
  0
LINE
  5
D0
330
70
100
AcDbEntity
  8
Front$1
 62
    18
420
        0
370
    35
100
AcDbLine
 10
200.9938563955529
 20
976.7190418197779
 30
0.0
 11
200.9938563955529
 21
976.7977938736104
 31
0.0
  0
LINE
  5
D1
330
70
100
AcDbEntity
  8
Front$1
 62
    18
420
        0
370
    35
100
AcDbLine
 10
203.8063941544761
 20
977.1121497074309
 30
0.0
 11
203.8063941544761
 21
977.2420436688117
 31
0.0
  0
LINE
  5
D2
330
70
100
AcDbEntity
  8
Front$1
 62
    18
420
        0
370
    35
100
AcDbLine
 10
195.1496087068463
 20
976.6432965242829
 30
0.0
 11
195.1496087068463
 21
976.778819777648
 31
0.0
  0
LINE
  5
D3
330
70
100
AcDbEntity
  8
Front$1
 62
    18
420
        0
370
    35
100
AcDbLine
 10
193.9518522644821
 20
976.7475484903453
 30
0.0
 11
193.9518522644821
 21
976.718716629608
 31
0.0
  0
LINE
  5
D4
330
70
100
AcDbEntity
  8
Front$1
 62
    18
420
        0
370
    35
100
AcDbLine
 10
193.8076259215913
 20
976.7904685898184
 30
0.0
 11
193.8076259215913
 21
976.8388568870687
 31
0.0
  0
LINE
  5
D5
330
70
100
AcDbEntity
  8
Front$1
 62
    18
420
        0
370
    35
100
AcDbLine
 10
194.8008767700412
 20
976.6876604681101
 30
0.0
 11
194.8008767700412
 21
976.6392711702748
 31
0.0
  0
LINE
  5
D6
330
70
100
AcDbEntity
  8
Front$1
 62
    18
420
        0
370
    35
100
AcDbLine
 10
194.6566504271504
 20
976.7349541252198
 30
0.0
 11
194.6566504271504
 21
976.8028348215329
 31
0.0
  0
LINE
  5
D7
330
70
100
AcDbEntity
  8
Front$1
 62
    18
420
        0
370
    35
100
AcDbLine
 10
195.6499012755994
 20
976.6856222761854
 30
0.0
 11
195.6499012755994
 21
976.6185270392043
 31
0.0
  0
LINE
  5
D8
330
70
100
AcDbEntity
  8
Front$1
 62
    18
420
        0
370
    35
100
AcDbLine
 10
196.0895463779989
 20
976.6510690696314
 30
0.0
 11
196.0895463779989
 21
976.8108995377415
 31
0.0
  0
LINE
  5
D9
330
70
100
AcDbEntity
  8
Front$1
 62
    18
420
        0
370
    35
100
AcDbLine
 10
195.4983406436513
 20
976.7375576477471
 30
0.0
 11
195.4983406436513
 21
976.8256381568171
 31
0.0
  0
LINE
  5
DA
330
70
100
AcDbEntity
  8
Front$1
 62
    18
420
        0
370
    35
100
AcDbLine
 10
200.1448318899938
 20
976.5439574312459
 30
0.0
 11
200.1448318899938
 21
976.6025607021648
 31
0.0
  0
LINE
  5
DB
330
70
100
AcDbEntity
  8
Front$1
 62
    18
420
        0
370
    35
100
AcDbLine
 10
201.1380827384437
 20
976.7044382796957
 30
0.0
 11
201.1380827384437
 21
976.6454978115852
 31
0.0
  0
LINE
  5
DC
330
70
100
AcDbEntity
  8
Front$1
 62
    18
420
        0
370
    35
100
AcDbLine
 10
211.5986160093626
 20
1040.396795272088
 30
0.0
 11
184.5828172966649
 21
1040.396795272088
 31
0.0
  0
LINE
  5
DD
330
70
100
AcDbEntity
  8
Front$1
 62
    18
420
        0
370
    35
100
AcDbLine
 10
194.0351209596256
 20
977.1879770509068
 30
0.0
 11
194.0351209596256
 21
977.3117774488
 31
0.0
  0
LINE
  5
DE
330
70
100
AcDbEntity
  8
Front$1
 62
    18
420
        0
370
    35
100
AcDbLine
 10
195.0283728086597
 20
977.166842691632
 30
0.0
 11
195.0283728086597
 21
977.0429752545352
 31
0.0
  0
LINE
  5
DF
330
70
100
AcDbEntity
  8
Front$1
 62
    18
420
        0
370
    35
100
AcDbLine
 10
194.8841464657698
 20
977.249496026916
 30
0.0
 11
194.8841464657698
 21
977.3599306085435
 31
0.0
  0
LINE
  5
E0
330
70
100
AcDbEntity
  8
Front$1
 62
    18
420
        0
370
    35
100
AcDbLine
 10
195.8773973142188
 20
977.2828605383265
 30
0.0
 11
195.8773973142188
 21
977.1383790462259
 31
0.0
  0
LINE
  5
E1
330
70
100
AcDbEntity
  8
Front$1
 62
    18
420
        0
370
    35
100
AcDbLine
 10
196.7264218197779
 20
977.3599336102979
 30
0.0
 11
196.7264218197779
 21
977.2933006436515
 31
0.0
  0
LINE
  5
E2
330
70
100
AcDbEntity
  8
Front$1
 62
    18
420
        0
370
    35
100
AcDbLine
 10
201.8428819016972
 20
976.9536990462256
 30
0.0
 11
201.8428819016972
 21
977.0531432007018
 31
0.0
  0
LINE
  5
E3
330
70
100
AcDbEntity
  8
Front$1
 62
    18
420
        0
370
    35
100
AcDbLine
 10
202.8361327501461
 20
977.2261763897013
 30
0.0
 11
202.8361327501461
 21
977.1259307665305
 31
0.0
  0
LINE
  5
E4
330
70
100
AcDbEntity
  8
Front$1
 62
    18
420
        0
370
    35
100
AcDbLine
 10
192.3370719485083
 20
977.2420346635463
 30
0.0
 11
192.3370719485083
 21
977.3260097717965
 31
0.0
  0
LINE
  5
E5
330
70
100
AcDbEntity
  8
Front$1
 62
    18
420
        0
370
    35
100
AcDbLine
 10
193.3303227969572
 20
977.1121497074309
 30
0.0
 11
193.3303227969572
 21
977.0283827208896
 31
0.0
  0
LINE
  5
E6
330
70
100
AcDbEntity
  8
Front$1
 62
    18
420
        0
370
    35
100
AcDbLine
 10
191.7914778876538
 20
977.1894369046222
 30
0.0
 11
191.7914778876538
 21
977.2261763897013
 31
0.0
  0
LINE
  5
E7
330
70
100
AcDbEntity
  8
Front$1
 62
    18
420
        0
370
    35
100
AcDbLine
 10
192.792063025161
 20
976.9896510708013
 30
0.0
 11
192.792063025161
 21
976.9536990462256
 31
0.0
  0
LINE
  5
E8
330
70
100
AcDbEntity
  8
Front$1
 62
    18
420
        0
370
    35
100
AcDbLine
 10
200.6830926623761
 20
976.8565582387363
 30
0.0
 11
200.6830926623761
 21
976.9628844177878
 31
0.0
  0
LINE
  5
E9
330
70
100
AcDbEntity
  8
Front$1
 62
    18
420
        0
370
    35
100
AcDbLine
 10
184.0825247279108
 20
1039.896502703335
 30
0.0
 11
212.0989085781157
 21
1039.896502703335
 31
0.0
  0
LINE
  5
EA
330
70
100
AcDbEntity
  8
Front$1
 62
    18
420
        0
370
    35
100
AcDbLine
 10
184.0825247279108
 20
1012.380411421884
 30
0.0
 11
212.0989085781157
 21
1012.380411421884
 31
0.0
  0
LINE
  5
EB
330
70
100
AcDbEntity
  8
Front$1
 62
    18
420
        0
370
    35
100
AcDbLine
 10
212.0989085781157
 20
1012.380411421884
 30
0.0
 11
212.0989085781157
 21
1028.039408730252
 31
0.0
  0
LINE
  5
EC
330
70
100
AcDbEntity
  8
Front$1
 62
    18
420
        0
370
    35
100
AcDbLine
 10
212.0989085781157
 20
1032.742345985956
 30
0.0
 11
212.0989085781157
 21
1039.896502703335
 31
0.0
  0
LINE
  5
ED
330
70
100
AcDbEntity
  8
Front$1
 62
    18
420
        0
370
    35
100
AcDbLine
 10
184.0825247279108
 20
1039.896502703335
 30
0.0
 11
184.0825247279108
 21
1034.493342960795
 31
0.0
  0
LINE
  5
EE
330
70
100
AcDbEntity
  8
Front$1
 62
    18
420
        0
370
    35
100
AcDbLine
 10
184.0825247279108
 20
1026.288544833236
 30
0.0
 11
184.0825247279108
 21
1012.380411421884
 31
0.0
  0
LINE
  5
EF
330
70
100
AcDbEntity
  8
Front$1
 62
    18
420
        0
370
    35
100
AcDbLine
 10
464.2463632299587
 20
1008.578187899356
 30
0.0
 11
492.2627470801635
 21
1008.578187899356
 31
0.0
  0
LINE
  5
F0
330
70
100
AcDbEntity
  8
Front$1
 62
    18
420
        0
370
    35
100
AcDbLine
 10
464.2463632299587
 20
971.5565378115861
 30
0.0
 11
492.2627470801635
 21
971.5565378115861
 31
0.0
  0
LINE
  5
F1
330
70
100
AcDbEntity
  8
Front$1
 62
    18
420
        0
370
    35
100
AcDbLine
 10
464.2463632299587
 20
1008.578187899356
 30
0.0
 11
464.2463632299587
 21
1004.575894376829
 31
0.0
  0
LINE
  5
F2
330
70
100
AcDbEntity
  8
Front$1
 62
    18
420
        0
370
    35
100
AcDbLine
 10
464.2463632299587
 20
982.5632244704502
 30
0.0
 11
464.2463632299587
 21
971.5565378115861
 31
0.0
  0
LINE
  5
F3
330
70
100
AcDbEntity
  8
Front$1
 62
    18
420
        0
370
    35
100
AcDbLine
 10
492.2627470801635
 20
971.5565378115861
 30
0.0
 11
492.2627470801635
 21
975.9090831597422
 31
0.0
  0
LINE
  5
F4
330
70
100
AcDbEntity
  8
Front$1
 62
    18
420
        0
370
    35
100
AcDbLine
 10
492.2627470801635
 20
979.2110141135163
 30
0.0
 11
492.2627470801635
 21
1008.578187899356
 31
0.0
  0
LINE
  5
F5
330
70
100
AcDbEntity
  8
Front$1
 62
    18
420
        0
370
    35
100
AcDbLine
 10
762.4207342071386
 20
890.3090246459923
 30
0.0
 11
754.4160531070793
 21
890.3090246459923
 31
0.0
  0
LINE
  5
F6
330
70
100
AcDbEntity
  8
Front$1
 62
    18
420
        0
370
    35
100
AcDbLine
 10
772.4265855822123
 20
927.3306747337628
 30
0.0
 11
744.4102017320074
 21
927.3306747337628
 31
0.0
  0
LINE
  5
F7
330
70
100
AcDbEntity
  8
Front$1
 62
    18
420
        0
370
    35
100
AcDbLine
 10
772.4265855822123
 20
900.3148760210642
 30
0.0
 11
762.4207342071386
 21
890.3090246459923
 31
0.0
  0
LINE
  5
F8
330
70
100
AcDbEntity
  8
Front$1
 62
    18
420
        0
370
    35
100
AcDbLine
 10
206.3955732943241
 20
977.3599316091276
 30
0.0
 11
189.7858600117024
 21
977.3599316091276
 31
0.0
  0
LINE
  5
F9
330
70
100
AcDbEntity
  8
Front$1
 62
    18
420
        0
370
    35
100
AcDbLine
 10
744.4102017320074
 20
900.3148760210642
 30
0.0
 11
754.4160531070793
 21
890.3090246459923
 31
0.0
  0
LINE
  5
FA
330
70
100
AcDbEntity
  8
Front$1
 62
    18
420
        0
370
    35
100
AcDbLine
 10
200.827319005266
 20
976.8275772908136
 30
0.0
 11
200.827319005266
 21
976.7414209069629
 31
0.0
  0
LINE
  5
FB
330
70
100
AcDbEntity
  8
Front$1
 62
    18
420
        0
370
    35
100
AcDbLine
 10
192.9512671269749
 20
976.9060111585723
 30
0.0
 11
192.9512671269749
 21
976.9347329549445
 31
0.0
  0
LINE
  5
FC
330
70
100
AcDbEntity
  8
Front$1
 62
    18
420
        0
370
    35
100
AcDbLine
 10
195.270845605617
 20
976.5193130193093
 30
0.0
 11
195.270845605617
 21
976.5336103803392
 31
0.0
  0
LINE
  5
FD
330
70
100
AcDbEntity
  8
Front$1
 62
    18
420
        0
370
    35
100
AcDbLine
 10
200.0615631948512
 20
977.3121426623756
 30
0.0
 11
200.0615631948512
 21
977.3599326097137
 31
0.0
  0
LINE
  5
FE
330
70
100
AcDbEntity
  8
Front$1
 62
    18
420
        0
370
    35
100
AcDbLine
 10
204.465890825044
 20
977.2732759332939
 30
0.0
 11
204.465890825044
 21
977.3317591339964
 31
0.0
  0
LINE
  5
FF
330
70
100
AcDbEntity
  8
Front$1
 62
    18
420
        0
370
    35
100
AcDbLine
 10
204.7766545582208
 20
977.2806442422471
 30
0.0
 11
204.7766545582208
 21
977.3115893387949
 31
0.0
  0
LINE
  5
100
330
70
100
AcDbEntity
  8
Front$1
 62
    18
420
        0
370
    35
100
AcDbLine
 10
193.0195580631952
 20
977.3599316091276
 30
0.0
 11
193.0195580631952
 21
977.2732759332939
 31
0.0
  0
LINE
  5
101
330
70
100
AcDbEntity
  8
Front$1
 62
    18
420
        0
370
    35
100
AcDbLine
 10
192.1705335576362
 20
977.3599326097137
 30
0.0
 11
192.1705335576362
 21
977.3251302574609
 31
0.0
  0
LINE
  5
102
330
70
100
AcDbEntity
  8
Front$1
 62
    18
420
        0
370
    35
100
AcDbLine
 10
838.4652046576938
 20
896.5626817554129
 30
0.0
 11
827.4590343007602
 21
896.5626817554129
 31
0.0
  0
LINE
  5
103
330
70
100
AcDbEntity
  8
Front$1
 62
    18
420
        0
370
    35
100
AcDbLine
 10
827.4590343007602
 20
876.0506864365124
 30
0.0
 11
838.4652046576938
 21
876.0506864365124
 31
0.0
  0
LINE
  5
104
330
70
100
AcDbEntity
  8
Front$1
 62
    18
420
        0
370
    35
100
AcDbLine
 10
774.9280484259798
 20
900.3148760210642
 30
0.0
 11
774.9280484259798
 21
886.3066840959618
 31
0.0
  0
LINE
  5
105
330
70
100
AcDbEntity
  8
Front$1
 62
    18
420
        0
370
    35
100
AcDbLine
 10
774.9280484259798
 20
886.3066840959618
 30
0.0
 11
774.9280484259798
 21
872.2984921708594
 31
0.0
  0
LINE
  5
106
330
70
100
AcDbEntity
  8
Front$1
 62
    18
420
        0
370
    35
100
AcDbLine
 10
739.4072760444705
 20
900.3148760210642
 30
0.0
 11
739.4072760444705
 21
872.2984921708594
 31
0.0
  0
LINE
  5
107
330
70
100
AcDbEntity
  8
Front$1
 62
    18
420
        0
370
    35
100
AcDbLine
 10
774.9280484259798
 20
900.3148760210642
 30
0.0
 11
772.4264835225276
 21
900.3148760210642
 31
0.0
  0
LINE
  5
108
330
70
100
AcDbEntity
  8
Front$1
 62
    18
420
        0
370
    35
100
AcDbLine
 10
744.4102637682845
 20
900.3148760210642
 30
0.0
 11
739.4072760444705
 21
900.3148760210642
 31
0.0
  0
LINE
  5
109
330
70
100
AcDbEntity
  8
Front$1
 62
    18
420
        0
370
    35
100
AcDbLine
 10
739.4072760444705
 20
872.2984921708594
 30
0.0
 11
774.9280484259798
 21
872.2984921708594
 31
0.0
  0
LINE
  5
10A
330
70
100
AcDbEntity
  8
Front$1
 62
    18
420
        0
370
    35
100
AcDbLine
 10
197.6357255763605
 20
977.3277047630189
 30
0.0
 11
197.6357255763605
 21
977.3599806377998
 31
0.0
  0
LINE
  5
10B
330
70
100
AcDbEntity
  8
Front$1
 62
    18
420
        0
370
    35
100
AcDbLine
 10
201.2593196372145
 20
976.5611534874196
 30
0.0
 11
201.2593196372145
 21
976.5714304973672
 31
0.0
  0
LINE
  5
10C
330
70
100
AcDbEntity
  8
Front$1
 62
    18
420
        0
370
    35
100
AcDbLine
 10
192.6025351901698
 20
976.9628844177878
 30
0.0
 11
192.6025351901698
 21
976.9814442715032
 31
0.0
  0
LINE
  5
10D
330
70
100
AcDbEntity
  8
Front$1
 62
    18
420
        0
370
    35
100
AcDbLine
 10
204.4279226214158
 20
977.166842691632
 30
0.0
 11
204.4279226214158
 21
977.1880170743125
 31
0.0
  0
LINE
  5
10E
330
70
100
AcDbEntity
  8
Front$1
 62
    18
420
        0
370
    35
100
AcDbLine
 10
195.7711381743711
 20
976.4660258572266
 30
0.0
 11
195.7711381743711
 21
976.4946385898182
 31
0.0
  0
LINE
  5
10F
330
70
100
AcDbEntity
  8
Front$1
 62
    18
420
        0
370
    35
100
AcDbLine
 10
191.4427459508488
 20
977.249496026916
 30
0.0
 11
191.4427459508488
 21
977.282912568754
 31
0.0
  0
LINE
  5
110
330
70
100
AcDbEntity
  8
Front$1
 62
    18
420
        0
370
    35
100
AcDbLine
 10
203.2681333820947
 20
976.8959112521942
 30
0.0
 11
203.2681333820947
 21
976.9312939438268
 31
0.0
  0
LINE
  5
111
330
70
100
AcDbEntity
  8
Front$1
 62
    18
420
        0
370
    35
100
AcDbLine
 10
194.6186832241074
 20
976.6024386307782
 30
0.0
 11
194.6186832241074
 21
976.6442360737274
 31
0.0
  0
LINE
  5
112
330
70
100
AcDbEntity
  8
Front$1
 62
    18
420
        0
370
    35
100
AcDbLine
 10
202.1083441427736
 20
976.6856222761854
 30
0.0
 11
202.1083441427736
 21
976.735019163253
 31
0.0
  0
LINE
  5
113
330
70
100
AcDbEntity
  8
Front$1
 62
    18
420
        0
370
    35
100
AcDbLine
 10
193.4588939847863
 20
976.7975657401985
 30
0.0
 11
193.4588939847863
 21
976.8537686073724
 31
0.0
  0
LINE
  5
114
330
70
100
AcDbEntity
  8
Front$1
 62
    18
420
        0
370
    35
100
AcDbLine
 10
200.9485549034525
 20
976.5344508718545
 30
0.0
 11
200.9485549034525
 21
976.5977408835579
 31
0.0
  0
LINE
  5
115
330
70
100
AcDbEntity
  8
Front$1
 62
    18
420
        0
370
    35
100
AcDbLine
 10
192.2844361673496
 20
977.0547041135168
 30
0.0
 11
192.2844361673496
 21
977.1273275833818
 31
0.0
  0
LINE
  5
116
330
70
100
AcDbEntity
  8
Front$1
 62
    18
420
        0
370
    35
100
AcDbLine
 10
204.1171578876538
 20
977.110076495026
 30
0.0
 11
204.1171578876538
 21
977.1855526331183
 31
0.0
  0
LINE
  5
117
330
70
100
AcDbEntity
  8
Front$1
 62
    18
420
        0
370
    35
100
AcDbLine
 10
195.4677077296665
 20
976.5253855705086
 30
0.0
 11
195.4677077296665
 21
976.6063279052078
 31
0.0
  0
LINE
  5
118
330
70
100
AcDbEntity
  8
Front$1
 62
    18
420
        0
370
    35
100
AcDbLine
 10
202.9573686483327
 20
976.8688494265653
 30
0.0
 11
202.9573686483327
 21
976.9580155705089
 31
0.0
  0
LINE
  5
119
330
70
100
AcDbEntity
  8
Front$1
 62
    18
420
        0
370
    35
100
AcDbLine
 10
194.3079184903454
 20
976.6909994207136
 30
0.0
 11
194.3079184903454
 21
976.7865412931541
 31
0.0
  0
LINE
  5
11A
330
70
100
AcDbEntity
  8
Front$1
 62
    18
420
        0
370
    35
100
AcDbLine
 10
201.7975794090107
 20
976.6876604681101
 30
0.0
 11
201.7975794090107
 21
976.7905016091281
 31
0.0
  0
LINE
  5
11B
330
70
100
AcDbEntity
  8
Front$1
 62
    18
420
        0
370
    35
100
AcDbLine
 10
193.1481292510243
 20
976.915963978935
 30
0.0
 11
193.1481292510243
 21
977.0265656582797
 31
0.0
  0
LINE
  5
11C
330
70
100
AcDbEntity
  8
Front$1
 62
    18
420
        0
370
    35
100
AcDbLine
 10
200.6377901696896
 20
976.565207858397
 30
0.0
 11
200.6377901696896
 21
976.6818370626097
 31
0.0
  0
LINE
  5
11D
330
70
100
AcDbEntity
  8
Front$1
 62
    18
420
        0
370
    35
100
AcDbLine
 10
191.9883400117023
 20
977.2019172030423
 30
0.0
 11
191.9883400117023
 21
977.3281580280864
 31
0.0
  0
LINE
  5
11E
330
70
100
AcDbEntity
  8
Front$1
 62
    18
420
        0
370
    35
100
AcDbLine
 10
203.4956294207141
 20
977.1730763370397
 30
0.0
 11
203.4956294207141
 21
977.3580555119952
 31
0.0
  0
LINE
  5
11F
330
70
100
AcDbEntity
  8
Front$1
 62
    18
420
        0
370
    35
100
AcDbLine
 10
194.8461782621416
 20
976.8181687887654
 30
0.0
 11
194.8461782621416
 21
977.0080268168522
 31
0.0
  0
LINE
  5
120
330
70
100
AcDbEntity
  8
Front$1
 62
    18
420
        0
370
    35
100
AcDbLine
 10
202.335840181393
 20
976.9896510708013
 30
0.0
 11
202.335840181393
 21
977.1877859391461
 31
0.0
  0
LINE
  5
121
330
70
100
AcDbEntity
  8
Front$1
 62
    18
420
        0
370
    35
100
AcDbLine
 10
193.6863890228205
 20
977.0442960269164
 30
0.0
 11
193.6863890228205
 21
977.2502764833234
 31
0.0
  0
LINE
  5
122
330
70
100
AcDbEntity
  8
Front$1
 62
    18
420
        0
370
    35
100
AcDbLine
 10
201.176050942071
 20
976.8657065886483
 30
0.0
 11
201.176050942071
 21
977.07739638385
 31
0.0
  0
LINE
  5
123
330
70
100
AcDbEntity
  8
Front$1
 62
    18
420
        0
370
    35
100
AcDbLine
 10
192.5265997834994
 20
977.3317591339964
 30
0.0
 11
192.5265997834994
 21
977.3599726331186
 31
0.0
  0
LINE
  5
124
330
70
100
AcDbEntity
  8
Front$1
 62
    18
420
        0
370
    35
100
AcDbLine
 10
199.1913603042712
 20
976.7879190988878
 30
0.0
 11
199.1913603042712
 21
976.8023215213579
 31
0.0
  0
LINE
  5
125
330
70
100
AcDbEntity
  8
Front$1
 62
    18
420
        0
370
    35
100
AcDbLine
 10
196.9900730017552
 20
976.7879190988878
 30
0.0
 11
196.9900730017552
 21
976.9107689409011
 31
0.0
  0
LINE
  5
126
330
70
100
AcDbEntity
  8
Front$1
 62
    18
420
        0
370
    35
100
AcDbLine
 10
200.0918869280285
 20
976.8441820011704
 30
0.0
 11
200.0918869280285
 21
977.0241952720889
 31
0.0
  0
LINE
  5
127
330
70
100
AcDbEntity
  8
Front$1
 62
    18
420
        0
370
    35
100
AcDbLine
 10
199.6461762785257
 20
976.955373025161
 30
0.0
 11
199.6461762785257
 21
976.8122363194851
 31
0.0
  0
LINE
  5
128
330
70
100
AcDbEntity
  8
Front$1
 62
    18
420
        0
370
    35
100
AcDbLine
 10
195.6952027677007
 20
976.8565582387363
 30
0.0
 11
195.6952027677007
 21
977.0867008250442
 31
0.0
  0
LINE
  5
129
330
70
100
AcDbEntity
  8
Front$1
 62
    18
420
        0
370
    35
100
AcDbLine
 10
203.1848646869512
 20
977.2933006436515
 30
0.0
 11
203.1848646869512
 21
977.3599936454065
 31
0.0
  0
LINE
  5
12A
330
70
100
AcDbEntity
  8
Front$1
 62
    18
420
        0
370
    35
100
AcDbLine
 10
199.1913603042712
 20
976.8422988999409
 30
0.0
 11
199.1913603042712
 21
977.0033190637796
 31
0.0
  0
LINE
  5
12B
330
70
100
AcDbEntity
  8
Front$1
 62
    18
420
        0
370
    35
100
AcDbLine
 10
194.5354135283796
 20
977.0536635049738
 30
0.0
 11
194.5354135283796
 21
977.3000625980102
 31
0.0
  0
LINE
  5
12C
330
70
100
AcDbEntity
  8
Front$1
 62
    18
420
        0
370
    35
100
AcDbLine
 10
202.0250754476301
 20
977.1383790462259
 30
0.0
 11
202.0250754476301
 21
977.3599356114683
 31
0.0
  0
LINE
  5
12D
330
70
100
AcDbEntity
  8
Front$1
 62
    18
420
        0
370
    35
100
AcDbLine
 10
193.3756242890576
 20
977.3115893387949
 30
0.0
 11
193.3756242890576
 21
977.3599446167345
 31
0.0
  0
LINE
  5
12E
330
70
100
AcDbEntity
  8
Front$1
 62
    18
420
        0
370
    35
100
AcDbLine
 10
200.865286208309
 20
977.0429752545352
 30
0.0
 11
200.865286208309
 21
977.310771860737
 31
0.0
  0
LINE
  5
12F
330
70
100
AcDbEntity
  8
Front$1
 62
    18
420
        0
370
    35
100
AcDbLine
 10
196.5368939847867
 20
976.9532637916908
 30
0.0
 11
196.5368939847867
 21
977.2262084084259
 31
0.0
  0
LINE
  5
130
330
70
100
AcDbEntity
  8
Front$1
 62
    18
420
        0
370
    35
100
AcDbLine
 10
196.9900730017552
 20
976.9856447279108
 30
0.0
 11
196.9900730017552
 21
977.1347809420714
 31
0.0
  0
LINE
  5
131
330
70
100
AcDbEntity
  8
Front$1
 62
    18
420
        0
370
    35
100
AcDbLine
 10
199.705496968988
 20
977.0063968636632
 30
0.0
 11
199.705496968988
 21
977.2884398010528
 31
0.0
  0
LINE
  5
132
330
70
100
AcDbEntity
  8
Front$1
 62
    18
420
        0
370
    35
100
AcDbLine
 10
195.384439034523
 20
977.1219124166181
 30
0.0
 11
195.384439034523
 21
977.3599686307779
 31
0.0
  0
LINE
  5
133
330
70
100
AcDbEntity
  8
Front$1
 62
    18
420
        0
370
    35
100
AcDbLine
 10
194.2173155061436
 20
977.3507212229379
 30
0.0
 11
194.2173155061436
 21
977.359934610884
 31
0.0
  0
LINE
  5
134
330
70
100
AcDbEntity
  8
Front$1
 62
    18
420
        0
370
    35
100
AcDbLine
 10
201.7143107138681
 20
977.3472912170856
 30
0.0
 11
201.7143107138681
 21
977.3599626272671
 31
0.0
  0
LINE
  5
135
330
70
100
AcDbEntity
  8
Front$1
 62
    18
420
        0
370
    35
100
AcDbLine
 10
193.8685835693386
 20
977.3599306085435
 30
0.0
 11
193.8685835693386
 21
977.2806442422471
 31
0.0
  0
LINE
  5
136
330
70
100
AcDbEntity
  8
Front$1
 62
    18
420
        0
370
    35
100
AcDbLine
 10
204.9282151901698
 20
977.3129401287306
 30
0.0
 11
204.9282151901698
 21
977.3021378115855
 31
0.0
  0
LINE
  5
137
330
70
100
AcDbEntity
  8
Front$1
 62
    18
420
        0
370
    35
100
AcDbLine
 10
200.0918869280285
 20
976.4632022059686
 30
0.0
 11
200.0918869280285
 21
976.4386768636631
 31
0.0
  0
LINE
  5
138
330
70
100
AcDbEntity
  8
Front$1
 62
    18
420
        0
370
    35
100
AcDbLine
 10
200.5998229666475
 20
976.497772422469
 30
0.0
 11
200.5998229666475
 21
976.4854081919247
 31
0.0
  0
LINE
  5
139
330
70
100
AcDbEntity
  8
Front$1
 62
    18
420
        0
370
    35
100
AcDbLine
 10
201.7596122059686
 20
976.6323261088356
 30
0.0
 11
201.7596122059686
 21
976.6269959918082
 31
0.0
  0
LINE
  5
13A
330
70
100
AcDbEntity
  8
Front$1
 62
    18
420
        0
370
    35
100
AcDbLine
 10
200.7590270684614
 20
976.5006350965476
 30
0.0
 11
200.7590270684614
 21
976.5058631538913
 31
0.0
  0
LINE
  5
13B
330
70
100
AcDbEntity
  8
Front$1
 62
    18
420
        0
370
    35
100
AcDbLine
 10
196.0895463779989
 20
976.4397054651844
 30
0.0
 11
196.0895463779989
 21
976.4591408308952
 31
0.0
  0
LINE
  5
13C
330
70
100
AcDbEntity
  8
Front$1
 62
    18
420
        0
370
    35
100
AcDbLine
 10
199.2125386892921
 20
977.0446122118201
 30
0.0
 11
199.2125386892921
 21
977.185495599766
 31
0.0
  0
LINE
  5
13D
330
70
100
AcDbEntity
  8
Front$1
 62
    18
420
        0
370
    35
100
AcDbLine
 10
200.2057895377411
 20
977.2524167349329
 30
0.0
 11
200.2057895377411
 21
977.110076495026
 31
0.0
  0
LINE
  5
13E
330
70
100
AcDbEntity
  8
Front$1
 62
    18
420
        0
370
    35
100
AcDbLine
 10
200.3723279286132
 20
977.0543118841423
 30
0.0
 11
200.3723279286132
 21
977.1879770509068
 31
0.0
  0
LINE
  5
13F
330
70
100
AcDbEntity
  8
Front$1
 62
    18
420
        0
370
    35
100
AcDbLine
 10
201.3655787770622
 20
977.3021378115855
 30
0.0
 11
201.3655787770622
 21
977.166842691632
 31
0.0
  0
LINE
  5
140
330
70
100
AcDbEntity
  8
Front$1
 62
    18
420
        0
370
    35
100
AcDbLine
 10
201.5321171679343
 20
977.1219124166181
 30
0.0
 11
201.5321171679343
 21
977.249496026916
 31
0.0
  0
LINE
  5
141
330
70
100
AcDbEntity
  8
Front$1
 62
    18
420
        0
370
    35
100
AcDbLine
 10
202.5253680163842
 20
977.3599296079574
 30
0.0
 11
202.5253680163842
 21
977.2828605383265
 31
0.0
  0
LINE
  5
142
330
70
100
AcDbEntity
  8
Front$1
 62
    18
420
        0
370
    35
100
AcDbLine
 10
202.6919064072554
 20
977.2496461146866
 30
0.0
 11
202.6919064072554
 21
977.3705027911056
 31
0.0
  0
LINE
  5
143
330
70
100
AcDbEntity
  8
Front$1
 62
    18
420
        0
370
    35
100
AcDbLine
 10
203.0026711410183
 20
977.1099264072555
 30
0.0
 11
203.0026711410183
 21
977.2026586366301
 31
0.0
  0
LINE
  5
144
330
70
100
AcDbEntity
  8
Front$1
 62
    18
420
        0
370
    35
100
AcDbLine
 10
203.9959219894672
 20
977.3599316091276
 30
0.0
 11
203.9959219894672
 21
977.3305514277353
 31
0.0
  0
LINE
  5
145
330
70
100
AcDbEntity
  8
Front$1
 62
    18
420
        0
370
    35
100
AcDbLine
 10
203.3134348741951
 20
977.0295103803391
 30
0.0
 11
203.3134348741951
 21
977.0946264599178
 31
0.0
  0
LINE
  5
146
330
70
100
AcDbEntity
  8
Front$1
 62
    18
420
        0
370
    35
100
AcDbLine
 10
772.4265855822123
 20
900.3148760210642
 30
0.0
 11
772.4265855822123
 21
919.6761984318309
 31
0.0
  0
LINE
  5
147
330
70
100
AcDbEntity
  8
Front$1
 62
    18
420
        0
370
    35
100
AcDbLine
 10
772.4265855822123
 20
922.9781293856049
 30
0.0
 11
772.4265855822123
 21
927.3306747337628
 31
0.0
  0
LINE
  5
148
330
70
100
AcDbEntity
  8
Front$1
 62
    18
420
        0
370
    35
100
AcDbLine
 10
744.4102017320074
 20
927.3306747337628
 30
0.0
 11
744.4102017320074
 21
900.3148760210642
 31
0.0
  0
LINE
  5
149
330
70
100
AcDbEntity
  8
Front$1
 62
    18
420
        0
370
    35
100
AcDbLine
 10
211.5986160093626
 20
1011.579943311878
 30
0.0
 11
211.5986160093626
 21
1012.380411421884
 31
0.0
  0
LINE
  5
14A
330
70
100
AcDbEntity
  8
Front$1
 62
    18
420
        0
370
    35
100
AcDbLine
 10
184.5828172966649
 20
1012.380411421884
 30
0.0
 11
184.5828172966649
 21
1011.579943311878
 31
0.0
  0
LINE
  5
14B
330
70
100
AcDbEntity
  8
Front$1
 62
    18
420
        0
370
    35
100
AcDbLine
 10
716.5939349093041
 20
872.3268287419541
 30
0.0
 11
716.5939349093041
 21
846.2832785956706
 31
0.0
  0
LINE
  5
14C
330
70
100
AcDbEntity
  8
Front$1
 62
    18
420
        0
370
    35
100
AcDbLine
 10
724.5986160093616
 20
846.2832785956706
 30
0.0
 11
724.5986160093616
 21
872.296303891164
 31
0.0
  0
LINE
  5
14D
330
70
100
AcDbEntity
  8
Front$1
 62
    18
420
        0
370
    35
100
AcDbLine
 10
212.0989085781157
 20
1032.742318970157
 30
0.0
 11
212.0989085781157
 21
1028.039568823873
 31
0.0
  0
LINE
  5
14E
330
70
100
AcDbEntity
  8
Front$1
 62
    18
420
        0
370
    35
100
AcDbLine
 10
201.6763435108251
 20
977.0883688004678
 30
0.0
 11
201.6763435108251
 21
976.9814022469281
 31
0.0
  0
LINE
  5
14F
330
70
100
AcDbEntity
  8
Front$1
 62
    18
420
        0
370
    35
100
AcDbLine
 10
202.4644103686369
 20
976.7941377355182
 30
0.0
 11
202.4644103686369
 21
976.8388508835577
 31
0.0
  0
LINE
  5
150
330
70
100
AcDbEntity
  8
Front$1
 62
    18
420
        0
370
    35
100
AcDbLine
 10
203.4576612170858
 20
977.0350576243417
 30
0.0
 11
203.4576612170858
 21
976.9898892100645
 31
0.0
  0
LINE
  5
151
330
70
100
AcDbEntity
  8
Front$1
 62
    18
420
        0
370
    35
100
AcDbLine
 10
202.7678408133415
 20
976.8003523698071
 30
0.0
 11
202.7678408133415
 21
976.8181687887654
 31
0.0
  0
LINE
  5
152
330
70
100
AcDbEntity
  8
Front$1
 62
    18
420
        0
370
    35
100
AcDbLine
 10
203.7684259508487
 20
977.0277623581041
 30
0.0
 11
203.7684259508487
 21
977.0097948507901
 31
0.0
  0
LINE
  5
153
330
70
100
AcDbEntity
  8
Front$1
 62
    18
420
        0
370
    35
100
AcDbLine
 10
192.640502393212
 20
977.0452635927441
 30
0.0
 11
192.640502393212
 21
977.1010372088939
 31
0.0
  0
LINE
  5
154
330
70
100
AcDbEntity
  8
Front$1
 62
    18
420
        0
370
    35
100
AcDbLine
 10
193.6410875307201
 20
976.9000216559389
 30
0.0
 11
193.6410875307201
 21
976.8439768812168
 31
0.0
  0
LINE
  5
155
330
70
100
AcDbEntity
  8
Front$1
 62
    18
420
        0
370
    35
100
AcDbLine
 10
193.4968611878294
 20
976.9579675424228
 30
0.0
 11
193.4968611878294
 21
977.0337158396724
 31
0.0
  0
LINE
  5
156
330
70
100
AcDbEntity
  8
Front$1
 62
    18
420
        0
370
    35
100
AcDbLine
 10
200.5545214745461
 20
977.2806442422471
 30
0.0
 11
200.5545214745461
 21
977.3599806377998
 31
0.0
  0
LINE
  5
157
330
70
100
AcDbEntity
  8
Front$1
 62
    18
420
        0
370
    35
100
AcDbLine
 10
196.2334635400821
 20
977.2496461146866
 30
0.0
 11
196.2334635400821
 21
977.3599796372145
 31
0.0
  0
LINE
  5
158
330
70
100
AcDbEntity
  8
Front$1
 62
    18
420
        0
370
    35
100
AcDbLine
 10
199.3947322352251
 20
977.2732759332939
 30
0.0
 11
199.3947322352251
 21
977.3599746342888
 31
0.0
  0
LINE
  5
159
330
70
100
AcDbEntity
  8
Front$1
 62
    18
420
        0
370
    35
100
AcDbLine
 10
198.234942995904
 20
977.3251302574609
 30
0.0
 11
198.234942995904
 21
977.3599506202454
 31
0.0
  0
LINE
  5
15A
330
70
100
AcDbEntity
  8
Front$1
 62
    18
420
        0
370
    35
100
AcDbLine
 10
196.9900730017552
 20
976.38331748976
 30
0.0
 11
196.9900730017552
 21
976.7879190988878
 31
0.0
  0
LINE
  5
15B
330
70
100
AcDbEntity
  8
Front$1
 62
    18
420
        0
370
    35
100
AcDbLine
 10
196.3473661497955
 20
976.8247226214162
 30
0.0
 11
196.3473661497955
 21
976.9056829666469
 31
0.0
  0
LINE
  5
15C
330
70
100
AcDbEntity
  8
Front$1
 62
    18
420
        0
370
    35
100
AcDbLine
 10
196.9900730017552
 20
976.9107629373902
 30
0.0
 11
196.9900730017552
 21
976.9856447279108
 31
0.0
  0
LINE
  5
15D
330
70
100
AcDbEntity
  8
Front$1
 62
    18
420
        0
370
    35
100
AcDbLine
 10
196.0366014160327
 20
977.0528050029261
 30
0.0
 11
196.0366014160327
 21
977.1894369046222
 31
0.0
  0
LINE
  5
15E
330
70
100
AcDbEntity
  8
Front$1
 62
    18
420
        0
370
    35
100
AcDbLine
 10
196.9900730017552
 20
977.1347729373902
 30
0.0
 11
196.9900730017552
 21
977.1813811936809
 31
0.0
  0
LINE
  5
15F
330
70
100
AcDbEntity
  8
Front$1
 62
    18
420
        0
370
    35
100
AcDbLine
 10
196.8929602106491
 20
977.2015800058516
 30
0.0
 11
196.8929602106491
 21
977.360426898771
 31
0.0
  0
LINE
  5
160
330
70
100
AcDbEntity
  8
Front$1
 62
    18
420
        0
370
    35
100
AcDbLine
 10
197.886211059099
 20
977.3305514277353
 30
0.0
 11
197.886211059099
 21
977.2386436805145
 31
0.0
  0
LINE
  5
161
330
70
100
AcDbEntity
  8
Front$1
 62
    18
420
        0
370
    35
100
AcDbLine
 10
198.0454151609128
 20
977.2381844119372
 30
0.0
 11
198.0454151609128
 21
977.2431973434759
 31
0.0
  0
LINE
  5
162
330
70
100
AcDbEntity
  8
Front$1
 62
    18
420
        0
370
    35
100
AcDbLine
 10
199.04600029842
 20
977.261865260386
 30
0.0
 11
199.04600029842
 21
977.2487005617321
 31
0.0
  0
LINE
  5
163
330
70
100
AcDbEntity
  8
Front$1
 62
    18
420
        0
370
    35
100
AcDbLine
 10
199.1913603042712
 20
977.003315061439
 30
0.0
 11
199.1913603042712
 21
977.2521525804569
 31
0.0
  0
LINE
  5
164
330
70
100
AcDbEntity
  8
Front$1
 62
    18
420
        0
370
    35
100
AcDbLine
 10
724.5986160093616
 20
846.2832785956706
 30
0.0
 11
716.5939349093041
 21
846.2832785956706
 31
0.0
  0
LINE
  5
165
330
70
100
AcDbEntity
  8
Front$1
 62
    18
420
        0
370
    35
100
AcDbLine
 10
724.0983234406085
 20
845.7829860269157
 30
0.0
 11
717.0942274780572
 21
845.7829860269157
 31
0.0
  0
LINE
  5
166
330
70
100
AcDbEntity
  8
Front$1
 62
    18
420
        0
370
    35
100
AcDbLine
 10
212.0989085781157
 20
982.5629743241661
 30
0.0
 11
464.2463632299587
 21
982.5629743241661
 31
0.0
  0
LINE
  5
167
330
70
100
AcDbEntity
  8
Front$1
 62
    18
420
        0
370
    35
100
AcDbLine
 10
157.5670185839672
 20
1026.88889591574
 30
0.0
 11
157.5670185839672
 21
1033.892991878291
 31
0.0
  0
LINE
  5
168
330
70
100
AcDbEntity
  8
Front$1
 62
    18
420
        0
370
    35
100
AcDbLine
 10
158.0673111527212
 20
1026.388603346986
 30
0.0
 11
158.0673111527212
 21
1034.393284447045
 31
0.0
  0
LINE
  5
169
330
70
100
AcDbEntity
  8
Front$1
 62
    18
420
        0
370
    35
100
AcDbLine
 10
184.1108612990056
 20
1034.393284447045
 30
0.0
 11
158.0673111527212
 21
1034.393284447045
 31
0.0
  0
LINE
  5
16A
330
70
100
AcDbEntity
  8
Front$1
 62
    18
420
        0
370
    35
100
AcDbLine
 10
158.0673111527212
 20
1026.388603346986
 30
0.0
 11
184.1104320479817
 21
1026.388603346986
 31
0.0
  0
LINE
  5
16B
330
70
100
AcDbEntity
  8
Front$1
 62
    18
420
        0
370
    35
100
AcDbLine
 10
772.4265855822123
 20
927.3306747337628
 30
0.0
 11
744.4102017320074
 21
927.3306747337628
 31
0.0
  0
LINE
  5
16C
330
70
100
AcDbEntity
  8
Front$1
 62
    18
420
        0
370
    35
100
AcDbLine
 10
772.4265855822123
 20
964.3523248215332
 30
0.0
 11
744.4102017320074
 21
964.3523248215332
 31
0.0
  0
LINE
  5
16D
330
70
100
AcDbEntity
  8
Front$1
 62
    18
420
        0
370
    35
100
AcDbLine
 10
772.4265855822123
 20
927.3306747337628
 30
0.0
 11
772.4265855822123
 21
964.3523248215332
 31
0.0
  0
LINE
  5
16E
330
70
100
AcDbEntity
  8
Front$1
 62
    18
420
        0
370
    35
100
AcDbLine
 10
744.4102017320074
 20
964.3523248215332
 30
0.0
 11
744.4102017320074
 21
960.3498591983615
 31
0.0
  0
LINE
  5
16F
330
70
100
AcDbEntity
  8
Front$1
 62
    18
420
        0
370
    35
100
AcDbLine
 10
744.4102017320074
 20
938.3369241369219
 30
0.0
 11
744.4102017320074
 21
927.3306747337628
 31
0.0
  0
LINE
  5
170
330
70
100
AcDbEntity
  8
Front$1
 62
    18
420
        0
370
    35
100
AcDbLine
 10
774.9280484259798
 20
900.3148760210642
 30
0.0
 11
774.9280484259798
 21
872.2984921708594
 31
0.0
  0
LINE
  5
171
330
70
100
AcDbEntity
  8
Front$1
 62
    18
420
        0
370
    35
100
AcDbLine
 10
807.4465651023983
 20
900.3148760210642
 30
0.0
 11
774.9280484259798
 21
900.3148760210642
 31
0.0
  0
LINE
  5
172
330
70
100
AcDbEntity
  8
Front$1
 62
    18
420
        0
370
    35
100
AcDbLine
 10
774.9280484259798
 20
872.2984921708594
 30
0.0
 11
807.4465651023983
 21
872.2984921708594
 31
0.0
  0
LINE
  5
173
330
70
100
AcDbEntity
  8
Front$1
 62
    18
420
        0
370
    35
100
AcDbLine
 10
738.606807934464
 20
872.2984921708594
 30
0.0
 11
738.606807934464
 21
900.3148760210642
 31
0.0
  0
LINE
  5
174
330
70
100
AcDbEntity
  8
Front$1
 62
    18
420
        0
370
    35
100
AcDbLine
 10
738.606807934464
 20
900.3148760210642
 30
0.0
 11
722.9478106260976
 21
900.3148760210642
 31
0.0
  0
LINE
  5
175
330
70
100
AcDbEntity
  8
Front$1
 62
    18
420
        0
370
    35
100
AcDbLine
 10
718.2448733703913
 20
900.3148760210642
 30
0.0
 11
711.0907166530141
 21
900.3148760210642
 31
0.0
  0
LINE
  5
176
330
70
100
AcDbEntity
  8
Front$1
 62
    18
420
        0
370
    35
100
AcDbLine
 10
711.0907166530141
 20
872.2984921708594
 30
0.0
 11
716.4938763955524
 21
872.2984921708594
 31
0.0
  0
LINE
  5
177
330
70
100
AcDbEntity
  8
Front$1
 62
    18
420
        0
370
    35
100
AcDbLine
 10
724.6986745231133
 20
872.2984921708594
 30
0.0
 11
738.606807934464
 21
872.2984921708594
 31
0.0
  0
LINE
  5
178
330
70
100
AcDbEntity
  8
Front$1
 62
    18
420
        0
370
    35
100
AcDbLine
 10
711.0907166530141
 20
872.2984921708594
 30
0.0
 11
711.0907166530141
 21
900.3148760210642
 31
0.0
  0
LINE
  5
179
330
70
100
AcDbEntity
  8
Front$1
 62
    18
420
        0
370
    35
100
AcDbLine
 10
710.5904240842591
 20
899.8145834523111
 30
0.0
 11
710.5904240842591
 21
872.7987847396143
 31
0.0
  0
LINE
  5
17A
330
70
100
AcDbEntity
  8
Front$1
 62
    18
420
        0
370
    35
100
AcDbLine
 10
200.4555966237567
 20
976.4939992159161
 30
0.0
 11
200.4555966237567
 21
976.5257928086603
 31
0.0
  0
LINE
  5
17B
330
70
100
AcDbEntity
  8
Front$1
 62
    18
420
        0
370
    35
100
AcDbLine
 10
201.4488474722057
 20
976.6395053071974
 30
0.0
 11
201.4488474722057
 21
976.6074695728493
 31
0.0
  0
LINE
  5
17C
330
70
100
AcDbEntity
  8
Front$1
 62
    18
420
        0
370
    35
100
AcDbLine
 10
194.111056366296
 20
976.6830687829141
 30
0.0
 11
194.111056366296
 21
976.7044382796957
 31
0.0
  0
LINE
  5
17D
330
70
100
AcDbEntity
  8
Front$1
 62
    18
420
        0
370
    35
100
AcDbLine
 10
195.1116415038032
 20
976.565207858397
 30
0.0
 11
195.1116415038032
 21
976.5437383031011
 31
0.0
  0
LINE
  5
17E
330
70
100
AcDbEntity
  8
Front$1
 62
    18
420
        0
370
    35
100
AcDbLine
 10
194.9674151609124
 20
976.5977148683441
 30
0.0
 11
194.9674151609124
 21
976.6385947747222
 31
0.0
  0
LINE
  5
17F
330
70
100
AcDbEntity
  8
Front$1
 62
    18
420
        0
370
    35
100
AcDbLine
 10
195.9606660093623
 20
976.5344508718545
 30
0.0
 11
195.9606660093623
 21
976.4934949210065
 31
0.0
  0
LINE
  5
180
330
70
100
AcDbEntity
  8
Front$1
 62
    18
420
        0
370
    35
100
AcDbLine
 10
196.0895463779989
 20
976.5331090871859
 30
0.0
 11
196.0895463779989
 21
976.6277364248098
 31
0.0
  0
LINE
  5
181
330
70
100
AcDbEntity
  8
Front$1
 62
    18
420
        0
370
    35
100
AcDbLine
 10
195.8091053774133
 20
976.5716356173198
 30
0.0
 11
195.8091053774133
 21
976.6323261088356
 31
0.0
  0
LINE
  5
182
330
70
100
AcDbEntity
  8
Front$1
 62
    18
420
        0
370
    35
100
AcDbLine
 10
200.0918869280285
 20
976.526387156232
 30
0.0
 11
200.0918869280285
 21
976.4719913458165
 31
0.0
  0
LINE
  5
183
330
70
100
AcDbEntity
  8
Front$1
 62
    18
420
        0
370
    35
100
AcDbLine
 10
200.2890582328846
 20
976.5336103803392
 30
0.0
 11
200.2890582328846
 21
976.4945685488592
 31
0.0
  0
LINE
  5
184
330
70
100
AcDbEntity
  8
Front$1
 62
    18
420
        0
370
    35
100
AcDbLine
 10
205.0874192919837
 20
977.3472912170856
 30
0.0
 11
205.0874192919837
 21
977.3507212229379
 31
0.0
  0
LINE
  5
185
330
70
100
AcDbEntity
  8
Front$1
 62
    18
420
        0
370
    35
100
AcDbLine
 10
204.1624603803393
 20
977.326379988297
 30
0.0
 11
204.1624603803393
 21
977.3599326097137
 31
0.0
  0
LINE
  5
186
330
70
100
AcDbEntity
  8
Front$1
 62
    18
420
        0
370
    35
100
AcDbLine
 10
827.4587681451139
 20
916.3242382211828
 30
0.0
 11
827.4587681451139
 21
856.2891299707425
 31
0.0
  0
LINE
  5
187
330
70
100
AcDbEntity
  8
Front$1
 62
    18
420
        0
370
    35
100
AcDbLine
 10
808.4476505324746
 20
916.3242382211828
 30
0.0
 11
808.4476505324746
 21
856.2891299707425
 31
0.0
  0
LINE
  5
188
330
70
100
AcDbEntity
  8
Front$1
 62
    18
420
        0
370
    35
100
AcDbLine
 10
827.4587681451139
 20
916.3242382211828
 30
0.0
 11
808.4476505324746
 21
916.3242382211828
 31
0.0
  0
LINE
  5
189
330
70
100
AcDbEntity
  8
Front$1
 62
    18
420
        0
370
    35
100
AcDbLine
 10
808.4476505324746
 20
856.2891299707425
 30
0.0
 11
827.4587681451139
 21
856.2891299707425
 31
0.0
  0
SPLINE
  5
18A
330
70
100
AcDbEntity
  8
Front$1
 62
    18
420
        0
370
    35
100
AcDbSpline
210
0.0
220
0.0
230
1.0
 70
     8
 71
     3
 72
     8
 73
     4
 74
     0
 42
0.0000000001
 43
0.0000000001
 40
0.0
 40
0.0
 40
0.0
 40
0.0
 40
1.0
 40
1.0
 40
1.0
 40
1.0
 10
206.3955732943241
 20
977.3599316091276
 30
0.0
 10
207.058702789147
 20
977.3599316091276
 30
0.0
 10
207.5962754593329
 20
977.8975042793135
 30
0.0
 10
207.5962754593329
 20
978.5606337741365
 30
0.0
  0
SPLINE
  5
18B
330
70
100
AcDbEntity
  8
Front$1
 62
    18
420
        0
370
    35
100
AcDbSpline
210
0.0
220
0.0
230
1.0
 70
     8
 71
     3
 72
     8
 73
     4
 74
     0
 42
0.0000000001
 43
0.0000000001
 40
0.0
 40
0.0
 40
0.0
 40
0.0
 40
1.0
 40
1.0
 40
1.0
 40
1.0
 10
711.0907166530141
 20
900.3148760210642
 30
0.0
 10
710.8144126968364
 20
900.3148760210642
 30
0.0
 10
710.5904240842591
 20
900.0908874084871
 30
0.0
 10
710.5904240842591
 20
899.8145834523111
 30
0.0
  0
SPLINE
  5
18C
330
70
100
AcDbEntity
  8
Front$1
 62
    18
420
        0
370
    35
100
AcDbSpline
210
0.0
220
0.0
230
1.0
 70
     8
 71
     3
 72
     8
 73
     4
 74
     0
 42
0.0000000001
 43
0.0000000001
 40
0.0
 40
0.0
 40
0.0
 40
0.0
 40
1.0
 40
1.0
 40
1.0
 40
1.0
 10
710.5904240842591
 20
872.7987847396143
 30
0.0
 10
710.5904240842591
 20
872.5224807834383
 30
0.0
 10
710.8144126968364
 20
872.2984921708594
 30
0.0
 10
711.0907166530141
 20
872.2984921708594
 30
0.0
  0
SPLINE
  5
18D
330
70
100
AcDbEntity
  8
Front$1
 62
    18
420
        0
370
    35
100
AcDbSpline
210
0.0
220
0.0
230
1.0
 70
     8
 71
     3
 72
     8
 73
     4
 74
     0
 42
0.0000000001
 43
0.0000000001
 40
0.0
 40
0.0
 40
0.0
 40
0.0
 40
1.0
 40
1.0
 40
1.0
 40
1.0
 10
199.6461759996982
 20
976.8122368011772
 30
0.0
 10
199.794838931376
 20
976.8215507156101
 30
0.0
 10
199.9434152087151
 20
976.8321997073945
 30
0.0
 10
200.0918868532372
 20
976.8441824879483
 30
0.0
  0
SPLINE
  5
18E
330
70
100
AcDbEntity
  8
Front$1
 62
    18
420
        0
370
    35
100
AcDbSpline
210
0.0
220
0.0
230
1.0
 70
     8
 71
     3
 72
     8
 73
     4
 74
     0
 42
0.0000000001
 43
0.0000000001
 40
0.0
 40
0.0
 40
0.0
 40
0.0
 40
1.0
 40
1.0
 40
1.0
 40
1.0
 10
199.1913604544879
 20
976.787919885125
 30
0.0
 10
199.2368354571672
 20
976.7899339119585
 30
0.0
 10
199.2823048461059
 20
976.7920727545034
 30
0.0
 10
199.327768107466
 20
976.7943363885878
 30
0.0
  0
SPLINE
  5
18F
330
70
100
AcDbEntity
  8
Front$1
 62
    18
420
        0
370
    35
100
AcDbSpline
210
0.0
220
0.0
230
1.0
 70
     8
 71
     3
 72
     8
 73
     4
 74
     0
 42
0.0000000001
 43
0.0000000001
 40
0.0
 40
0.0
 40
0.0
 40
0.0
 40
1.0
 40
1.0
 40
1.0
 40
1.0
 10
808.4476505324746
 20
916.3242382211828
 30
0.0
 10
807.8950426201227
 20
916.3242382211828
 30
0.0
 10
807.4470653949683
 20
915.8762609960268
 30
0.0
 10
807.4470653949683
 20
915.3236530836748
 30
0.0
  0
SPLINE
  5
190
330
70
100
AcDbEntity
  8
Front$1
 62
    18
420
        0
370
    35
100
AcDbSpline
210
0.0
220
0.0
230
1.0
 70
     8
 71
     3
 72
     8
 73
     4
 74
     0
 42
0.0000000001
 43
0.0000000001
 40
0.0
 40
0.0
 40
0.0
 40
0.0
 40
1.0
 40
1.0
 40
1.0
 40
1.0
 10
212.0989085781157
 20
1039.896502703335
 30
0.0
 10
212.0989085781157
 20
1040.172806659511
 30
0.0
 10
211.8749199655385
 20
1040.396795272088
 30
0.0
 10
211.5986160093626
 20
1040.396795272088
 30
0.0
  0
SPLINE
  5
191
330
70
100
AcDbEntity
  8
Front$1
 62
    18
420
        0
370
    35
100
AcDbSpline
210
0.0
220
0.0
230
1.0
 70
     8
 71
     3
 72
     8
 73
     4
 74
     0
 42
0.0000000001
 43
0.0000000001
 40
0.0
 40
0.0
 40
0.0
 40
0.0
 40
1.0
 40
1.0
 40
1.0
 40
1.0
 10
184.5828172966649
 20
1040.396795272088
 30
0.0
 10
184.306513340488
 20
1040.396795272088
 30
0.0
 10
184.0825247279108
 20
1040.172806659511
 30
0.0
 10
184.0825247279108
 20
1039.896502703335
 30
0.0
  0
SPLINE
  5
192
330
70
100
AcDbEntity
  8
Front$1
 62
    18
420
        0
370
    35
100
AcDbSpline
210
0.0
220
0.0
230
1.0
 70
     8
 71
     3
 72
     8
 73
     4
 74
     0
 42
0.0000000001
 43
0.0000000001
 40
0.0
 40
0.0
 40
0.0
 40
0.0
 40
1.0
 40
1.0
 40
1.0
 40
1.0
 10
204.6404404809864
 20
977.2225532831717
 30
0.0
 10
204.7898106182965
 20
977.2626210504485
 30
0.0
 10
204.9388099408879
 20
977.3040586262196
 30
0.0
 10
205.0874196302984
 20
977.346860776961
 30
0.0
  0
SPLINE
  5
193
330
70
100
AcDbEntity
  8
Front$1
 62
    18
420
        0
370
    35
100
AcDbSpline
210
0.0
220
0.0
230
1.0
 70
     8
 71
     3
 72
     8
 73
     4
 74
     0
 42
0.0000000001
 43
0.0000000001
 40
0.0
 40
0.0
 40
0.0
 40
0.0
 40
1.0
 40
1.0
 40
1.0
 40
1.0
 10
188.5851578466936
 20
978.5606337741365
 30
0.0
 10
188.5851578466936
 20
977.8975042793135
 30
0.0
 10
189.1227305168795
 20
977.3599316091276
 30
0.0
 10
189.7858600117024
 20
977.3599316091276
 30
0.0
  0
SPLINE
  5
194
330
70
100
AcDbEntity
  8
Front$1
 62
    18
420
        0
370
    35
100
AcDbSpline
210
0.0
220
0.0
230
1.0
 70
     8
 71
     3
 72
     8
 73
     4
 74
     0
 42
0.0000000001
 43
0.0000000001
 40
0.0
 40
0.0
 40
0.0
 40
0.0
 40
1.0
 40
1.0
 40
1.0
 40
1.0
 10
191.0940136757281
 20
977.346860776961
 30
0.0
 10
191.2426233651386
 20
977.3040586262196
 30
0.0
 10
191.3916226877299
 20
977.2626210504485
 30
0.0
 10
191.540992825041
 20
977.2225532831717
 30
0.0
  0
SPLINE
  5
195
330
70
100
AcDbEntity
  8
Front$1
 62
    18
420
        0
370
    35
100
AcDbSpline
210
0.0
220
0.0
230
1.0
 70
     8
 71
     3
 72
     8
 73
     4
 74
     0
 42
0.0000000001
 43
0.0000000001
 40
0.0
 40
0.0
 40
0.0
 40
0.0
 40
1.0
 40
1.0
 40
1.0
 40
1.0
 10
191.9660283775129
 20
977.1124871493093
 30
0.0
 10
192.076870025724
 20
977.0848086820306
 30
0.0
 10
192.1878980258634
 20
977.0578819000057
 30
0.0
 10
192.2991047252735
 20
977.0317086591775
 30
0.0
  0
SPLINE
  5
196
330
70
100
AcDbEntity
  8
Front$1
 62
    18
420
        0
370
    35
100
AcDbSpline
210
0.0
220
0.0
230
1.0
 70
     8
 71
     3
 72
     8
 73
     4
 74
     0
 42
0.0000000001
 43
0.0000000001
 40
0.0
 40
0.0
 40
0.0
 40
0.0
 40
1.0
 40
1.0
 40
1.0
 40
1.0
 10
192.9059657357775
 20
976.8967330322775
 30
0.0
 10
193.0244805228594
 20
976.8718987332494
 30
0.0
 10
193.1431722101561
 20
976.8479162609109
 30
0.0
 10
193.2620316073417
 20
976.8247874722282
 30
0.0
  0
SPLINE
  5
197
330
70
100
AcDbEntity
  8
Front$1
 62
    18
420
        0
370
    35
100
AcDbSpline
210
0.0
220
0.0
230
1.0
 70
     8
 71
     3
 72
     8
 73
     4
 74
     0
 42
0.0000000001
 43
0.0000000001
 40
0.0
 40
0.0
 40
0.0
 40
0.0
 40
1.0
 40
1.0
 40
1.0
 40
1.0
 10
194.2626167553453
 20
976.6508665240799
 30
0.0
 10
194.3156592955683
 20
976.6427407488336
 30
0.0
 10
194.3687275738102
 20
976.6347838815308
 30
0.0
 10
194.4218207830772
 20
976.6269960431682
 30
0.0
  0
SPLINE
  5
198
330
70
100
AcDbEntity
  8
Front$1
 62
    18
420
        0
370
    35
100
AcDbSpline
210
0.0
220
0.0
230
1.0
 70
     8
 71
     3
 72
     8
 73
     4
 74
     0
 42
0.0000000001
 43
0.0000000001
 40
0.0
 40
0.0
 40
0.0
 40
0.0
 40
1.0
 40
1.0
 40
1.0
 40
1.0
 10
195.4224059980979
 20
976.5005607721569
 30
0.0
 10
195.619249512034
 20
976.4796673158608
 30
0.0
 10
195.816331637463
 20
976.4610865718442
 30
0.0
 10
196.0136115951691
 20
976.4448223847375
 30
0.0
  0
SPLINE
  5
199
330
70
100
AcDbEntity
  8
Front$1
 62
    18
420
        0
370
    35
100
AcDbSpline
210
0.0
220
0.0
230
1.0
 70
     8
 71
     3
 72
     8
 73
     4
 74
     0
 42
0.0000000001
 43
0.0000000001
 40
0.0
 40
0.0
 40
0.0
 40
0.0
 40
1.0
 40
1.0
 40
1.0
 40
1.0
 10
196.0895465119174
 20
976.4386773261676
 30
0.0
 10
196.3893687391892
 20
976.4148687809138
 30
0.0
 10
196.6895919793515
 20
976.3964127492164
 30
0.0
 10
196.9900728332377
 20
976.3833180464454
 30
0.0
  0
SPLINE
  5
19A
330
70
100
AcDbEntity
  8
Front$1
 62
    18
420
        0
370
    35
100
AcDbSpline
210
0.0
220
0.0
230
1.0
 70
     8
 71
     3
 72
     8
 73
     4
 74
     0
 42
0.0000000001
 43
0.0000000001
 40
0.0
 40
0.0
 40
0.0
 40
0.0
 40
1.0
 40
1.0
 40
1.0
 40
1.0
 10
199.1913604727888
 20
976.3833180464454
 30
0.0
 10
199.4918413266759
 20
976.3964127492164
 30
0.0
 10
199.7920645668382
 20
976.4148687809138
 30
0.0
 10
200.0918867941091
 20
976.4386773261676
 30
0.0
  0
SPLINE
  5
19B
330
70
100
AcDbEntity
  8
Front$1
 62
    18
420
        0
370
    35
100
AcDbSpline
210
0.0
220
0.0
230
1.0
 70
     8
 71
     3
 72
     8
 73
     4
 74
     0
 42
0.0000000001
 43
0.0000000001
 40
0.0
 40
0.0
 40
0.0
 40
0.0
 40
1.0
 40
1.0
 40
1.0
 40
1.0
 10
200.1678217108583
 20
976.4448223847375
 30
0.0
 10
200.3651016685644
 20
976.4610865718442
 30
0.0
 10
200.5621837939925
 20
976.4796673158608
 30
0.0
 10
200.7590273079286
 20
976.5005607721569
 30
0.0
  0
SPLINE
  5
19C
330
70
100
AcDbEntity
  8
Front$1
 62
    18
420
        0
370
    35
100
AcDbSpline
210
0.0
220
0.0
230
1.0
 70
     8
 71
     3
 72
     8
 73
     4
 74
     0
 42
0.0000000001
 43
0.0000000001
 40
0.0
 40
0.0
 40
0.0
 40
0.0
 40
1.0
 40
1.0
 40
1.0
 40
1.0
 10
201.7596125229493
 20
976.6269960431682
 30
0.0
 10
201.8127057322163
 20
976.6347838815308
 30
0.0
 10
201.8657740104582
 20
976.6427407488336
 30
0.0
 10
201.9188165506812
 20
976.6508665240799
 30
0.0
  0
SPLINE
  5
19D
330
70
100
AcDbEntity
  8
Front$1
 62
    18
420
        0
370
    35
100
AcDbSpline
210
0.0
220
0.0
230
1.0
 70
     8
 71
     3
 72
     8
 73
     4
 74
     0
 42
0.0000000001
 43
0.0000000001
 40
0.0
 40
0.0
 40
0.0
 40
0.0
 40
1.0
 40
1.0
 40
1.0
 40
1.0
 10
202.9194016986849
 20
976.8247874722282
 30
0.0
 10
203.0382610958704
 20
976.8479162609109
 30
0.0
 10
203.156952783168
 20
976.8718987332494
 30
0.0
 10
203.275467570249
 20
976.8967330322775
 30
0.0
  0
SPLINE
  5
19E
330
70
100
AcDbEntity
  8
Front$1
 62
    18
420
        0
370
    35
100
AcDbSpline
210
0.0
220
0.0
230
1.0
 70
     8
 71
     3
 72
     8
 73
     4
 74
     0
 42
0.0000000001
 43
0.0000000001
 40
0.0
 40
0.0
 40
0.0
 40
0.0
 40
1.0
 40
1.0
 40
1.0
 40
1.0
 10
203.8823285807539
 20
977.0317086591775
 30
0.0
 10
203.9935352801631
 20
977.0578819000057
 30
0.0
 10
204.1045632803034
 20
977.0848086820306
 30
0.0
 10
204.2154049285145
 20
977.1124871493093
 30
0.0
  0
SPLINE
  5
19F
330
70
100
AcDbEntity
  8
Front$1
 62
    18
420
        0
370
    35
100
AcDbSpline
210
0.0
220
0.0
230
1.0
 70
     8
 71
     3
 72
     8
 73
     4
 74
     0
 42
0.0000000001
 43
0.0000000001
 40
0.0
 40
0.0
 40
0.0
 40
0.0
 40
1.0
 40
1.0
 40
1.0
 40
1.0
 10
196.3473655244361
 20
976.8247225691066
 30
0.0
 10
196.5614335905156
 20
976.8096833217432
 30
0.0
 10
196.7756873022745
 20
976.7974147333616
 30
0.0
 10
196.9900728515395
 20
976.787919885125
 30
0.0
  0
SPLINE
  5
1A0
330
70
100
AcDbEntity
  8
Front$1
 62
    18
420
        0
370
    35
100
AcDbSpline
210
0.0
220
0.0
230
1.0
 70
     8
 71
     3
 72
     8
 73
     4
 74
     0
 42
0.0000000001
 43
0.0000000001
 40
0.0
 40
0.0
 40
0.0
 40
0.0
 40
1.0
 40
1.0
 40
1.0
 40
1.0
 10
716.5939349093041
 20
846.2832785956706
 30
0.0
 10
716.5939349093041
 20
846.0069746394928
 30
0.0
 10
716.8179235218813
 20
845.7829860269157
 30
0.0
 10
717.0942274780572
 20
845.7829860269157
 30
0.0
  0
SPLINE
  5
1A1
330
70
100
AcDbEntity
  8
Front$1
 62
    18
420
        0
370
    35
100
AcDbSpline
210
0.0
220
0.0
230
1.0
 70
     8
 71
     3
 72
     8
 73
     4
 74
     0
 42
0.0000000001
 43
0.0000000001
 40
0.0
 40
0.0
 40
0.0
 40
0.0
 40
1.0
 40
1.0
 40
1.0
 40
1.0
 10
724.0983234406085
 20
845.7829860269157
 30
0.0
 10
724.3746273967844
 20
845.7829860269157
 30
0.0
 10
724.5986160093616
 20
846.0069746394928
 30
0.0
 10
724.5986160093616
 20
846.2832785956706
 30
0.0
  0
SPLINE
  5
1A2
330
70
100
AcDbEntity
  8
Front$1
 62
    18
420
        0
370
    35
100
AcDbSpline
210
0.0
220
0.0
230
1.0
 70
     8
 71
     3
 72
     8
 73
     4
 74
     0
 42
0.0000000001
 43
0.0000000001
 40
0.0
 40
0.0
 40
0.0
 40
0.0
 40
1.0
 40
1.0
 40
1.0
 40
1.0
 10
158.0673111527212
 20
1034.393284447044
 30
0.0
 10
157.7910071965443
 20
1034.393284447044
 30
0.0
 10
157.5670185839672
 20
1034.169295834467
 30
0.0
 10
157.5670185839672
 20
1033.892991878291
 30
0.0
  0
SPLINE
  5
1A3
330
70
100
AcDbEntity
  8
Front$1
 62
    18
420
        0
370
    35
100
AcDbSpline
210
0.0
220
0.0
230
1.0
 70
     8
 71
     3
 72
     8
 73
     4
 74
     0
 42
0.0000000001
 43
0.0000000001
 40
0.0
 40
0.0
 40
0.0
 40
0.0
 40
1.0
 40
1.0
 40
1.0
 40
1.0
 10
157.5670185839672
 20
1026.88889591574
 30
0.0
 10
157.5670185839672
 20
1026.612591959564
 30
0.0
 10
157.7910071965443
 20
1026.388603346986
 30
0.0
 10
158.0673111527212
 20
1026.388603346986
 30
0.0
  0
SPLINE
  5
1A4
330
70
100
AcDbEntity
  8
Front$1
 62
    18
420
        0
370
    35
100
AcDbSpline
210
0.0
220
0.0
230
1.0
 70
     8
 71
     3
 72
     8
 73
     4
 74
     0
 42
0.0000000001
 43
0.0000000001
 40
0.0
 40
0.0
 40
0.0
 40
0.0
 40
1.0
 40
1.0
 40
1.0
 40
1.0
 10
807.4470653949683
 20
857.2897151082507
 30
0.0
 10
807.4470653949683
 20
856.7371071958987
 30
0.0
 10
807.8950426201227
 20
856.2891299707425
 30
0.0
 10
808.4476505324746
 20
856.2891299707425
 30
0.0
  0
SPLINE
  5
1A5
330
70
100
AcDbEntity
  8
Front$1
 62
    18
420
        0
370
    35
100
AcDbSpline
210
0.0
220
0.0
230
1.0
 70
     8
 71
     3
 72
     8
 73
     4
 74
     0
 42
0.0000000001
 43
0.0000000001
 40
0.0
 40
0.0
 40
0.0
 40
0.0
 40
1.0
 40
1.0
 40
1.0
 40
1.0
 10
202.1156776282424
 20
976.736419417466
 30
0.0
 10
202.280214350506
 20
976.756718679997
 30
0.0
 10
202.444544507387
 20
976.7791914941899
 30
0.0
 10
202.6086358198363
 20
976.8038334457541
 30
0.0
  0
SPLINE
  5
1A6
330
70
100
AcDbEntity
  8
Front$1
 62
    18
420
        0
370
    35
100
AcDbSpline
210
0.0
220
0.0
230
1.0
 70
     8
 71
     3
 72
     8
 73
     4
 74
     0
 42
0.0000000001
 43
0.0000000001
 40
0.0
 40
0.0
 40
0.0
 40
0.0
 40
1.0
 40
1.0
 40
1.0
 40
1.0
 10
199.5159696391556
 20
976.81816877257
 30
0.0
 10
199.5593667689245
 20
976.8160396883931
 30
0.0
 10
199.6027693828709
 20
976.8140623585304
 30
0.0
 10
199.6461768839608
 20
976.8122368101822
 30
0.0
  0
SPLINE
  5
1A7
330
70
100
AcDbEntity
  8
Front$1
 62
    18
420
        0
370
    35
100
AcDbSpline
210
0.0
220
0.0
230
1.0
 70
     8
 71
     3
 72
     8
 73
     4
 74
     0
 42
0.0000000001
 43
0.0000000001
 40
0.0
 40
0.0
 40
0.0
 40
0.0
 40
1.0
 40
1.0
 40
1.0
 40
1.0
 10
199.5159675714931
 20
976.9316940872823
 30
0.0
 10
199.6830507902014
 20
976.9614605250808
 30
0.0
 10
199.8498263411102
 20
976.9934856983027
 30
0.0
 10
200.0162599069845
 20
977.0277630171595
 30
0.0
  0
SPLINE
  5
1A8
330
70
100
AcDbEntity
  8
Front$1
 62
    18
420
        0
370
    35
100
AcDbSpline
210
0.0
220
0.0
230
1.0
 70
     8
 71
     3
 72
     8
 73
     4
 74
     0
 42
0.0000000001
 43
0.0000000001
 40
0.0
 40
0.0
 40
0.0
 40
0.0
 40
1.0
 40
1.0
 40
1.0
 40
1.0
 10
200.0162622079088
 20
977.0277630171568
 30
0.0
 10
200.1829597350461
 20
977.0195151095858
 30
0.0
 10
200.3497353222683
 20
977.0135256014564
 30
0.0
 10
200.5165545434011
 20
977.0097957291355
 30
0.0
  0
SPLINE
  5
1A9
330
70
100
AcDbEntity
  8
Front$1
 62
    18
420
        0
370
    35
100
AcDbSpline
210
0.0
220
0.0
230
1.0
 70
     8
 71
     3
 72
     8
 73
     4
 74
     0
 42
0.0000000001
 43
0.0000000001
 40
0.0
 40
0.0
 40
0.0
 40
0.0
 40
1.0
 40
1.0
 40
1.0
 40
1.0
 10
200.0918856264116
 20
976.8139119884491
 30
0.0
 10
200.2336719431132
 20
976.8396277493875
 30
0.0
 10
200.3752344856411
 20
976.8669624493613
 30
0.0
 10
200.5165524757394
 20
976.895912076243
 30
0.0
  0
SPLINE
  5
1AA
330
70
100
AcDbEntity
  8
Front$1
 62
    18
420
        0
370
    35
100
AcDbSpline
210
0.0
220
0.0
230
1.0
 70
     8
 71
     3
 72
     8
 73
     4
 74
     0
 42
0.0000000001
 43
0.0000000001
 40
0.0
 40
0.0
 40
0.0
 40
0.0
 40
1.0
 40
1.0
 40
1.0
 40
1.0
 10
202.6466019960408
 20
976.9000222805926
 30
0.0
 10
202.8137945622047
 20
976.9405959000414
 30
0.0
 10
202.9805700987826
 20
976.9834279479892
 30
0.0
 10
203.1468943315331
 20
977.0285096219714
 30
0.0
  0
SPLINE
  5
1AB
330
70
100
AcDbEntity
  8
Front$1
 62
    18
420
        0
370
    35
100
AcDbSpline
210
0.0
220
0.0
230
1.0
 70
     8
 71
     3
 72
     8
 73
     4
 74
     0
 42
0.0000000001
 43
0.0000000001
 40
0.0
 40
0.0
 40
0.0
 40
0.0
 40
1.0
 40
1.0
 40
1.0
 40
1.0
 10
202.1536447672779
 20
976.8447007182858
 30
0.0
 10
202.3181422514417
 20
976.8609603234072
 30
0.0
 10
202.4824724973296
 20
976.8794020616551
 30
0.0
 10
202.646602958871
 20
976.9000222805926
 30
0.0
  0
SPLINE
  5
1AC
330
70
100
AcDbEntity
  8
Front$1
 62
    18
420
        0
370
    35
100
AcDbSpline
210
0.0
220
0.0
230
1.0
 70
     8
 71
     3
 72
     8
 73
     4
 74
     0
 42
0.0000000001
 43
0.0000000001
 40
0.0
 40
0.0
 40
0.0
 40
0.0
 40
1.0
 40
1.0
 40
1.0
 40
1.0
 10
202.1536436437655
 20
976.9165906960306
 30
0.0
 10
202.3208371245364
 20
976.9572247942887
 30
0.0
 10
202.4876126765566
 20
977.0001188562828
 30
0.0
 10
202.6539359792569
 20
977.0452640548883
 30
0.0
  0
SPLINE
  5
1AD
330
70
100
AcDbEntity
  8
Front$1
 62
    18
420
        0
370
    35
100
AcDbSpline
210
0.0
220
0.0
230
1.0
 70
     8
 71
     3
 72
     8
 73
     4
 74
     0
 42
0.0000000001
 43
0.0000000001
 40
0.0
 40
0.0
 40
0.0
 40
0.0
 40
1.0
 40
1.0
 40
1.0
 40
1.0
 10
202.653937336031
 20
977.0452640548819
 30
0.0
 10
202.8184377431298
 20
977.0616565465152
 30
0.0
 10
202.9827681670704
 20
977.0802490356327
 30
0.0
 10
203.146895527625
 20
977.1010377795091
 30
0.0
  0
SPLINE
  5
1AE
330
70
100
AcDbEntity
  8
Front$1
 62
    18
420
        0
370
    35
100
AcDbSpline
210
0.0
220
0.0
230
1.0
 70
     8
 71
     3
 72
     8
 73
     4
 74
     0
 42
0.0000000001
 43
0.0000000001
 40
0.0
 40
0.0
 40
0.0
 40
0.0
 40
1.0
 40
1.0
 40
1.0
 40
1.0
 10
195.6952032242116
 20
976.8565582217171
 30
0.0
 10
195.8595475376614
 20
976.8574285291206
 30
0.0
 10
196.0238777737195
 20
976.8604784572088
 30
0.0
 10
196.1881614158046
 20
976.8657074024822
 30
0.0
  0
SPLINE
  5
1AF
330
70
100
AcDbEntity
  8
Front$1
 62
    18
420
        0
370
    35
100
AcDbSpline
210
0.0
220
0.0
230
1.0
 70
     8
 71
     3
 72
     8
 73
     4
 74
     0
 42
0.0000000001
 43
0.0000000001
 40
0.0
 40
0.0
 40
0.0
 40
0.0
 40
1.0
 40
1.0
 40
1.0
 40
1.0
 10
195.1949128272054
 20
976.9628848677429
 30
0.0
 10
195.3613127598801
 20
976.9251948050104
 30
0.0
 10
195.5280882461202
 20
976.8897501722795
 30
0.0
 10
195.6952051626976
 20
976.8565582217261
 30
0.0
  0
SPLINE
  5
1B0
330
70
100
AcDbEntity
  8
Front$1
 62
    18
420
        0
370
    35
100
AcDbSpline
210
0.0
220
0.0
230
1.0
 70
     8
 71
     3
 72
     8
 73
     4
 74
     0
 42
0.0000000001
 43
0.0000000001
 40
0.0
 40
0.0
 40
0.0
 40
0.0
 40
1.0
 40
1.0
 40
1.0
 40
1.0
 10
195.1949106554575
 20
977.0791371334745
 30
0.0
 10
195.3592554227207
 20
977.0800153304817
 30
0.0
 10
195.5235858561846
 20
977.0830929126477
 30
0.0
 10
195.6878688470506
 20
977.088369259911
 30
0.0
  0
SPLINE
  5
1B1
330
70
100
AcDbEntity
  8
Front$1
 62
    18
420
        0
370
    35
100
AcDbSpline
210
0.0
220
0.0
230
1.0
 70
     8
 71
     3
 72
     8
 73
     4
 74
     0
 42
0.0000000001
 43
0.0000000001
 40
0.0
 40
0.0
 40
0.0
 40
0.0
 40
1.0
 40
1.0
 40
1.0
 40
1.0
 10
195.6878711794797
 20
977.0883692599163
 30
0.0
 10
195.854267060783
 20
977.0504543420248
 30
0.0
 10
196.0210426630328
 20
977.0147962352984
 30
0.0
 10
196.188163514973
 20
976.9814023100007
 30
0.0
  0
SPLINE
  5
1B2
330
70
100
AcDbEntity
  8
Front$1
 62
    18
420
        0
370
    35
100
AcDbSpline
210
0.0
220
0.0
230
1.0
 70
     8
 71
     3
 72
     8
 73
     4
 74
     0
 42
0.0000000001
 43
0.0000000001
 40
0.0
 40
0.0
 40
0.0
 40
0.0
 40
1.0
 40
1.0
 40
1.0
 40
1.0
 10
200.3270243574652
 20
976.6536372798846
 30
0.0
 10
200.4940763349668
 20
976.6806678024767
 30
0.0
 10
200.6608516285087
 20
976.7099311917828
 30
0.0
 10
200.8273166929575
 20
976.74142156177
 30
0.0
  0
SPLINE
  5
1B3
330
70
100
AcDbEntity
  8
Front$1
 62
    18
420
        0
370
    35
100
AcDbSpline
210
0.0
220
0.0
230
1.0
 70
     8
 71
     3
 72
     8
 73
     4
 74
     0
 42
0.0000000001
 43
0.0000000001
 40
0.0
 40
0.0
 40
0.0
 40
0.0
 40
1.0
 40
1.0
 40
1.0
 40
1.0
 10
200.0918873316359
 20
976.6510689958067
 30
0.0
 10
200.1702704335421
 20
976.6514333652521
 30
0.0
 10
200.2486512425976
 20
976.6522894725794
 30
0.0
 10
200.327026288377
 20
976.6536372798828
 30
0.0
  0
SPLINE
  5
1B4
330
70
100
AcDbEntity
  8
Front$1
 62
    18
420
        0
370
    35
100
AcDbSpline
210
0.0
220
0.0
230
1.0
 70
     8
 71
     3
 72
     8
 73
     4
 74
     0
 42
0.0000000001
 43
0.0000000001
 40
0.0
 40
0.0
 40
0.0
 40
0.0
 40
1.0
 40
1.0
 40
1.0
 40
1.0
 10
200.0918851674624
 20
976.782529457343
 30
0.0
 10
200.1703322597123
 20
976.7964044715254
 30
0.0
 10
200.2487130829459
 20
976.8107745307561
 30
0.0
 10
200.3270241242035
 20
976.8256389909812
 30
0.0
  0
SPLINE
  5
1B5
330
70
100
AcDbEntity
  8
Front$1
 62
    18
420
        0
370
    35
100
AcDbSpline
210
0.0
220
0.0
230
1.0
 70
     8
 71
     3
 72
     8
 73
     4
 74
     0
 42
0.0000000001
 43
0.0000000001
 40
0.0
 40
0.0
 40
0.0
 40
0.0
 40
1.0
 40
1.0
 40
1.0
 40
1.0
 10
200.3270265216388
 20
976.8256389909803
 30
0.0
 10
200.4937914987813
 20
976.8240436630948
 30
0.0
 10
200.6605669089549
 20
976.8246899240512
 30
0.0
 10
200.8273188571311
 20
976.8275776425062
 30
0.0
  0
SPLINE
  5
1B6
330
70
100
AcDbEntity
  8
Front$1
 62
    18
420
        0
370
    35
100
AcDbSpline
210
0.0
220
0.0
230
1.0
 70
     8
 71
     3
 72
     8
 73
     4
 74
     0
 42
0.0000000001
 43
0.0000000001
 40
0.0
 40
0.0
 40
0.0
 40
0.0
 40
1.0
 40
1.0
 40
1.0
 40
1.0
 10
199.1913592933488
 20
976.8422993999829
 30
0.0
 10
199.246523408
 20
976.8509040316585
 30
0.0
 10
199.3016586049843
 20
976.8597540688206
 30
0.0
 10
199.3567636564512
 20
976.8688493143791
 30
0.0
  0
SPLINE
  5
1B7
330
70
100
AcDbEntity
  8
Front$1
 62
    18
420
        0
370
    35
100
AcDbSpline
210
0.0
220
0.0
230
1.0
 70
     8
 71
     3
 72
     8
 73
     4
 74
     0
 42
0.0000000001
 43
0.0000000001
 40
0.0
 40
0.0
 40
0.0
 40
0.0
 40
1.0
 40
1.0
 40
1.0
 40
1.0
 10
199.1913607152901
 20
976.8023177337026
 30
0.0
 10
199.2368224928004
 20
976.7994908365617
 30
0.0
 10
199.2822919175651
 20
976.7968303723163
 30
0.0
 10
199.3277683040696
 20
976.7943363810772
 30
0.0
  0
SPLINE
  5
1B8
330
70
100
AcDbEntity
  8
Front$1
 62
    18
420
        0
370
    35
100
AcDbSpline
210
0.0
220
0.0
230
1.0
 70
     8
 71
     3
 72
     8
 73
     4
 74
     0
 42
0.0000000001
 43
0.0000000001
 40
0.0
 40
0.0
 40
0.0
 40
0.0
 40
1.0
 40
1.0
 40
1.0
 40
1.0
 10
197.6357274361335
 20
977.3277046662842
 30
0.0
 10
197.7191458439529
 20
977.3124451098784
 30
0.0
 10
197.8026420528231
 20
977.2977581373316
 30
0.0
 10
197.8862116392929
 20
977.2836445267275
 30
0.0
  0
SPLINE
  5
1B9
330
70
100
AcDbEntity
  8
Front$1
 62
    18
420
        0
370
    35
100
AcDbSpline
210
0.0
220
0.0
230
1.0
 70
     8
 71
     3
 72
     8
 73
     4
 74
     0
 42
0.0000000001
 43
0.0000000001
 40
0.0
 40
0.0
 40
0.0
 40
0.0
 40
1.0
 40
1.0
 40
1.0
 40
1.0
 10
197.1354324121876
 20
977.2618655416463
 30
0.0
 10
197.3024161502253
 20
977.281526517021
 30
0.0
 10
197.4691919991055
 20
977.3034744365123
 30
0.0
 10
197.6357247476799
 20
977.3277046662869
 30
0.0
  0
SPLINE
  5
1BA
330
70
100
AcDbEntity
  8
Front$1
 62
    18
420
        0
370
    35
100
AcDbSpline
210
0.0
220
0.0
230
1.0
 70
     8
 71
     3
 72
     8
 73
     4
 74
     0
 42
0.0000000001
 43
0.0000000001
 40
0.0
 40
0.0
 40
0.0
 40
0.0
 40
1.0
 40
1.0
 40
1.0
 40
1.0
 10
192.6025368178425
 20
976.9628848677429
 30
0.0
 10
192.7689367505172
 20
976.9251948050104
 30
0.0
 10
192.9357122367573
 20
976.8897501722795
 30
0.0
 10
193.1028291533357
 20
976.8565582217261
 30
0.0
  0
SPLINE
  5
1BB
330
70
100
AcDbEntity
  8
Front$1
 62
    18
420
        0
370
    35
100
AcDbSpline
210
0.0
220
0.0
230
1.0
 70
     8
 71
     3
 72
     8
 73
     4
 74
     0
 42
0.0000000001
 43
0.0000000001
 40
0.0
 40
0.0
 40
0.0
 40
0.0
 40
1.0
 40
1.0
 40
1.0
 40
1.0
 10
192.1022449097954
 20
977.0791371334798
 30
0.0
 10
192.2686095538774
 20
977.0381284893492
 30
0.0
 10
192.4353851431797
 20
976.9993750670991
 30
0.0
 10
192.6025372452868
 20
976.9628848677429
 30
0.0
  0
SPLINE
  5
1BC
330
70
100
AcDbEntity
  8
Front$1
 62
    18
420
        0
370
    35
100
AcDbSpline
210
0.0
220
0.0
230
1.0
 70
     8
 71
     3
 72
     8
 73
     4
 74
     0
 42
0.0000000001
 43
0.0000000001
 40
0.0
 40
0.0
 40
0.0
 40
0.0
 40
1.0
 40
1.0
 40
1.0
 40
1.0
 10
192.102244321668
 20
977.0883692599163
 30
0.0
 10
192.2686402029712
 20
977.0504543420248
 30
0.0
 10
192.435415805221
 20
977.0147962352984
 30
0.0
 10
192.6025366571602
 20
976.9814023100007
 30
0.0
  0
SPLINE
  5
1BD
330
70
100
AcDbEntity
  8
Front$1
 62
    18
420
        0
370
    35
100
AcDbSpline
210
0.0
220
0.0
230
1.0
 70
     8
 71
     3
 72
     8
 73
     4
 74
     0
 42
0.0000000001
 43
0.0000000001
 40
0.0
 40
0.0
 40
0.0
 40
0.0
 40
1.0
 40
1.0
 40
1.0
 40
1.0
 10
192.6025374059681
 20
976.9814023099989
 30
0.0
 10
192.7689055278451
 20
976.9405883427126
 30
0.0
 10
192.93568102682
 20
976.9020207402135
 30
0.0
 10
193.1028297414595
 20
976.8657074024904
 30
0.0
  0
SPLINE
  5
1BE
330
70
100
AcDbEntity
  8
Front$1
 62
    18
420
        0
370
    35
100
AcDbSpline
210
0.0
220
0.0
230
1.0
 70
     8
 71
     3
 72
     8
 73
     4
 74
     0
 42
0.0000000001
 43
0.0000000001
 40
0.0
 40
0.0
 40
0.0
 40
0.0
 40
1.0
 40
1.0
 40
1.0
 40
1.0
 10
193.2655942600695
 20
976.8248939982914
 30
0.0
 10
193.4320622961804
 20
976.7932961870274
 30
0.0
 10
193.5988426726135
 20
976.7639329346229
 30
0.0
 10
193.7659016159532
 20
976.7368101872053
 30
0.0
  0
SPLINE
  5
1BF
330
70
100
AcDbEntity
  8
Front$1
 62
    18
420
        0
370
    35
100
AcDbSpline
210
0.0
220
0.0
230
1.0
 70
     8
 71
     3
 72
     8
 73
     4
 74
     0
 42
0.0000000001
 43
0.0000000001
 40
0.0
 40
0.0
 40
0.0
 40
0.0
 40
1.0
 40
1.0
 40
1.0
 40
1.0
 10
193.2620331409544
 20
976.8275776425044
 30
0.0
 10
193.4285026014504
 20
976.7966221925862
 30
0.0
 10
193.5952779733761
 20
976.7679015598886
 30
0.0
 10
193.7623254764466
 20
976.7414215617655
 30
0.0
  0
SPLINE
  5
1C0
330
70
100
AcDbEntity
  8
Front$1
 62
    18
420
        0
370
    35
100
AcDbSpline
210
0.0
220
0.0
230
1.0
 70
     8
 71
     3
 72
     8
 73
     4
 74
     0
 42
0.0000000001
 43
0.0000000001
 40
0.0
 40
0.0
 40
0.0
 40
0.0
 40
1.0
 40
1.0
 40
1.0
 40
1.0
 10
193.7623257412151
 20
976.74142156177
 30
0.0
 10
193.928790805664
 20
976.7099311917817
 30
0.0
 10
194.0955660992058
 20
976.6806678024767
 30
0.0
 10
194.2626180767074
 20
976.6536372798846
 30
0.0
  0
SPLINE
  5
1C1
330
70
100
AcDbEntity
  8
Front$1
 62
    18
420
        0
370
    35
100
AcDbSpline
210
0.0
220
0.0
230
1.0
 70
     8
 71
     3
 72
     8
 73
     4
 74
     0
 42
0.0000000001
 43
0.0000000001
 40
0.0
 40
0.0
 40
0.0
 40
0.0
 40
1.0
 40
1.0
 40
1.0
 40
1.0
 10
193.7623257097093
 20
976.7375578243736
 30
0.0
 10
193.928797289288
 20
976.7067138848396
 30
0.0
 10
194.095572580235
 20
976.6780967329205
 30
0.0
 10
194.2626180452007
 20
976.6517121233237
 30
0.0
  0
SPLINE
  5
1C2
330
70
100
AcDbEntity
  8
Front$1
 62
    18
420
        0
370
    35
100
AcDbSpline
210
0.0
220
0.0
230
1.0
 70
     8
 71
     3
 72
     8
 73
     4
 74
     0
 42
0.0000000001
 43
0.0000000001
 40
0.0
 40
0.0
 40
0.0
 40
0.0
 40
1.0
 40
1.0
 40
1.0
 40
1.0
 10
194.4218219602435
 20
976.6270712497634
 30
0.0
 10
194.5883610784867
 20
976.602878644614
 30
0.0
 10
194.7551362798822
 20
976.5809045642882
 30
0.0
 10
194.9221142957358
 20
976.5611533922266
 30
0.0
  0
SPLINE
  5
1C3
330
70
100
AcDbEntity
  8
Front$1
 62
    18
420
        0
370
    35
100
AcDbSpline
210
0.0
220
0.0
230
1.0
 70
     8
 71
     3
 72
     8
 73
     4
 74
     0
 42
0.0000000001
 43
0.0000000001
 40
0.0
 40
0.0
 40
0.0
 40
0.0
 40
1.0
 40
1.0
 40
1.0
 40
1.0
 10
194.9221150770472
 20
976.5611533922319
 30
0.0
 10
195.0886727079487
 20
976.538766342036
 30
0.0
 10
195.2554478535767
 20
976.5185924154412
 30
0.0
 10
195.4224074125395
 20
976.5006356165512
 30
0.0
  0
LINE
  5
1C4
330
70
100
AcDbEntity
  8
Front$1
 62
    18
420
        0
370
    35
100
AcDbLine
 10
196.0819034122942
 20
976.4393163173226
 30
0.0
 11
196.0869991114741
 21
976.4389060321773
 31
0.0
  0
SPLINE
  5
1C5
330
70
100
AcDbEntity
  8
Front$1
 62
    18
420
        0
370
    35
100
AcDbSpline
210
0.0
220
0.0
230
1.0
 70
     8
 71
     3
 72
     8
 73
     4
 74
     0
 42
0.0000000001
 43
0.0000000001
 40
0.0
 40
0.0
 40
0.0
 40
0.0
 40
1.0
 40
1.0
 40
1.0
 40
1.0
 10
191.5409887439564
 20
977.222555105196
 30
0.0
 10
191.6117490085417
 20
977.20357399355
 30
0.0
 10
191.6825913382126
 20
977.1850031278418
 30
0.0
 10
191.7535130556753
 20
977.1668432099067
 30
0.0
  0
SPLINE
  5
1C6
330
70
100
AcDbEntity
  8
Front$1
 62
    18
420
        0
370
    35
100
AcDbSpline
210
0.0
220
0.0
230
1.0
 70
     8
 71
     3
 72
     8
 73
     4
 74
     0
 42
0.0000000001
 43
0.0000000001
 40
0.0
 40
0.0
 40
0.0
 40
0.0
 40
1.0
 40
1.0
 40
1.0
 40
1.0
 10
191.7535123838661
 20
977.1668432099122
 30
0.0
 10
191.8242726752705
 20
977.1483149766636
 30
0.0
 10
191.8951128818044
 20
977.1301960526288
 30
0.0
 10
191.9660303384253
 20
977.1124871194498
 30
0.0
  0
SPLINE
  5
1C7
330
70
100
AcDbEntity
  8
Front$1
 62
    18
420
        0
370
    35
100
AcDbSpline
210
0.0
220
0.0
230
1.0
 70
     8
 71
     3
 72
     8
 73
     4
 74
     0
 42
0.0000000001
 43
0.0000000001
 40
0.0
 40
0.0
 40
0.0
 40
0.0
 40
1.0
 40
1.0
 40
1.0
 40
1.0
 10
204.4279202503513
 20
977.1668432099067
 30
0.0
 10
204.5951407546044
 20
977.2096609918635
 30
0.0
 10
204.7619165455671
 20
977.2547624946938
 30
0.0
 10
204.9282125858435
 20
977.3021382431679
 30
0.0
  0
SPLINE
  5
1C8
330
70
100
AcDbEntity
  8
Front$1
 62
    18
420
        0
370
    35
100
AcDbSpline
210
0.0
220
0.0
230
1.0
 70
     8
 71
     3
 72
     8
 73
     4
 74
     0
 42
0.0000000001
 43
0.0000000001
 40
0.0
 40
0.0
 40
0.0
 40
0.0
 40
1.0
 40
1.0
 40
1.0
 40
1.0
 10
203.927628586669
 20
977.0429758939517
 30
0.0
 10
204.0948078749898
 20
977.0819966211947
 30
0.0
 10
204.2615835429178
 20
977.123288587687
 30
0.0
 10
204.4279209221604
 20
977.1668432099122
 30
0.0
  0
SPLINE
  5
1C9
330
70
100
AcDbEntity
  8
Front$1
 62
    18
420
        0
370
    35
100
AcDbSpline
210
0.0
220
0.0
230
1.0
 70
     8
 71
     3
 72
     8
 73
     4
 74
     0
 42
0.0000000001
 43
0.0000000001
 40
0.0
 40
0.0
 40
0.0
 40
0.0
 40
1.0
 40
1.0
 40
1.0
 40
1.0
 10
203.9311709622898
 20
977.0543123552352
 30
0.0
 10
204.0971996727904
 20
977.0966292683507
 30
0.0
 10
204.2627940425473
 20
977.1411871851624
 30
0.0
 10
204.427920089669
 20
977.1879769618672
 30
0.0
  0
SPLINE
  5
1CA
330
70
100
AcDbEntity
  8
Front$1
 62
    18
420
        0
370
    35
100
AcDbSpline
210
0.0
220
0.0
230
1.0
 70
     8
 71
     3
 72
     8
 73
     4
 74
     0
 42
0.0000000001
 43
0.0000000001
 40
0.0
 40
0.0
 40
0.0
 40
0.0
 40
1.0
 40
1.0
 40
1.0
 40
1.0
 10
204.4279210828427
 20
977.1879769618672
 30
0.0
 10
204.5939540351556
 20
977.2269931392584
 30
0.0
 10
204.7595838491416
 20
977.268262792144
 30
0.0
 10
204.9247761612824
 20
977.3117773582352
 30
0.0
  0
SPLINE
  5
1CB
330
70
100
AcDbEntity
  8
Front$1
 62
    18
420
        0
370
    35
100
AcDbSpline
210
0.0
220
0.0
230
1.0
 70
     8
 71
     3
 72
     8
 73
     4
 74
     0
 42
0.0000000001
 43
0.0000000001
 40
0.0
 40
0.0
 40
0.0
 40
0.0
 40
1.0
 40
1.0
 40
1.0
 40
1.0
 10
201.4868131767534
 20
976.7475488581531
 30
0.0
 10
201.653933857594
 20
976.7812745645251
 30
0.0
 10
201.8207092449356
 20
976.8172431758356
 30
0.0
 10
201.9871055122457
 20
976.8554473966833
 30
0.0
  0
SPLINE
  5
1CC
330
70
100
AcDbEntity
  8
Front$1
 62
    18
420
        0
370
    35
100
AcDbSpline
210
0.0
220
0.0
230
1.0
 70
     8
 71
     3
 72
     8
 73
     4
 74
     0
 42
0.0000000001
 43
0.0000000001
 40
0.0
 40
0.0
 40
0.0
 40
0.0
 40
1.0
 40
1.0
 40
1.0
 40
1.0
 10
201.6153850594892
 20
976.61852727517
 30
0.0
 10
201.7799197331933
 20
976.6387306415108
 30
0.0
 10
201.9442497886548
 20
976.661097270683
 30
0.0
 10
202.1083432510823
 20
976.6856228106634
 30
0.0
  0
SPLINE
  5
1CD
330
70
100
AcDbEntity
  8
Front$1
 62
    18
420
        0
370
    35
100
AcDbSpline
210
0.0
220
0.0
230
1.0
 70
     8
 71
     3
 72
     8
 73
     4
 74
     0
 42
0.0000000001
 43
0.0000000001
 40
0.0
 40
0.0
 40
0.0
 40
0.0
 40
1.0
 40
1.0
 40
1.0
 40
1.0
 10
201.6153842594995
 20
976.6432966196781
 30
0.0
 10
201.7824539910007
 20
976.6721072741548
 30
0.0
 10
201.9492292776677
 20
976.7031502868004
 30
0.0
 10
202.1156765949909
 20
976.7364194174716
 30
0.0
  0
SPLINE
  5
1CE
330
70
100
AcDbEntity
  8
Front$1
 62
    18
420
        0
370
    35
100
AcDbSpline
210
0.0
220
0.0
230
1.0
 70
     8
 71
     3
 72
     8
 73
     4
 74
     0
 42
0.0000000001
 43
0.0000000001
 40
0.0
 40
0.0
 40
0.0
 40
0.0
 40
1.0
 40
1.0
 40
1.0
 40
1.0
 10
198.2349418859358
 20
977.3251306480915
 30
0.0
 10
198.3009828397071
 20
977.3363729478214
 30
0.0
 10
198.3669776248025
 20
977.347973936904
 30
0.0
 10
198.4329240503457
 20
977.359933230211
 30
0.0
  0
SPLINE
  5
1CF
330
70
100
AcDbEntity
  8
Front$1
 62
    18
420
        0
370
    35
100
AcDbSpline
210
0.0
220
0.0
230
1.0
 70
     8
 71
     3
 72
     8
 73
     4
 74
     0
 42
0.0000000001
 43
0.0000000001
 40
0.0
 40
0.0
 40
0.0
 40
0.0
 40
1.0
 40
1.0
 40
1.0
 40
1.0
 10
198.0231199382815
 20
977.3599321327456
 30
0.0
 10
198.0936769484824
 20
977.3479213339625
 30
0.0
 10
198.1642858672649
 20
977.3363206921267
 30
0.0
 10
198.2349440113558
 20
977.3251306480871
 30
0.0
  0
SPLINE
  5
1D0
330
70
100
AcDbEntity
  8
Front$1
 62
    18
420
        0
370
    35
100
AcDbSpline
210
0.0
220
0.0
230
1.0
 70
     8
 71
     3
 72
     8
 73
     4
 74
     0
 42
0.0000000001
 43
0.0000000001
 40
0.0
 40
0.0
 40
0.0
 40
0.0
 40
1.0
 40
1.0
 40
1.0
 40
1.0
 10
204.1171560331331
 20
977.1100767046974
 30
0.0
 10
204.2843995750736
 20
977.1552478814774
 30
0.0
 10
204.4511753152455
 20
977.2026980433457
 30
0.0
 10
204.6174483686254
 20
977.2524172649973
 30
0.0
  0
SPLINE
  5
1D1
330
70
100
AcDbEntity
  8
Front$1
 62
    18
420
        0
370
    35
100
AcDbSpline
210
0.0
220
0.0
230
1.0
 70
     8
 71
     3
 72
     8
 73
     4
 74
     0
 42
0.0000000001
 43
0.0000000001
 40
0.0
 40
0.0
 40
0.0
 40
0.0
 40
1.0
 40
1.0
 40
1.0
 40
1.0
 10
203.616864272939
 20
977.0063976236361
 30
0.0
 10
203.7839743059021
 20
977.0386934808975
 30
0.0
 10
203.9507499299916
 20
977.0732555603508
 30
0.0
 10
204.1171566084313
 20
977.1100767046982
 30
0.0
  0
SPLINE
  5
1D2
330
70
100
AcDbEntity
  8
Front$1
 62
    18
420
        0
370
    35
100
AcDbSpline
210
0.0
220
0.0
230
1.0
 70
     8
 71
     3
 72
     8
 73
     4
 74
     0
 42
0.0000000001
 43
0.0000000001
 40
0.0
 40
0.0
 40
0.0
 40
0.0
 40
1.0
 40
1.0
 40
1.0
 40
1.0
 10
203.6204667237771
 20
977.0446123125948
 30
0.0
 10
203.7864996463522
 20
977.08933657344
 30
0.0
 10
203.9520740134821
 20
977.1363009860978
 30
0.0
 10
204.1171558724491
 20
977.1854959200336
 30
0.0
  0
SPLINE
  5
1D3
330
70
100
AcDbEntity
  8
Front$1
 62
    18
420
        0
370
    35
100
AcDbSpline
210
0.0
220
0.0
230
1.0
 70
     8
 71
     3
 72
     8
 73
     4
 74
     0
 42
0.0000000001
 43
0.0000000001
 40
0.0
 40
0.0
 40
0.0
 40
0.0
 40
1.0
 40
1.0
 40
1.0
 40
1.0
 10
204.1171567691126
 20
977.1854959200336
 30
0.0
 10
204.283124395005
 20
977.217839092742
 30
0.0
 10
204.4487570209549
 20
977.2524339702368
 30
0.0
 10
204.6140203168634
 20
977.289273382159
 30
0.0
  0
SPLINE
  5
1D4
330
70
100
AcDbEntity
  8
Front$1
 62
    18
420
        0
370
    35
100
AcDbSpline
210
0.0
220
0.0
230
1.0
 70
     8
 71
     3
 72
     8
 73
     4
 74
     0
 42
0.0000000001
 43
0.0000000001
 40
0.0
 40
0.0
 40
0.0
 40
0.0
 40
1.0
 40
1.0
 40
1.0
 40
1.0
 10
191.4427479985552
 20
977.2494964608068
 30
0.0
 10
191.6090712772502
 20
977.2046956096655
 30
0.0
 10
191.7758470216613
 20
977.1621647456777
 30
0.0
 10
191.9430403340475
 20
977.1219127684053
 30
0.0
  0
SPLINE
  5
1D5
330
70
100
AcDbEntity
  8
Front$1
 62
    18
420
        0
370
    35
100
AcDbSpline
210
0.0
220
0.0
230
1.0
 70
     8
 71
     3
 72
     8
 73
     4
 74
     0
 42
0.0000000001
 43
0.0000000001
 40
0.0
 40
0.0
 40
0.0
 40
0.0
 40
1.0
 40
1.0
 40
1.0
 40
1.0
 10
191.0578881350548
 20
977.3599312241504
 30
0.0
 10
191.1858809674413
 20
977.3217678450601
 30
0.0
 10
191.3141729065428
 20
977.2849547227851
 30
0.0
 10
191.4427479094547
 20
977.2494964608068
 30
0.0
  0
SPLINE
  5
1D6
330
70
100
AcDbEntity
  8
Front$1
 62
    18
420
        0
370
    35
100
AcDbSpline
210
0.0
220
0.0
230
1.0
 70
     8
 71
     3
 72
     8
 73
     4
 74
     0
 42
0.0000000001
 43
0.0000000001
 40
0.0
 40
0.0
 40
0.0
 40
0.0
 40
1.0
 40
1.0
 40
1.0
 40
1.0
 10
191.0940203079872
 20
977.3709297463856
 30
0.0
 10
191.2100502923276
 20
977.3404623301722
 30
0.0
 10
191.3262967880227
 20
977.3111049339986
 30
0.0
 10
191.442747837872
 20
977.2828605775876
 30
0.0
  0
SPLINE
  5
1D7
330
70
100
AcDbEntity
  8
Front$1
 62
    18
420
        0
370
    35
100
AcDbSpline
210
0.0
220
0.0
230
1.0
 70
     8
 71
     3
 72
     8
 73
     4
 74
     0
 42
0.0000000001
 43
0.0000000001
 40
0.0
 40
0.0
 40
0.0
 40
0.0
 40
1.0
 40
1.0
 40
1.0
 40
1.0
 10
191.4427480701342
 20
977.2828605775812
 30
0.0
 10
191.6090132210575
 20
977.2324252254794
 30
0.0
 10
191.7757889892082
 20
977.1842615805034
 30
0.0
 10
191.9430404056265
 20
977.1383797414383
 30
0.0
  0
SPLINE
  5
1D8
330
70
100
AcDbEntity
  8
Front$1
 62
    18
420
        0
370
    35
100
AcDbSpline
210
0.0
220
0.0
230
1.0
 70
     8
 71
     3
 72
     8
 73
     4
 74
     0
 42
0.0000000001
 43
0.0000000001
 40
0.0
 40
0.0
 40
0.0
 40
0.0
 40
1.0
 40
1.0
 40
1.0
 40
1.0
 10
191.1319837813362
 20
977.3705033823144
 30
0.0
 10
191.2983278298661
 20
977.3279330821388
 30
0.0
 10
191.4651036935029
 20
977.2876445864595
 30
0.0
 10
191.6322761168294
 20
977.2496464120212
 30
0.0
  0
SPLINE
  5
1D9
330
70
100
AcDbEntity
  8
Front$1
 62
    18
420
        0
370
    35
100
AcDbSpline
210
0.0
220
0.0
230
1.0
 70
     8
 71
     3
 72
     8
 73
     4
 74
     0
 42
0.0000000001
 43
0.0000000001
 40
0.0
 40
0.0
 40
0.0
 40
0.0
 40
1.0
 40
1.0
 40
1.0
 40
1.0
 10
191.4047752509641
 20
977.36679695562
 30
0.0
 10
191.4804936758492
 20
977.3418252593891
 30
0.0
 10
191.5563283964229
 20
977.3173261511129
 30
0.0
 10
191.6322760918974
 20
977.2933007036009
 30
0.0
  0
SPLINE
  5
1DA
330
70
100
AcDbEntity
  8
Front$1
 62
    18
420
        0
370
    35
100
AcDbSpline
210
0.0
220
0.0
230
1.0
 70
     8
 71
     3
 72
     8
 73
     4
 74
     0
 42
0.0000000001
 43
0.0000000001
 40
0.0
 40
0.0
 40
0.0
 40
0.0
 40
1.0
 40
1.0
 40
1.0
 40
1.0
 10
191.9810074553998
 20
977.2019176405009
 30
0.0
 10
192.1474496396695
 20
977.1687040066918
 30
0.0
 10
192.3142253554015
 20
977.1377587747847
 30
0.0
 10
192.4812997908911
 20
977.1090884040932
 30
0.0
  0
SPLINE
  5
1DB
330
70
100
AcDbEntity
  8
Front$1
 62
    18
420
        0
370
    35
100
AcDbSpline
210
0.0
220
0.0
230
1.0
 70
     8
 71
     3
 72
     8
 73
     4
 74
     0
 42
0.0000000001
 43
0.0000000001
 40
0.0
 40
0.0
 40
0.0
 40
0.0
 40
1.0
 40
1.0
 40
1.0
 40
1.0
 10
191.4807162823363
 20
977.3604269539164
 30
0.0
 10
191.6481237595499
 20
977.305163608351
 30
0.0
 10
191.8160968392303
 20
977.2522108282792
 30
0.0
 10
191.984599587292
 20
977.2015799417649
 30
0.0
  0
SPLINE
  5
1DC
330
70
100
AcDbEntity
  8
Front$1
 62
    18
420
        0
370
    35
100
AcDbSpline
210
0.0
220
0.0
230
1.0
 70
     8
 71
     3
 72
     8
 73
     4
 74
     0
 42
0.0000000001
 43
0.0000000001
 40
0.0
 40
0.0
 40
0.0
 40
0.0
 40
1.0
 40
1.0
 40
1.0
 40
1.0
 10
191.8747470499493
 20
977.3492695523037
 30
0.0
 10
191.9101534092524
 20
977.3429271408032
 30
0.0
 10
191.9455735795345
 20
977.3366879587412
 30
0.0
 10
191.981007222138
 20
977.3305520657704
 30
0.0
  0
SPLINE
  5
1DD
330
70
100
AcDbEntity
  8
Front$1
 62
    18
420
        0
370
    35
100
AcDbSpline
210
0.0
220
0.0
230
1.0
 70
     8
 71
     3
 72
     8
 73
     4
 74
     0
 42
0.0000000001
 43
0.0000000001
 40
0.0
 40
0.0
 40
0.0
 40
0.0
 40
1.0
 40
1.0
 40
1.0
 40
1.0
 10
191.981008778509
 20
977.3305520657732
 30
0.0
 10
192.1472286509906
 20
977.2757816316334
 30
0.0
 10
192.3140044585507
 20
977.2232862773917
 30
0.0
 10
192.4813011140013
 20
977.1730770472986
 30
0.0
  0
SPLINE
  5
1DE
330
70
100
AcDbEntity
  8
Front$1
 62
    18
420
        0
370
    35
100
AcDbSpline
210
0.0
220
0.0
230
1.0
 70
     8
 71
     3
 72
     8
 73
     4
 74
     0
 42
0.0000000001
 43
0.0000000001
 40
0.0
 40
0.0
 40
0.0
 40
0.0
 40
1.0
 40
1.0
 40
1.0
 40
1.0
 10
193.679055658953
 20
977.0442960921309
 30
0.0
 10
193.8456856509811
 20
977.0294040838463
 30
0.0
 10
194.0124612443269
 20
977.0167703912575
 30
0.0
 10
194.1793479944454
 20
977.0063976236297
 30
0.0
  0
SPLINE
  5
1DF
330
70
100
AcDbEntity
  8
Front$1
 62
    18
420
        0
370
    35
100
AcDbSpline
210
0.0
220
0.0
230
1.0
 70
     8
 71
     3
 72
     8
 73
     4
 74
     0
 42
0.0000000001
 43
0.0000000001
 40
0.0
 40
0.0
 40
0.0
 40
0.0
 40
1.0
 40
1.0
 40
1.0
 40
1.0
 10
193.1860994698554
 20
977.1854959200336
 30
0.0
 10
193.3511813288223
 20
977.1363009860978
 30
0.0
 10
193.5167556959522
 20
977.08933657344
 30
0.0
 10
193.6827886185283
 20
977.0446123125948
 30
0.0
  0
SPLINE
  5
1E0
330
70
100
AcDbEntity
  8
Front$1
 62
    18
420
        0
370
    35
100
AcDbSpline
210
0.0
220
0.0
230
1.0
 70
     8
 71
     3
 72
     8
 73
     4
 74
     0
 42
0.0000000001
 43
0.0000000001
 40
0.0
 40
0.0
 40
0.0
 40
0.0
 40
1.0
 40
1.0
 40
1.0
 40
1.0
 10
193.1787630902008
 20
977.2906986553644
 30
0.0
 10
193.3453903583722
 20
977.2756561904179
 30
0.0
 10
193.5121661848907
 20
977.2628948305763
 30
0.0
 10
193.6790554256922
 20
977.2524172649955
 30
0.0
  0
SPLINE
  5
1E1
330
70
100
AcDbEntity
  8
Front$1
 62
    18
420
        0
370
    35
100
AcDbSpline
210
0.0
220
0.0
230
1.0
 70
     8
 71
     3
 72
     8
 73
     4
 74
     0
 42
0.0000000001
 43
0.0000000001
 40
0.0
 40
0.0
 40
0.0
 40
0.0
 40
1.0
 40
1.0
 40
1.0
 40
1.0
 10
193.6790578221298
 20
977.2524172649973
 30
0.0
 10
193.8453308755097
 20
977.2026980433448
 30
0.0
 10
194.0121066156807
 20
977.1552478814774
 30
0.0
 10
194.1793501576212
 20
977.1100767046974
 30
0.0
  0
SPLINE
  5
1E2
330
70
100
AcDbEntity
  8
Front$1
 62
    18
420
        0
370
    35
100
AcDbSpline
210
0.0
220
0.0
230
1.0
 70
     8
 71
     3
 72
     8
 73
     4
 74
     0
 42
0.0000000001
 43
0.0000000001
 40
0.0
 40
0.0
 40
0.0
 40
0.0
 40
1.0
 40
1.0
 40
1.0
 40
1.0
 10
194.5280802610241
 20
977.0536643882378
 30
0.0
 10
194.694802380839
 20
977.0478399485464
 30
0.0
 10
194.8615779956453
 20
977.0442768713602
 30
0.0
 10
195.0283725965164
 20
977.0429758939435
 30
0.0
  0
SPLINE
  5
1E3
330
70
100
AcDbEntity
  8
Front$1
 62
    18
420
        0
370
    35
100
AcDbSpline
210
0.0
220
0.0
230
1.0
 70
     8
 71
     3
 72
     8
 73
     4
 74
     0
 42
0.0000000001
 43
0.0000000001
 40
0.0
 40
0.0
 40
0.0
 40
0.0
 40
1.0
 40
1.0
 40
1.0
 40
1.0
 10
194.0351234913732
 20
977.1879769618672
 30
0.0
 10
194.200249538494
 20
977.1411871851624
 30
0.0
 10
194.365843908251
 20
977.0966292683507
 30
0.0
 10
194.5318726187515
 20
977.0543123552352
 30
0.0
  0
SPLINE
  5
1E4
330
70
100
AcDbEntity
  8
Front$1
 62
    18
420
        0
370
    35
100
AcDbSpline
210
0.0
220
0.0
230
1.0
 70
     8
 71
     3
 72
     8
 73
     4
 74
     0
 42
0.0000000001
 43
0.0000000001
 40
0.0
 40
0.0
 40
0.0
 40
0.0
 40
1.0
 40
1.0
 40
1.0
 40
1.0
 10
194.8388444782413
 20
976.81816877257
 30
0.0
 10
195.0055431242835
 20
976.809990456366
 30
0.0
 10
195.1723185186765
 20
976.8040514947543
 30
0.0
 10
195.3391368137345
 20
976.8003530930709
 30
0.0
  0
SPLINE
  5
1E5
330
70
100
AcDbEntity
  8
Front$1
 62
    18
420
        0
370
    35
100
AcDbSpline
210
0.0
220
0.0
230
1.0
 70
     8
 71
     3
 72
     8
 73
     4
 74
     0
 42
0.0000000001
 43
0.0000000001
 40
0.0
 40
0.0
 40
0.0
 40
0.0
 40
1.0
 40
1.0
 40
1.0
 40
1.0
 10
194.3458878051024
 20
976.9312350700875
 30
0.0
 10
194.5110691754125
 20
976.8914699989281
 30
0.0
 10
194.6766437687101
 20
976.8539148248455
 30
0.0
 10
194.8425782872655
 20
976.8185771003382
 30
0.0
  0
SPLINE
  5
1E6
330
70
100
AcDbEntity
  8
Front$1
 62
    18
420
        0
370
    35
100
AcDbSpline
210
0.0
220
0.0
230
1.0
 70
     8
 71
     3
 72
     8
 73
     4
 74
     0
 42
0.0000000001
 43
0.0000000001
 40
0.0
 40
0.0
 40
0.0
 40
0.0
 40
1.0
 40
1.0
 40
1.0
 40
1.0
 10
194.338551909489
 20
977.0277630171568
 30
0.0
 10
194.5052494366255
 20
977.0195151095858
 30
0.0
 10
194.6720250238477
 20
977.0135256014564
 30
0.0
 10
194.8388442449804
 20
977.0097957291355
 30
0.0
  0
SPLINE
  5
1E7
330
70
100
AcDbEntity
  8
Front$1
 62
    18
420
        0
370
    35
100
AcDbSpline
210
0.0
220
0.0
230
1.0
 70
     8
 71
     3
 72
     8
 73
     4
 74
     0
 42
0.0000000001
 43
0.0000000001
 40
0.0
 40
0.0
 40
0.0
 40
0.0
 40
1.0
 40
1.0
 40
1.0
 40
1.0
 10
194.8388461573759
 20
977.0097957291309
 30
0.0
 10
195.0052199200572
 20
976.9695828252752
 30
0.0
 10
195.171995446075
 20
976.9316190093858
 30
0.0
 10
195.3391384928672
 20
976.8959120762419
 30
0.0
  0
SPLINE
  5
1E8
330
70
100
AcDbEntity
  8
Front$1
 62
    18
420
        0
370
    35
100
AcDbSpline
210
0.0
220
0.0
230
1.0
 70
     8
 71
     3
 72
     8
 73
     4
 74
     0
 42
0.0000000001
 43
0.0000000001
 40
0.0
 40
0.0
 40
0.0
 40
0.0
 40
1.0
 40
1.0
 40
1.0
 40
1.0
 10
201.4941490007841
 20
976.9060113692921
 30
0.0
 10
201.65855841348
 20
976.9134005098495
 30
0.0
 10
201.8228887015484
 20
976.9229751435741
 30
0.0
 10
201.9871071923772
 20
976.9347333668083
 30
0.0
  0
SPLINE
  5
1E9
330
70
100
AcDbEntity
  8
Front$1
 62
    18
420
        0
370
    35
100
AcDbSpline
210
0.0
220
0.0
230
1.0
 70
     8
 71
     3
 72
     8
 73
     4
 74
     0
 42
0.0000000001
 43
0.0000000001
 40
0.0
 40
0.0
 40
0.0
 40
0.0
 40
1.0
 40
1.0
 40
1.0
 40
1.0
 10
201.7975783945567
 20
976.6876605082071
 30
0.0
 10
201.9646731160965
 20
976.7188970015196
 30
0.0
 10
202.1314484458917
 20
976.7523704078376
 30
0.0
 10
202.297870730049
 20
976.7880739725024
 30
0.0
  0
SPLINE
  5
1EA
330
70
100
AcDbEntity
  8
Front$1
 62
    18
420
        0
370
    35
100
AcDbSpline
210
0.0
220
0.0
230
1.0
 70
     8
 71
     3
 72
     8
 73
     4
 74
     0
 42
0.0000000001
 43
0.0000000001
 40
0.0
 40
0.0
 40
0.0
 40
0.0
 40
1.0
 40
1.0
 40
1.0
 40
1.0
 10
201.3046207457592
 20
976.6398835747732
 30
0.0
 10
201.4690919697632
 20
976.6536466034104
 30
0.0
 10
201.6334220352092
 20
976.6695732818433
 30
0.0
 10
201.7975789373522
 20
976.6876605082124
 30
0.0
  0
SPLINE
  5
1EB
330
70
100
AcDbEntity
  8
Front$1
 62
    18
420
        0
370
    35
100
AcDbSpline
210
0.0
220
0.0
230
1.0
 70
     8
 71
     3
 72
     8
 73
     4
 74
     0
 42
0.0000000001
 43
0.0000000001
 40
0.0
 40
0.0
 40
0.0
 40
0.0
 40
1.0
 40
1.0
 40
1.0
 40
1.0
 10
201.3046200422814
 20
976.6915153782301
 30
0.0
 10
201.469260587689
 20
976.722330113438
 30
0.0
 10
201.6335907194061
 20
976.7553168847936
 30
0.0
 10
201.7975782338744
 20
976.7904692279216
 30
0.0
  0
SPLINE
  5
1EC
330
70
100
AcDbEntity
  8
Front$1
 62
    18
420
        0
370
    35
100
AcDbSpline
210
0.0
220
0.0
230
1.0
 70
     8
 71
     3
 72
     8
 73
     4
 74
     0
 42
0.0000000001
 43
0.0000000001
 40
0.0
 40
0.0
 40
0.0
 40
0.0
 40
1.0
 40
1.0
 40
1.0
 40
1.0
 10
201.7975790980345
 20
976.7904692279216
 30
0.0
 10
201.9633115047272
 20
976.8043892262475
 30
0.0
 10
202.1288991214396
 20
976.8205194893898
 30
0.0
 10
202.2943088039965
 20
976.8388567886995
 30
0.0
  0
SPLINE
  5
1ED
330
70
100
AcDbEntity
  8
Front$1
 62
    18
420
        0
370
    35
100
AcDbSpline
210
0.0
220
0.0
230
1.0
 70
     8
 71
     3
 72
     8
 73
     4
 74
     0
 42
0.0000000001
 43
0.0000000001
 40
0.0
 40
0.0
 40
0.0
 40
0.0
 40
1.0
 40
1.0
 40
1.0
 40
1.0
 10
200.9938548244772
 20
976.7977947378376
 30
0.0
 10
201.1609772888387
 20
976.8316219134776
 30
0.0
 10
201.3277527220807
 20
976.8676965728618
 30
0.0
 10
201.4941471599686
 20
976.9060113692958
 30
0.0
  0
SPLINE
  5
1EE
330
70
100
AcDbEntity
  8
Front$1
 62
    18
420
        0
370
    35
100
AcDbSpline
210
0.0
220
0.0
230
1.0
 70
     8
 71
     3
 72
     8
 73
     4
 74
     0
 42
0.0000000001
 43
0.0000000001
 40
0.0
 40
0.0
 40
0.0
 40
0.0
 40
1.0
 40
1.0
 40
1.0
 40
1.0
 10
194.3005850939753
 20
976.6909998760002
 30
0.0
 10
194.4671709287995
 20
976.6715305597827
 30
0.0
 10
194.6339461933548
 20
976.6542865453285
 30
0.0
 10
194.8008774294676
 20
976.6392712921025
 30
0.0
  0
SPLINE
  5
1EF
330
70
100
AcDbEntity
  8
Front$1
 62
    18
420
        0
370
    35
100
AcDbSpline
210
0.0
220
0.0
230
1.0
 70
     8
 71
     3
 72
     8
 73
     4
 74
     0
 42
0.0000000001
 43
0.0000000001
 40
0.0
 40
0.0
 40
0.0
 40
0.0
 40
1.0
 40
1.0
 40
1.0
 40
1.0
 10
193.8076280973137
 20
976.7904692279216
 30
0.0
 10
193.9728254103584
 20
976.7550575525211
 30
0.0
 10
194.1383703744313
 20
976.7218435278556
 30
0.0
 10
194.3042300675015
 20
976.6908337592186
 30
0.0
  0
SPLINE
  5
1F0
330
70
100
AcDbEntity
  8
Front$1
 62
    18
420
        0
370
    35
100
AcDbSpline
210
0.0
220
0.0
230
1.0
 70
     8
 71
     3
 72
     8
 73
     4
 74
     0
 42
0.0000000001
 43
0.0000000001
 40
0.0
 40
0.0
 40
0.0
 40
0.0
 40
1.0
 40
1.0
 40
1.0
 40
1.0
 10
193.8002925252231
 20
976.8401129390376
 30
0.0
 10
193.9668762143028
 20
976.8205268106166
 30
0.0
 10
194.1336516130877
 20
976.8031793144027
 30
0.0
 10
194.3005848607145
 20
976.7880739725059
 30
0.0
  0
SPLINE
  5
1F1
330
70
100
AcDbEntity
  8
Front$1
 62
    18
420
        0
370
    35
100
AcDbSpline
210
0.0
220
0.0
230
1.0
 70
     8
 71
     3
 72
     8
 73
     4
 74
     0
 42
0.0000000001
 43
0.0000000001
 40
0.0
 40
0.0
 40
0.0
 40
0.0
 40
1.0
 40
1.0
 40
1.0
 40
1.0
 10
194.300586449588
 20
976.7880739725024
 30
0.0
 10
194.4670087337454
 20
976.7523704078385
 30
0.0
 10
194.6337840635406
 20
976.7188970015205
 30
0.0
 10
194.8008787850804
 20
976.6876605082071
 30
0.0
  0
SPLINE
  5
1F2
330
70
100
AcDbEntity
  8
Front$1
 62
    18
420
        0
370
    35
100
AcDbSpline
210
0.0
220
0.0
230
1.0
 70
     8
 71
     3
 72
     8
 73
     4
 74
     0
 42
0.0000000001
 43
0.0000000001
 40
0.0
 40
0.0
 40
0.0
 40
0.0
 40
1.0
 40
1.0
 40
1.0
 40
1.0
 10
195.1496096234668
 20
976.6432966196781
 30
0.0
 10
195.3162855926048
 20
976.6328164627767
 30
0.0
 10
195.4830608266584
 20
976.6245594639512
 30
0.0
 10
195.6499019589582
 20
976.6185272751764
 30
0.0
  0
SPLINE
  5
1F3
330
70
100
AcDbEntity
  8
Front$1
 62
    18
420
        0
370
    35
100
AcDbSpline
210
0.0
220
0.0
230
1.0
 70
     8
 71
     3
 72
     8
 73
     4
 74
     0
 42
0.0000000001
 43
0.0000000001
 40
0.0
 40
0.0
 40
0.0
 40
0.0
 40
1.0
 40
1.0
 40
1.0
 40
1.0
 10
194.6566521188315
 20
976.7349549676454
 30
0.0
 10
194.8206643570411
 20
976.7022388830328
 30
0.0
 10
194.9849944441785
 20
976.6716841127399
 30
0.0
 10
195.1496103104246
 20
976.6432966196781
 30
0.0
  0
SPLINE
  5
1F4
330
70
100
AcDbEntity
  8
Front$1
 62
    18
420
        0
370
    35
100
AcDbSpline
210
0.0
220
0.0
230
1.0
 70
     8
 71
     3
 72
     8
 73
     4
 74
     0
 42
0.0000000001
 43
0.0000000001
 40
0.0
 40
0.0
 40
0.0
 40
0.0
 40
1.0
 40
1.0
 40
1.0
 40
1.0
 10
194.6493171272923
 20
976.8038334457505
 30
0.0
 10
194.8159916244549
 20
976.7932528252677
 30
0.0
 10
194.9827670025615
 20
976.7849096994096
 30
0.0
 10
195.1496094627837
 20
976.7788057590005
 30
0.0
  0
SPLINE
  5
1F5
330
70
100
AcDbEntity
  8
Front$1
 62
    18
420
        0
370
    35
100
AcDbSpline
210
0.0
220
0.0
230
1.0
 70
     8
 71
     3
 72
     8
 73
     4
 74
     0
 42
0.0000000001
 43
0.0000000001
 40
0.0
 40
0.0
 40
0.0
 40
0.0
 40
1.0
 40
1.0
 40
1.0
 40
1.0
 10
195.1496104711068
 20
976.7788057590077
 30
0.0
 10
195.3160570388636
 20
976.7455127916782
 30
0.0
 10
195.4828323635674
 20
976.7144497204226
 30
0.0
 10
195.6499028065982
 20
976.685622810668
 30
0.0
  0
SPLINE
  5
1F6
330
70
100
AcDbEntity
  8
Front$1
 62
    18
420
        0
370
    35
100
AcDbSpline
210
0.0
220
0.0
230
1.0
 70
     8
 71
     3
 72
     8
 73
     4
 74
     0
 42
0.0000000001
 43
0.0000000001
 40
0.0
 40
0.0
 40
0.0
 40
0.0
 40
1.0
 40
1.0
 40
1.0
 40
1.0
 10
195.9986332975304
 20
976.6517121233263
 30
0.0
 10
196.0289370997488
 20
976.6514242451339
 30
0.0
 10
196.0592413922231
 20
976.6512098688208
 30
0.0
 10
196.0895459743906
 20
976.6510689958067
 30
0.0
  0
SPLINE
  5
1F7
330
70
100
AcDbEntity
  8
Front$1
 62
    18
420
        0
370
    35
100
AcDbSpline
210
0.0
220
0.0
230
1.0
 70
     8
 71
     3
 72
     8
 73
     4
 74
     0
 42
0.0000000001
 43
0.0000000001
 40
0.0
 40
0.0
 40
0.0
 40
0.0
 40
1.0
 40
1.0
 40
1.0
 40
1.0
 10
195.4983429244539
 20
976.7375578243736
 30
0.0
 10
195.6648145040326
 20
976.7067138848405
 30
0.0
 10
195.8315897949806
 20
976.6780967329205
 30
0.0
 10
195.9986352599471
 20
976.6517121233237
 30
0.0
  0
SPLINE
  5
1F8
330
70
100
AcDbEntity
  8
Front$1
 62
    18
420
        0
370
    35
100
AcDbSpline
210
0.0
220
0.0
230
1.0
 70
     8
 71
     3
 72
     8
 73
     4
 74
     0
 42
0.0000000001
 43
0.0000000001
 40
0.0
 40
0.0
 40
0.0
 40
0.0
 40
1.0
 40
1.0
 40
1.0
 40
1.0
 10
195.4983407287764
 20
976.8256389909803
 30
0.0
 10
195.6651057059198
 20
976.8240436630948
 30
0.0
 10
195.8318811160925
 20
976.8246899240512
 30
0.0
 10
195.9986330642687
 20
976.8275776425062
 30
0.0
  0
SPLINE
  5
1F9
330
70
100
AcDbEntity
  8
Front$1
 62
    18
420
        0
370
    35
100
AcDbSpline
210
0.0
220
0.0
230
1.0
 70
     8
 71
     3
 72
     8
 73
     4
 74
     0
 42
0.0000000001
 43
0.0000000001
 40
0.0
 40
0.0
 40
0.0
 40
0.0
 40
1.0
 40
1.0
 40
1.0
 40
1.0
 10
195.998635493208
 20
976.8275776425044
 30
0.0
 10
196.0289295036209
 20
976.8219443886973
 30
0.0
 10
196.0592337970038
 20
976.8163851158961
 30
0.0
 10
196.089548170069
 20
976.8108998613943
 30
0.0
  0
SPLINE
  5
1FA
330
70
100
AcDbEntity
  8
Front$1
 62
    18
420
        0
370
    35
100
AcDbSpline
210
0.0
220
0.0
230
1.0
 70
     8
 71
     3
 72
     8
 73
     4
 74
     0
 42
0.0000000001
 43
0.0000000001
 40
0.0
 40
0.0
 40
0.0
 40
0.0
 40
1.0
 40
1.0
 40
1.0
 40
1.0
 10
200.6377895752694
 20
976.5652087225452
 30
0.0
 10
200.8048155523538
 20
976.5897494046294
 30
0.0
 10
200.971590763711
 20
976.6165144723563
 30
0.0
 10
201.1380819107617
 20
976.6454985817745
 30
0.0
  0
SPLINE
  5
1FB
330
70
100
AcDbEntity
  8
Front$1
 62
    18
420
        0
370
    35
100
AcDbSpline
210
0.0
220
0.0
230
1.0
 70
     8
 71
     3
 72
     8
 73
     4
 74
     0
 42
0.0000000001
 43
0.0000000001
 40
0.0
 40
0.0
 40
0.0
 40
0.0
 40
1.0
 40
1.0
 40
1.0
 40
1.0
 10
200.144831409928
 20
976.5439573220238
 30
0.0
 10
200.3092151209758
 20
976.5488882058962
 30
0.0
 10
200.4735450937578
 20
976.5559724619834
 30
0.0
 10
200.6377896015219
 20
976.5652087225499
 30
0.0
  0
SPLINE
  5
1FC
330
70
100
AcDbEntity
  8
Front$1
 62
    18
420
        0
370
    35
100
AcDbSpline
210
0.0
220
0.0
230
1.0
 70
     8
 71
     3
 72
     8
 73
     4
 74
     0
 42
0.0000000001
 43
0.0000000001
 40
0.0
 40
0.0
 40
0.0
 40
0.0
 40
1.0
 40
1.0
 40
1.0
 40
1.0
 10
200.1448312229932
 20
976.6025607344708
 30
0.0
 10
200.3118583119431
 20
976.6271708102976
 30
0.0
 10
200.4786335565905
 20
976.6540086163949
 30
0.0
 10
200.6451235584846
 20
976.6830687782185
 30
0.0
  0
SPLINE
  5
1FD
330
70
100
AcDbEntity
  8
Front$1
 62
    18
420
        0
370
    35
100
AcDbSpline
210
0.0
220
0.0
230
1.0
 70
     8
 71
     3
 72
     8
 73
     4
 74
     0
 42
0.0000000001
 43
0.0000000001
 40
0.0
 40
0.0
 40
0.0
 40
0.0
 40
1.0
 40
1.0
 40
1.0
 40
1.0
 10
200.6451239786811
 20
976.683068778213
 30
0.0
 10
200.8095084093147
 20
976.6880271693716
 30
0.0
 10
200.9738385004193
 20
976.69515095318
 30
0.0
 10
201.1380821702751
 20
976.7044387388823
 30
0.0
  0
SPLINE
  5
1FE
330
70
100
AcDbEntity
  8
Front$1
 62
    18
420
        0
370
    35
100
AcDbSpline
210
0.0
220
0.0
230
1.0
 70
     8
 71
     3
 72
     8
 73
     4
 74
     0
 42
0.0000000001
 43
0.0000000001
 40
0.0
 40
0.0
 40
0.0
 40
0.0
 40
1.0
 40
1.0
 40
1.0
 40
1.0
 10
200.9485537924866
 20
976.5344514910102
 30
0.0
 10
201.1155552324963
 20
976.5565714649829
 30
0.0
 10
201.2823304134199
 20
976.5809125280529
 30
0.0
 10
201.4488461279789
 20
976.6074698335714
 30
0.0
  0
SPLINE
  5
1FF
330
70
100
AcDbEntity
  8
Front$1
 62
    18
420
        0
370
    35
100
AcDbSpline
210
0.0
220
0.0
230
1.0
 70
     8
 71
     3
 72
     8
 73
     4
 74
     0
 42
0.0000000001
 43
0.0000000001
 40
0.0
 40
0.0
 40
0.0
 40
0.0
 40
1.0
 40
1.0
 40
1.0
 40
1.0
 10
194.02778769227
 20
977.3129406067155
 30
0.0
 10
194.1945089126356
 20
977.3070541210445
 30
0.0
 10
194.3612847738231
 20
977.303453079503
 30
0.0
 10
194.5280800277624
 20
977.3021382431707
 30
0.0
  0
SPLINE
  5
200
330
70
100
AcDbEntity
  8
Front$1
 62
    18
420
        0
370
    35
100
AcDbSpline
210
0.0
220
0.0
230
1.0
 70
     8
 71
     3
 72
     8
 73
     4
 74
     0
 42
0.0000000001
 43
0.0000000001
 40
0.0
 40
0.0
 40
0.0
 40
0.0
 40
1.0
 40
1.0
 40
1.0
 40
1.0
 10
194.5280818436467
 20
977.3021382431679
 30
0.0
 10
194.6943778839231
 20
977.2547624946938
 30
0.0
 10
194.8611536748849
 20
977.2096609918635
 30
0.0
 10
195.028374179139
 20
977.1668432099067
 30
0.0
  0
SPLINE
  5
201
330
70
100
AcDbEntity
  8
Front$1
 62
    18
420
        0
370
    35
100
AcDbSpline
210
0.0
220
0.0
230
1.0
 70
     8
 71
     3
 72
     8
 73
     4
 74
     0
 42
0.0000000001
 43
0.0000000001
 40
0.0
 40
0.0
 40
0.0
 40
0.0
 40
1.0
 40
1.0
 40
1.0
 40
1.0
 10
195.3844380064065
 20
977.1219127683981
 30
0.0
 10
195.5488070628808
 20
977.1251983369712
 30
0.0
 10
195.7131375381623
 20
977.1306876980416
 30
0.0
 10
195.8773961980005
 20
977.1383797414401
 30
0.0
  0
SPLINE
  5
202
330
70
100
AcDbEntity
  8
Front$1
 62
    18
420
        0
370
    35
100
AcDbSpline
210
0.0
220
0.0
230
1.0
 70
     8
 71
     3
 72
     8
 73
     4
 74
     0
 42
0.0000000001
 43
0.0000000001
 40
0.0
 40
0.0
 40
0.0
 40
0.0
 40
1.0
 40
1.0
 40
1.0
 40
1.0
 10
194.8841485134762
 20
977.2494964608059
 30
0.0
 10
195.0504717921712
 20
977.2046956096655
 30
0.0
 10
195.2172475365823
 20
977.1621647456777
 30
0.0
 10
195.3844408489676
 20
977.1219127684053
 30
0.0
  0
SPLINE
  5
203
330
70
100
AcDbEntity
  8
Front$1
 62
    18
420
        0
370
    35
100
AcDbSpline
210
0.0
220
0.0
230
1.0
 70
     8
 71
     3
 72
     8
 73
     4
 74
     0
 42
0.0000000001
 43
0.0000000001
 40
0.0
 40
0.0
 40
0.0
 40
0.0
 40
1.0
 40
1.0
 40
1.0
 40
1.0
 10
200.99385643203
 20
976.7190425985136
 30
0.0
 10
201.1582644975897
 20
976.7263762410848
 30
0.0
 10
201.3225946226748
 20
976.735878947994
 30
0.0
 10
201.4868146236231
 20
976.7475488581567
 30
0.0
  0
SPLINE
  5
204
330
70
100
AcDbEntity
  8
Front$1
 62
    18
420
        0
370
    35
100
AcDbSpline
210
0.0
220
0.0
230
1.0
 70
     8
 71
     3
 72
     8
 73
     4
 74
     0
 42
0.0000000001
 43
0.0000000001
 40
0.0
 40
0.0
 40
0.0
 40
0.0
 40
1.0
 40
1.0
 40
1.0
 40
1.0
 10
195.5436506226842
 20
977.3670030205831
 30
0.0
 10
195.6547059115573
 20
977.3379379674915
 30
0.0
 10
195.7659589310678
 20
977.3098896057799
 30
0.0
 10
195.8773992012429
 20
977.2828605775876
 30
0.0
  0
SPLINE
  5
205
330
70
100
AcDbEntity
  8
Front$1
 62
    18
420
        0
370
    35
100
AcDbSpline
210
0.0
220
0.0
230
1.0
 70
     8
 71
     3
 72
     8
 73
     4
 74
     0
 42
0.0000000001
 43
0.0000000001
 40
0.0
 40
0.0
 40
0.0
 40
0.0
 40
1.0
 40
1.0
 40
1.0
 40
1.0
 10
196.2334626084766
 20
977.2496464120159
 30
0.0
 10
196.3979235827255
 20
977.2619813316687
 30
0.0
 10
196.5622541868697
 20
977.2765337546379
 30
0.0
 10
196.7264208000706
 20
977.2933007036044
 30
0.0
  0
SPLINE
  5
206
330
70
100
AcDbEntity
  8
Front$1
 62
    18
420
        0
370
    35
100
AcDbSpline
210
0.0
220
0.0
230
1.0
 70
     8
 71
     3
 72
     8
 73
     4
 74
     0
 42
0.0000000001
 43
0.0000000001
 40
0.0
 40
0.0
 40
0.0
 40
0.0
 40
1.0
 40
1.0
 40
1.0
 40
1.0
 10
195.7331725349932
 20
977.3705033823144
 30
0.0
 10
195.8995165835222
 20
977.3279330821397
 30
0.0
 10
196.0662924471589
 20
977.2876445864595
 30
0.0
 10
196.2334648704855
 20
977.2496464120212
 30
0.0
  0
SPLINE
  5
207
330
70
100
AcDbEntity
  8
Front$1
 62
    18
420
        0
370
    35
100
AcDbSpline
210
0.0
220
0.0
230
1.0
 70
     8
 71
     3
 72
     8
 73
     4
 74
     0
 42
0.0000000001
 43
0.0000000001
 40
0.0
 40
0.0
 40
0.0
 40
0.0
 40
1.0
 40
1.0
 40
1.0
 40
1.0
 10
202.3358377788227
 20
976.9896519139065
 30
0.0
 10
202.5030583831612
 20
977.0328142051839
 30
0.0
 10
202.6698340068333
 20
977.0782438027262
 30
0.0
 10
202.8361301143141
 20
977.1259312990723
 30
0.0
  0
SPLINE
  5
208
330
70
100
AcDbEntity
  8
Front$1
 62
    18
420
        0
370
    35
100
AcDbSpline
210
0.0
220
0.0
230
1.0
 70
     8
 71
     3
 72
     8
 73
     4
 74
     0
 42
0.0000000001
 43
0.0000000001
 40
0.0
 40
0.0
 40
0.0
 40
0.0
 40
1.0
 40
1.0
 40
1.0
 40
1.0
 10
201.8428804535488
 20
976.9536991758613
 30
0.0
 10
202.0073141242892
 20
976.9634939387133
 30
0.0
 10
202.1716444577014
 20
976.9754789823336
 30
0.0
 10
202.3358386451418
 20
976.989651913901
 30
0.0
  0
SPLINE
  5
209
330
70
100
AcDbEntity
  8
Front$1
 62
    18
420
        0
370
    35
100
AcDbSpline
210
0.0
220
0.0
230
1.0
 70
     8
 71
     3
 72
     8
 73
     4
 74
     0
 42
0.0000000001
 43
0.0000000001
 40
0.0
 40
0.0
 40
0.0
 40
0.0
 40
1.0
 40
1.0
 40
1.0
 40
1.0
 10
201.8428794265474
 20
977.0531431465052
 30
0.0
 10
202.0101027458722
 20
977.0964508569022
 30
0.0
 10
202.1768784294518
 20
977.1420317935108
 30
0.0
 10
202.3431717620387
 20
977.1898764684147
 30
0.0
  0
SPLINE
  5
20A
330
70
100
AcDbEntity
  8
Front$1
 62
    18
420
        0
370
    35
100
AcDbSpline
210
0.0
220
0.0
230
1.0
 70
     8
 71
     3
 72
     8
 73
     4
 74
     0
 42
0.0000000001
 43
0.0000000001
 40
0.0
 40
0.0
 40
0.0
 40
0.0
 40
1.0
 40
1.0
 40
1.0
 40
1.0
 10
202.3431730223019
 20
977.1898764684101
 30
0.0
 10
202.5076089146387
 20
977.1997659797925
 30
0.0
 10
202.6719394606553
 20
977.2118669828596
 30
0.0
 10
202.836131213895
 20
977.2261770146769
 30
0.0
  0
SPLINE
  5
20B
330
70
100
AcDbEntity
  8
Front$1
 62
    18
420
        0
370
    35
100
AcDbSpline
210
0.0
220
0.0
230
1.0
 70
     8
 71
     3
 72
     8
 73
     4
 74
     0
 42
0.0000000001
 43
0.0000000001
 40
0.0
 40
0.0
 40
0.0
 40
0.0
 40
1.0
 40
1.0
 40
1.0
 40
1.0
 10
192.830032057469
 20
977.0935954899679
 30
0.0
 10
192.9965691865045
 20
977.0695957271746
 30
0.0
 10
193.1633448131715
 20
977.0478566098118
 30
0.0
 10
193.3303243929613
 20
977.0283826407366
 30
0.0
  0
SPLINE
  5
20C
330
70
100
AcDbEntity
  8
Front$1
 62
    18
420
        0
370
    35
100
AcDbSpline
210
0.0
220
0.0
230
1.0
 70
     8
 71
     3
 72
     8
 73
     4
 74
     0
 42
0.0000000001
 43
0.0000000001
 40
0.0
 40
0.0
 40
0.0
 40
0.0
 40
1.0
 40
1.0
 40
1.0
 40
1.0
 10
192.3370744477524
 20
977.2420353239867
 30
0.0
 10
192.5021075977593
 20
977.1903136118263
 30
0.0
 10
192.6676598798922
 20
977.1408263615066
 30
0.0
 10
192.8336972085699
 20
977.0935837619663
 30
0.0
  0
SPLINE
  5
20D
330
70
100
AcDbEntity
  8
Front$1
 62
    18
420
        0
370
    35
100
AcDbSpline
210
0.0
220
0.0
230
1.0
 70
     8
 71
     3
 72
     8
 73
     4
 74
     0
 42
0.0000000001
 43
0.0000000001
 40
0.0
 40
0.0
 40
0.0
 40
0.0
 40
1.0
 40
1.0
 40
1.0
 40
1.0
 10
192.3297394887158
 20
977.3277046662869
 30
0.0
 10
192.4962722372902
 20
977.3034744365123
 30
0.0
 10
192.6630480861704
 20
977.281526517021
 30
0.0
 10
192.8300318242081
 20
977.2618655416463
 30
0.0
  0
SPLINE
  5
20E
330
70
100
AcDbEntity
  8
Front$1
 62
    18
420
        0
370
    35
100
AcDbSpline
210
0.0
220
0.0
230
1.0
 70
     8
 71
     3
 72
     8
 73
     4
 74
     0
 42
0.0000000001
 43
0.0000000001
 40
0.0
 40
0.0
 40
0.0
 40
0.0
 40
1.0
 40
1.0
 40
1.0
 40
1.0
 10
192.830032800025
 20
977.2618655416382
 30
0.0
 10
192.9962805877067
 20
977.209687432126
 30
0.0
 10
193.1630563333574
 20
977.1597786584852
 30
0.0
 10
193.3303251355173
 20
977.1121496652167
 30
0.0
  0
SPLINE
  5
20F
330
70
100
AcDbEntity
  8
Front$1
 62
    18
420
        0
370
    35
100
AcDbSpline
210
0.0
220
0.0
230
1.0
 70
     8
 71
     3
 72
     8
 73
     4
 74
     0
 42
0.0000000001
 43
0.0000000001
 40
0.0
 40
0.0
 40
0.0
 40
0.0
 40
1.0
 40
1.0
 40
1.0
 40
1.0
 10
192.2844384567252
 20
977.054704915232
 30
0.0
 10
192.4532944274378
 20
977.0187131688853
 30
0.0
 10
192.6225152272
 20
976.985042206692
 30
0.0
 10
192.7920649361167
 20
976.9536991758668
 30
0.0
  0
SPLINE
  5
210
330
70
100
AcDbEntity
  8
Front$1
 62
    18
420
        0
370
    35
100
AcDbSpline
210
0.0
220
0.0
230
1.0
 70
     8
 71
     3
 72
     8
 73
     4
 74
     0
 42
0.0000000001
 43
0.0000000001
 40
0.0
 40
0.0
 40
0.0
 40
0.0
 40
1.0
 40
1.0
 40
1.0
 40
1.0
 10
191.7914805234859
 20
977.1894368486082
 30
0.0
 10
191.9553429042144
 20
977.1423252052683
 30
0.0
 10
192.119673372199
 20
977.0974115350181
 30
0.0
 10
192.2844387150799
 20
977.0547049152291
 30
0.0
  0
SPLINE
  5
211
330
70
100
AcDbEntity
  8
Front$1
 62
    18
420
        0
370
    35
100
AcDbSpline
210
0.0
220
0.0
230
1.0
 70
     8
 71
     3
 72
     8
 73
     4
 74
     0
 42
0.0000000001
 43
0.0000000001
 40
0.0
 40
0.0
 40
0.0
 40
0.0
 40
1.0
 40
1.0
 40
1.0
 40
1.0
 10
191.7914801044499
 20
977.2261770146743
 30
0.0
 10
191.9578967357292
 20
977.1904894008885
 30
0.0
 10
192.1246724709654
 20
977.1570718333213
 30
0.0
 10
192.2917724399422
 20
977.1259312990668
 30
0.0
  0
SPLINE
  5
212
330
70
100
AcDbEntity
  8
Front$1
 62
    18
420
        0
370
    35
100
AcDbSpline
210
0.0
220
0.0
230
1.0
 70
     8
 71
     3
 72
     8
 73
     4
 74
     0
 42
0.0000000001
 43
0.0000000001
 40
0.0
 40
0.0
 40
0.0
 40
0.0
 40
1.0
 40
1.0
 40
1.0
 40
1.0
 10
192.291773092239
 20
977.1259312990723
 30
0.0
 10
192.4580691997198
 20
977.0782438027262
 30
0.0
 10
192.6248448233927
 20
977.0328142051839
 30
0.0
 10
192.7920654277313
 20
976.9896519139065
 30
0.0
  0
SPLINE
  5
213
330
70
100
AcDbEntity
  8
Front$1
 62
    18
420
        0
370
    35
100
AcDbSpline
210
0.0
220
0.0
230
1.0
 70
     8
 71
     3
 72
     8
 73
     4
 74
     0
 42
0.0000000001
 43
0.0000000001
 40
0.0
 40
0.0
 40
0.0
 40
0.0
 40
1.0
 40
1.0
 40
1.0
 40
1.0
 10
201.1760489595344
 20
976.8657074024904
 30
0.0
 10
201.3431976741749
 20
976.9020207402135
 30
0.0
 10
201.5099731731498
 20
976.9405883427126
 30
0.0
 10
201.6763412950268
 20
976.9814023099989
 30
0.0
  0
SPLINE
  5
214
330
70
100
AcDbEntity
  8
Front$1
 62
    18
420
        0
370
    35
100
AcDbSpline
210
0.0
220
0.0
230
1.0
 70
     8
 71
     3
 72
     8
 73
     4
 74
     0
 42
0.0000000001
 43
0.0000000001
 40
0.0
 40
0.0
 40
0.0
 40
0.0
 40
1.0
 40
1.0
 40
1.0
 40
1.0
 10
200.6830921183009
 20
976.8565582217171
 30
0.0
 10
200.8474364317508
 20
976.8574285291206
 30
0.0
 10
201.0117666678088
 20
976.8604784572088
 30
0.0
 10
201.176050309894
 20
976.8657074024822
 30
0.0
  0
SPLINE
  5
215
330
70
100
AcDbEntity
  8
Front$1
 62
    18
420
        0
370
    35
100
AcDbSpline
210
0.0
220
0.0
230
1.0
 70
     8
 71
     3
 72
     8
 73
     4
 74
     0
 42
0.0000000001
 43
0.0000000001
 40
0.0
 40
0.0
 40
0.0
 40
0.0
 40
1.0
 40
1.0
 40
1.0
 40
1.0
 10
200.6830906072591
 20
976.962884867744
 30
0.0
 10
200.8502427093663
 20
976.9993750670991
 30
0.0
 10
201.0170182986685
 20
977.0381284893492
 30
0.0
 10
201.1833829427505
 20
977.0791371334798
 30
0.0
  0
SPLINE
  5
216
330
70
100
AcDbEntity
  8
Front$1
 62
    18
420
        0
370
    35
100
AcDbSpline
210
0.0
220
0.0
230
1.0
 70
     8
 71
     3
 72
     8
 73
     4
 74
     0
 42
0.0000000001
 43
0.0000000001
 40
0.0
 40
0.0
 40
0.0
 40
0.0
 40
1.0
 40
1.0
 40
1.0
 40
1.0
 10
201.1833846870541
 20
977.0791371334745
 30
0.0
 10
201.3477294543172
 20
977.0800153304817
 30
0.0
 10
201.5120598877811
 20
977.0830929126477
 30
0.0
 10
201.676342878648
 20
977.088369259911
 30
0.0
  0
SPLINE
  5
217
330
70
100
AcDbEntity
  8
Front$1
 62
    18
420
        0
370
    35
100
AcDbSpline
210
0.0
220
0.0
230
1.0
 70
     8
 71
     3
 72
     8
 73
     4
 74
     0
 42
0.0000000001
 43
0.0000000001
 40
0.0
 40
0.0
 40
0.0
 40
0.0
 40
1.0
 40
1.0
 40
1.0
 40
1.0
 10
193.4515614924903
 20
976.7975664652357
 30
0.0
 10
193.618055755679
 20
976.7690488035004
 30
0.0
 10
193.7848311037614
 20
976.7427638409326
 30
0.0
 10
193.9518538279826
 20
976.7187168902701
 30
0.0
  0
SPLINE
  5
218
330
70
100
AcDbEntity
  8
Front$1
 62
    18
420
        0
370
    35
100
AcDbSpline
210
0.0
220
0.0
230
1.0
 70
     8
 71
     3
 72
     8
 73
     4
 74
     0
 42
0.0000000001
 43
0.0000000001
 40
0.0
 40
0.0
 40
0.0
 40
0.0
 40
1.0
 40
1.0
 40
1.0
 40
1.0
 10
192.9512689313114
 20
976.9060113692958
 30
0.0
 10
193.118855343092
 20
976.8674221031288
 30
0.0
 10
193.2868281872843
 20
976.8311051930586
 30
0.0
 10
193.4551527639751
 20
976.7970681414526
 30
0.0
  0
SPLINE
  5
219
330
70
100
AcDbEntity
  8
Front$1
 62
    18
420
        0
370
    35
100
AcDbSpline
210
0.0
220
0.0
230
1.0
 70
     8
 71
     3
 72
     8
 73
     4
 74
     0
 42
0.0000000001
 43
0.0000000001
 40
0.0
 40
0.0
 40
0.0
 40
0.0
 40
1.0
 40
1.0
 40
1.0
 40
1.0
 10
192.9512689237372
 20
976.9347333668083
 30
0.0
 10
193.1177601917943
 20
976.9060578840063
 30
0.0
 10
193.2845356645884
 20
976.8796274268224
 30
0.0
 10
193.4515612592295
 20
976.8554473966869
 30
0.0
  0
SPLINE
  5
21A
330
70
100
AcDbEntity
  8
Front$1
 62
    18
420
        0
370
    35
100
AcDbSpline
210
0.0
220
0.0
230
1.0
 70
     8
 71
     3
 72
     8
 73
     4
 74
     0
 42
0.0000000001
 43
0.0000000001
 40
0.0
 40
0.0
 40
0.0
 40
0.0
 40
1.0
 40
1.0
 40
1.0
 40
1.0
 10
193.4515614274842
 20
976.8554473966842
 30
0.0
 10
193.6179576947943
 20
976.8172431758356
 30
0.0
 10
193.784733082136
 20
976.7812745645251
 30
0.0
 10
193.9518537629765
 20
976.7475488581531
 30
0.0
  0
SPLINE
  5
21B
330
70
100
AcDbEntity
  8
Front$1
 62
    18
420
        0
370
    35
100
AcDbSpline
210
0.0
220
0.0
230
1.0
 70
     8
 71
     3
 72
     8
 73
     4
 74
     0
 42
0.0000000001
 43
0.0000000001
 40
0.0
 40
0.0
 40
0.0
 40
0.0
 40
1.0
 40
1.0
 40
1.0
 40
1.0
 10
195.2708465623145
 20
976.5336103280569
 30
0.0
 10
195.4374756033812
 20
976.5183831670466
 30
0.0
 10
195.6042507342554
 20
976.5053683603465
 30
0.0
 10
195.7711388978068
 20
976.4945684876719
 30
0.0
  0
SPLINE
  5
21C
330
70
100
AcDbEntity
  8
Front$1
 62
    18
420
        0
370
    35
100
AcDbSpline
210
0.0
220
0.0
230
1.0
 70
     8
 71
     3
 72
     8
 73
     4
 74
     0
 42
0.0000000001
 43
0.0000000001
 40
0.0
 40
0.0
 40
0.0
 40
0.0
 40
1.0
 40
1.0
 40
1.0
 40
1.0
 10
195.771139098565
 20
976.4945684876719
 30
0.0
 10
195.8771989804791
 20
976.4818642698893
 30
0.0
 10
195.9833378256353
 20
976.4700549309401
 30
0.0
 10
196.0895471368194
 20
976.4591414162524
 30
0.0
  0
SPLINE
  5
21D
330
70
100
AcDbEntity
  8
Front$1
 62
    18
420
        0
370
    35
100
AcDbSpline
210
0.0
220
0.0
230
1.0
 70
     8
 71
     3
 72
     8
 73
     4
 74
     0
 42
0.0000000001
 43
0.0000000001
 40
0.0
 40
0.0
 40
0.0
 40
0.0
 40
1.0
 40
1.0
 40
1.0
 40
1.0
 10
199.394730705224
 20
977.2732759023693
 30
0.0
 10
199.525535270558
 20
977.3007585590448
 30
0.0
 10
199.6561157071464
 20
977.3296450116095
 30
0.0
 10
199.7864550817103
 20
977.3599315141554
 30
0.0
  0
SPLINE
  5
21E
330
70
100
AcDbEntity
  8
Front$1
 62
    18
420
        0
370
    35
100
AcDbSpline
210
0.0
220
0.0
230
1.0
 70
     8
 71
     3
 72
     8
 73
     4
 74
     0
 42
0.0000000001
 43
0.0000000001
 40
0.0
 40
0.0
 40
0.0
 40
0.0
 40
1.0
 40
1.0
 40
1.0
 40
1.0
 10
198.8944410116955
 20
977.3317593167666
 30
0.0
 10
199.060998885734
 20
977.309980178723
 30
0.0
 10
199.2277747420739
 20
977.2904843343413
 30
0.0
 10
199.3947333471878
 20
977.2732759023675
 30
0.0
  0
SPLINE
  5
21F
330
70
100
AcDbEntity
  8
Front$1
 62
    18
420
        0
370
    35
100
AcDbSpline
210
0.0
220
0.0
230
1.0
 70
     8
 71
     3
 72
     8
 73
     4
 74
     0
 42
0.0000000001
 43
0.0000000001
 40
0.0
 40
0.0
 40
0.0
 40
0.0
 40
1.0
 40
1.0
 40
1.0
 40
1.0
 10
200.5545195245131
 20
977.2806447930671
 30
0.0
 10
200.6566440887927
 20
977.3062183369638
 30
0.0
 10
200.7586064811421
 20
977.3326478589952
 30
0.0
 10
200.8603986368726
 20
977.3599312687265
 30
0.0
  0
SPLINE
  5
220
330
70
100
AcDbEntity
  8
Front$1
 62
    18
420
        0
370
    35
100
AcDbSpline
210
0.0
220
0.0
230
1.0
 70
     8
 71
     3
 72
     8
 73
     4
 74
     0
 42
0.0000000001
 43
0.0000000001
 40
0.0
 40
0.0
 40
0.0
 40
0.0
 40
1.0
 40
1.0
 40
1.0
 40
1.0
 10
200.0542293469434
 20
977.3115901149877
 30
0.0
 10
200.2208815980857
 20
977.2989906184848
 30
0.0
 10
200.387657448251
 20
977.2886747851107
 30
0.0
 10
200.5545216824348
 20
977.2806447930715
 30
0.0
  0
SPLINE
  5
221
330
70
100
AcDbEntity
  8
Front$1
 62
    18
420
        0
370
    35
100
AcDbSpline
210
0.0
220
0.0
230
1.0
 70
     8
 71
     3
 72
     8
 73
     4
 74
     0
 42
0.0000000001
 43
0.0000000001
 40
0.0
 40
0.0
 40
0.0
 40
0.0
 40
1.0
 40
1.0
 40
1.0
 40
1.0
 10
204.4658882944586
 20
977.2732759023702
 30
0.0
 10
204.5966928597936
 20
977.3007585590448
 30
0.0
 10
204.727273296382
 20
977.3296450116095
 30
0.0
 10
204.8576126709459
 20
977.3599315141554
 30
0.0
  0
SPLINE
  5
222
330
70
100
AcDbEntity
  8
Front$1
 62
    18
420
        0
370
    35
100
AcDbSpline
210
0.0
220
0.0
230
1.0
 70
     8
 71
     3
 72
     8
 73
     4
 74
     0
 42
0.0000000001
 43
0.0000000001
 40
0.0
 40
0.0
 40
0.0
 40
0.0
 40
1.0
 40
1.0
 40
1.0
 40
1.0
 10
204.7766526081887
 20
977.2806447930671
 30
0.0
 10
204.8787771724692
 20
977.3062183369638
 30
0.0
 10
204.9807395648186
 20
977.3326478589961
 30
0.0
 10
205.082531720549
 20
977.3599312687274
 30
0.0
  0
SPLINE
  5
223
330
70
100
AcDbEntity
  8
Front$1
 62
    18
420
        0
370
    35
100
AcDbSpline
210
0.0
220
0.0
230
1.0
 70
     8
 71
     3
 72
     8
 73
     4
 74
     0
 42
0.0000000001
 43
0.0000000001
 40
0.0
 40
0.0
 40
0.0
 40
0.0
 40
1.0
 40
1.0
 40
1.0
 40
1.0
 10
204.7801898715625
 20
977.3121426649259
 30
0.0
 10
204.8295805763391
 20
977.3275835602571
 30
0.0
 10
204.8789241050554
 20
977.3432249592278
 30
0.0
 10
204.9282195424612
 20
977.359066571712
 30
0.0
  0
SPLINE
  5
224
330
70
100
AcDbEntity
  8
Front$1
 62
    18
420
        0
370
    35
100
AcDbSpline
210
0.0
220
0.0
230
1.0
 70
     8
 71
     3
 72
     8
 73
     4
 74
     0
 42
0.0000000001
 43
0.0000000001
 40
0.0
 40
0.0
 40
0.0
 40
0.0
 40
1.0
 40
1.0
 40
1.0
 40
1.0
 10
192.5192668396648
 20
977.3317593167666
 30
0.0
 10
192.6858247137033
 20
977.309980178723
 30
0.0
 10
192.8526005700432
 20
977.2904843343422
 30
0.0
 10
193.0195591751571
 20
977.2732759023675
 30
0.0
  0
SPLINE
  5
225
330
70
100
AcDbEntity
  8
Front$1
 62
    18
420
        0
370
    35
100
AcDbSpline
210
0.0
220
0.0
230
1.0
 70
     8
 71
     3
 72
     8
 73
     4
 74
     0
 42
0.0000000001
 43
0.0000000001
 40
0.0
 40
0.0
 40
0.0
 40
0.0
 40
1.0
 40
1.0
 40
1.0
 40
1.0
 10
194.21731504322
 20
977.3507212730255
 30
0.0
 10
194.3840614863529
 20
977.3472882343439
 30
0.0
 10
194.5508373876873
 20
977.3461448009893
 30
0.0
 10
194.7176073787123
 20
977.3472912154511
 30
0.0
  0
SPLINE
  5
226
330
70
100
AcDbEntity
  8
Front$1
 62
    18
420
        0
370
    35
100
AcDbSpline
210
0.0
220
0.0
230
1.0
 70
     8
 71
     3
 72
     8
 73
     4
 74
     0
 42
0.0000000001
 43
0.0000000001
 40
0.0
 40
0.0
 40
0.0
 40
0.0
 40
1.0
 40
1.0
 40
1.0
 40
1.0
 10
191.9587115006006
 20
977.3599321327456
 30
0.0
 10
192.0292685108006
 20
977.3479213339614
 30
0.0
 10
192.0998774295831
 20
977.3363206921267
 30
0.0
 10
192.170535573674
 20
977.3251306480871
 30
0.0
  0
SPLINE
  5
227
330
70
100
AcDbEntity
  8
Front$1
 62
    18
420
        0
370
    35
100
AcDbSpline
210
0.0
220
0.0
230
1.0
 70
     8
 71
     3
 72
     8
 73
     4
 74
     0
 42
0.0000000001
 43
0.0000000001
 40
0.0
 40
0.0
 40
0.0
 40
0.0
 40
1.0
 40
1.0
 40
1.0
 40
1.0
 10
193.3682914417359
 20
977.3115901149877
 30
0.0
 10
193.5349436928781
 20
977.2989906184848
 30
0.0
 10
193.7017195430435
 20
977.2886747851107
 30
0.0
 10
193.8685837772282
 20
977.2806447930715
 30
0.0
  0
SPLINE
  5
228
330
70
100
AcDbEntity
  8
Front$1
 62
    18
420
        0
370
    35
100
AcDbSpline
210
0.0
220
0.0
230
1.0
 70
     8
 71
     3
 72
     8
 73
     4
 74
     0
 42
0.0000000001
 43
0.0000000001
 40
0.0
 40
0.0
 40
0.0
 40
0.0
 40
1.0
 40
1.0
 40
1.0
 40
1.0
 10
193.2213633178898
 20
977.3599334924911
 30
0.0
 10
193.2715559778444
 20
977.3437955381714
 30
0.0
 10
193.3217985193905
 20
977.3278651601959
 30
0.0
 10
193.3720899763011
 20
977.3121426649259
 30
0.0
  0
SPLINE
  5
229
330
70
100
AcDbEntity
  8
Front$1
 62
    18
420
        0
370
    35
100
AcDbSpline
210
0.0
220
0.0
230
1.0
 70
     8
 71
     3
 72
     8
 73
     4
 74
     0
 42
0.0000000001
 43
0.0000000001
 40
0.0
 40
0.0
 40
0.0
 40
0.0
 40
1.0
 40
1.0
 40
1.0
 40
1.0
 10
202.1083426117739
 20
976.685622810668
 30
0.0
 10
202.2754130548055
 20
976.7144497204226
 30
0.0
 10
202.4421883795094
 20
976.7455127916782
 30
0.0
 10
202.6086349472662
 20
976.7788057590077
 30
0.0
  0
SPLINE
  5
22A
330
70
100
AcDbEntity
  8
Front$1
 62
    18
420
        0
370
    35
100
AcDbSpline
210
0.0
220
0.0
230
1.0
 70
     8
 71
     3
 72
     8
 73
     4
 74
     0
 42
0.0000000001
 43
0.0000000001
 40
0.0
 40
0.0
 40
0.0
 40
0.0
 40
1.0
 40
1.0
 40
1.0
 40
1.0
 10
200.0995301910025
 20
976.4393163173263
 30
0.0
 10
200.2664414593837
 20
976.4524707489444
 30
0.0
 10
200.4332165450296
 20
976.4678357935791
 30
0.0
 10
200.5998225264948
 20
976.4854084181671
 30
0.0
  0
LINE
  5
22B
330
70
100
AcDbEntity
  8
Front$1
 62
    18
420
        0
370
    35
100
AcDbLine
 10
200.0918862983854
 20
976.4387016624041
 30
0.0
 11
200.0969820597092
 21
976.4391109171539
 31
0.0
  0
LINE
  5
22C
330
70
100
AcDbEntity
  8
Front$1
 62
    18
420
        0
370
    35
100
AcDbLine
 10
200.0918863623929
 20
976.463202549322
 30
0.0
 11
200.0969821333228
 21
976.4637380045641
 31
0.0
  0
SPLINE
  5
22D
330
70
100
AcDbEntity
  8
Front$1
 62
    18
420
        0
370
    35
100
AcDbSpline
210
0.0
220
0.0
230
1.0
 70
     8
 71
     3
 72
     8
 73
     4
 74
     0
 42
0.0000000001
 43
0.0000000001
 40
0.0
 40
0.0
 40
0.0
 40
0.0
 40
1.0
 40
1.0
 40
1.0
 40
1.0
 10
200.0995301269941
 20
976.4640065057418
 30
0.0
 10
200.2664006512359
 20
976.4730509476258
 30
0.0
 10
200.4331757530499
 20
976.4843072253542
 30
0.0
 10
200.5998224624863
 20
976.4977731136614
 30
0.0
  0
SPLINE
  5
22E
330
70
100
AcDbEntity
  8
Front$1
 62
    18
420
        0
370
    35
100
AcDbSpline
210
0.0
220
0.0
230
1.0
 70
     8
 71
     3
 72
     8
 73
     4
 74
     0
 42
0.0000000001
 43
0.0000000001
 40
0.0
 40
0.0
 40
0.0
 40
0.0
 40
1.0
 40
1.0
 40
1.0
 40
1.0
 10
201.2593190102916
 20
976.5611533922266
 30
0.0
 10
201.4262970261443
 20
976.5809045642882
 30
0.0
 10
201.5930722275407
 20
976.602878644614
 30
0.0
 10
201.7596113457839
 20
976.6270712497634
 30
0.0
  0
SPLINE
  5
22F
330
70
100
AcDbEntity
  8
Front$1
 62
    18
420
        0
370
    35
100
AcDbSpline
210
0.0
220
0.0
230
1.0
 70
     8
 71
     3
 72
     8
 73
     4
 74
     0
 42
0.0000000001
 43
0.0000000001
 40
0.0
 40
0.0
 40
0.0
 40
0.0
 40
1.0
 40
1.0
 40
1.0
 40
1.0
 10
200.7590258934879
 20
976.5006356165512
 30
0.0
 10
200.9259854524507
 20
976.5185924154412
 30
0.0
 10
201.0927605980778
 20
976.538766342036
 30
0.0
 10
201.2593182289793
 20
976.5611533922319
 30
0.0
  0
SPLINE
  5
230
330
70
100
AcDbEntity
  8
Front$1
 62
    18
420
        0
370
    35
100
AcDbSpline
210
0.0
220
0.0
230
1.0
 70
     8
 71
     3
 72
     8
 73
     4
 74
     0
 42
0.0000000001
 43
0.0000000001
 40
0.0
 40
0.0
 40
0.0
 40
0.0
 40
1.0
 40
1.0
 40
1.0
 40
1.0
 10
200.7626708176895
 20
976.5061211894035
 30
0.0
 10
200.9308811215988
 20
976.5259743543657
 30
0.0
 10
201.0988864674637
 20
976.5480784171595
 30
0.0
 10
201.2666529935068
 20
976.5724289226719
 30
0.0
  0
SPLINE
  5
231
330
70
100
AcDbEntity
  8
Front$1
 62
    18
420
        0
370
    35
100
AcDbSpline
210
0.0
220
0.0
230
1.0
 70
     8
 71
     3
 72
     8
 73
     4
 74
     0
 42
0.0000000001
 43
0.0000000001
 40
0.0
 40
0.0
 40
0.0
 40
0.0
 40
1.0
 40
1.0
 40
1.0
 40
1.0
 10
201.2666526061403
 20
976.5724289226637
 30
0.0
 10
201.431163242185
 20
976.5902371871716
 30
0.0
 10
201.5954932553786
 20
976.6102041839731
 30
0.0
 10
201.7596107977342
 20
976.6323260433628
 30
0.0
  0
SPLINE
  5
232
330
70
100
AcDbEntity
  8
Front$1
 62
    18
420
        0
370
    35
100
AcDbSpline
210
0.0
220
0.0
230
1.0
 70
     8
 71
     3
 72
     8
 73
     4
 74
     0
 42
0.0000000001
 43
0.0000000001
 40
0.0
 40
0.0
 40
0.0
 40
0.0
 40
1.0
 40
1.0
 40
1.0
 40
1.0
 10
201.9224230278187
 20
976.6522133628704
 30
0.0
 10
202.0907149902078
 20
976.6787948550819
 30
0.0
 10
202.2587326834173
 20
976.7076423712387
 30
0.0
 10
202.426441812795
 20
976.7387500231807
 30
0.0
  0
SPLINE
  5
233
330
70
100
AcDbEntity
  8
Front$1
 62
    18
420
        0
370
    35
100
AcDbSpline
210
0.0
220
0.0
230
1.0
 70
     8
 71
     3
 72
     8
 73
     4
 74
     0
 42
0.0000000001
 43
0.0000000001
 40
0.0
 40
0.0
 40
0.0
 40
0.0
 40
1.0
 40
1.0
 40
1.0
 40
1.0
 10
202.4264419419724
 20
976.7387500231761
 30
0.0
 10
202.5910431345901
 20
976.7655396646496
 30
0.0
 10
202.7553733019213
 20
976.7945045522647
 30
0.0
 10
202.9194001335654
 20
976.8256389909812
 30
0.0
  0
SPLINE
  5
234
330
70
100
AcDbEntity
  8
Front$1
 62
    18
420
        0
370
    35
100
AcDbSpline
210
0.0
220
0.0
230
1.0
 70
     8
 71
     3
 72
     8
 73
     4
 74
     0
 42
0.0000000001
 43
0.0000000001
 40
0.0
 40
0.0
 40
0.0
 40
0.0
 40
1.0
 40
1.0
 40
1.0
 40
1.0
 10
203.5788960607397
 20
976.9628848677429
 30
0.0
 10
203.6801790523887
 20
976.9849954874125
 30
0.0
 10
203.7813246377955
 20
977.0079372422042
 30
0.0
 10
203.8823251495241
 20
977.0317083929967
 30
0.0
  0
SPLINE
  5
235
330
70
100
AcDbEntity
  8
Front$1
 62
    18
420
        0
370
    35
100
AcDbSpline
210
0.0
220
0.0
230
1.0
 70
     8
 71
     3
 72
     8
 73
     4
 74
     0
 42
0.0000000001
 43
0.0000000001
 40
0.0
 40
0.0
 40
0.0
 40
0.0
 40
1.0
 40
1.0
 40
1.0
 40
1.0
 10
203.2754666141136
 20
976.8967331650738
 30
0.0
 10
203.3767440209358
 20
976.9179554532794
 30
0.0
 10
203.4778898541836
 20
976.9400065750014
 30
0.0
 10
203.578896488184
 20
976.9628848677429
 30
0.0
  0
SPLINE
  5
236
330
70
100
AcDbEntity
  8
Front$1
 62
    18
420
        0
370
    35
100
AcDbSpline
210
0.0
220
0.0
230
1.0
 70
     8
 71
     3
 72
     8
 73
     4
 74
     0
 42
0.0000000001
 43
0.0000000001
 40
0.0
 40
0.0
 40
0.0
 40
0.0
 40
1.0
 40
1.0
 40
1.0
 40
1.0
 10
195.7711391310677
 20
976.4660262642792
 30
0.0
 10
195.8772182741204
 20
976.4563583962043
 30
0.0
 10
195.9833571138842
 20
976.4475846763934
 30
0.0
 10
196.0895471693211
 20
976.4397058059111
 30
0.0
  0
SPLINE
  5
237
330
70
100
AcDbEntity
  8
Front$1
 62
    18
420
        0
370
    35
100
AcDbSpline
210
0.0
220
0.0
230
1.0
 70
     8
 71
     3
 72
     8
 73
     4
 74
     0
 42
0.0000000001
 43
0.0000000001
 40
0.0
 40
0.0
 40
0.0
 40
0.0
 40
1.0
 40
1.0
 40
1.0
 40
1.0
 10
195.270846529811
 20
976.5193129823765
 30
0.0
 10
195.4374284589212
 20
976.4993395701022
 30
0.0
 10
195.6042035710325
 20
976.481576159087
 30
0.0
 10
195.7711388653033
 20
976.4660262642873
 30
0.0
  0
SPLINE
  5
238
330
70
100
AcDbEntity
  8
Front$1
 62
    18
420
        0
370
    35
100
AcDbSpline
210
0.0
220
0.0
230
1.0
 70
     8
 71
     3
 72
     8
 73
     4
 74
     0
 42
0.0000000001
 43
0.0000000001
 40
0.0
 40
0.0
 40
0.0
 40
0.0
 40
1.0
 40
1.0
 40
1.0
 40
1.0
 10
199.7054949224421
 20
977.0063976236361
 30
0.0
 10
199.8726049554052
 20
977.0386934808975
 30
0.0
 10
200.0393805794947
 20
977.0732555603508
 30
0.0
 10
200.2057872579344
 20
977.1100767046982
 30
0.0
  0
SPLINE
  5
239
330
70
100
AcDbEntity
  8
Front$1
 62
    18
420
        0
370
    35
100
AcDbSpline
210
0.0
220
0.0
230
1.0
 70
     8
 71
     3
 72
     8
 73
     4
 74
     0
 42
0.0000000001
 43
0.0000000001
 40
0.0
 40
0.0
 40
0.0
 40
0.0
 40
1.0
 40
1.0
 40
1.0
 40
1.0
 10
199.2052053254256
 20
977.0442960921309
 30
0.0
 10
199.3718353174527
 20
977.0294040838463
 30
0.0
 10
199.5386109107985
 20
977.0167703912575
 30
0.0
 10
199.705497660917
 20
977.0063976236297
 30
0.0
  0
SPLINE
  5
23A
330
70
100
AcDbEntity
  8
Front$1
 62
    18
420
        0
370
    35
100
AcDbSpline
210
0.0
220
0.0
230
1.0
 70
     8
 71
     3
 72
     8
 73
     4
 74
     0
 42
0.0000000001
 43
0.0000000001
 40
0.0
 40
0.0
 40
0.0
 40
0.0
 40
1.0
 40
1.0
 40
1.0
 40
1.0
 10
199.2125365701667
 20
977.1854959200336
 30
0.0
 10
199.3785041960591
 20
977.217839092742
 30
0.0
 10
199.5441368220081
 20
977.2524339702368
 30
0.0
 10
199.7094001179166
 20
977.289273382159
 30
0.0
  0
SPLINE
  5
23B
330
70
100
AcDbEntity
  8
Front$1
 62
    18
420
        0
370
    35
100
AcDbSpline
210
0.0
220
0.0
230
1.0
 70
     8
 71
     3
 72
     8
 73
     4
 74
     0
 42
0.0000000001
 43
0.0000000001
 40
0.0
 40
0.0
 40
0.0
 40
0.0
 40
1.0
 40
1.0
 40
1.0
 40
1.0
 10
199.7054978941787
 20
977.2906986553653
 30
0.0
 10
199.872125162351
 20
977.2756561904179
 30
0.0
 10
200.0389009888695
 20
977.2628948305763
 30
0.0
 10
200.205790229671
 20
977.2524172649955
 30
0.0
  0
SPLINE
  5
23C
330
70
100
AcDbEntity
  8
Front$1
 62
    18
420
        0
370
    35
100
AcDbSpline
210
0.0
220
0.0
230
1.0
 70
     8
 71
     3
 72
     8
 73
     4
 74
     0
 42
0.0000000001
 43
0.0000000001
 40
0.0
 40
0.0
 40
0.0
 40
0.0
 40
1.0
 40
1.0
 40
1.0
 40
1.0
 10
200.8652837417303
 20
977.0429758939517
 30
0.0
 10
201.0324630300511
 20
977.0819966211947
 30
0.0
 10
201.1992386979791
 20
977.123288587687
 30
0.0
 10
201.3655760772226
 20
977.1668432099122
 30
0.0
  0
SPLINE
  5
23D
330
70
100
AcDbEntity
  8
Front$1
 62
    18
420
        0
370
    35
100
AcDbSpline
210
0.0
220
0.0
230
1.0
 70
     8
 71
     3
 72
     8
 73
     4
 74
     0
 42
0.0000000001
 43
0.0000000001
 40
0.0
 40
0.0
 40
0.0
 40
0.0
 40
1.0
 40
1.0
 40
1.0
 40
1.0
 10
200.3649936606716
 20
977.0536643882378
 30
0.0
 10
200.5317157804866
 20
977.0478399485464
 30
0.0
 10
200.6984913952938
 20
977.0442768713602
 30
0.0
 10
200.8652859961639
 20
977.0429758939435
 30
0.0
  0
SPLINE
  5
23E
330
70
100
AcDbEntity
  8
Front$1
 62
    18
420
        0
370
    35
100
AcDbSpline
210
0.0
220
0.0
230
1.0
 70
     8
 71
     3
 72
     8
 73
     4
 74
     0
 42
0.0000000001
 43
0.0000000001
 40
0.0
 40
0.0
 40
0.0
 40
0.0
 40
1.0
 40
1.0
 40
1.0
 40
1.0
 10
200.372325389455
 20
977.1879769618672
 30
0.0
 10
200.5383583417679
 20
977.2269931392584
 30
0.0
 10
200.7039881557539
 20
977.268262792144
 30
0.0
 10
200.8691804678947
 20
977.3117773582352
 30
0.0
  0
SPLINE
  5
23F
330
70
100
AcDbEntity
  8
Front$1
 62
    18
420
        0
370
    35
100
AcDbSpline
210
0.0
220
0.0
230
1.0
 70
     8
 71
     3
 72
     8
 73
     4
 74
     0
 42
0.0000000001
 43
0.0000000001
 40
0.0
 40
0.0
 40
0.0
 40
0.0
 40
1.0
 40
1.0
 40
1.0
 40
1.0
 10
200.8652862294257
 20
977.3129406067155
 30
0.0
 10
201.0320074497913
 20
977.3070541210445
 30
0.0
 10
201.1987833109797
 20
977.303453079503
 30
0.0
 10
201.365578564918
 20
977.3021382431707
 30
0.0
  0
SPLINE
  5
240
330
70
100
AcDbEntity
  8
Front$1
 62
    18
420
        0
370
    35
100
AcDbSpline
210
0.0
220
0.0
230
1.0
 70
     8
 71
     3
 72
     8
 73
     4
 74
     0
 42
0.0000000001
 43
0.0000000001
 40
0.0
 40
0.0
 40
0.0
 40
0.0
 40
1.0
 40
1.0
 40
1.0
 40
1.0
 10
202.0250725610203
 20
977.1383797414383
 30
0.0
 10
202.1923239774387
 20
977.1842615805034
 30
0.0
 10
202.3590997455894
 20
977.2324252254794
 30
0.0
 10
202.5253648965127
 20
977.2828605775812
 30
0.0
  0
SPLINE
  5
241
330
70
100
AcDbEntity
  8
Front$1
 62
    18
420
        0
370
    35
100
AcDbSpline
210
0.0
220
0.0
230
1.0
 70
     8
 71
     3
 72
     8
 73
     4
 74
     0
 42
0.0000000001
 43
0.0000000001
 40
0.0
 40
0.0
 40
0.0
 40
0.0
 40
1.0
 40
1.0
 40
1.0
 40
1.0
 10
201.5321171404048
 20
977.1219127683981
 30
0.0
 10
201.6964861968781
 20
977.1251983369712
 30
0.0
 10
201.8608166721588
 20
977.1306876980416
 30
0.0
 10
202.025075331997
 20
977.1383797414401
 30
0.0
  0
SPLINE
  5
242
330
70
100
AcDbEntity
  8
Front$1
 62
    18
420
        0
370
    35
100
AcDbSpline
210
0.0
220
0.0
230
1.0
 70
     8
 71
     3
 72
     8
 73
     4
 74
     0
 42
0.0000000001
 43
0.0000000001
 40
0.0
 40
0.0
 40
0.0
 40
0.0
 40
1.0
 40
1.0
 40
1.0
 40
1.0
 10
201.5321142087432
 20
977.2494964608068
 30
0.0
 10
201.6485917944674
 20
977.2816185114052
 30
0.0
 10
201.7648372835047
 20
977.3148525201504
 30
0.0
 10
201.8808387460167
 20
977.3491950763583
 30
0.0
  0
SPLINE
  5
243
330
70
100
AcDbEntity
  8
Front$1
 62
    18
420
        0
370
    35
100
AcDbSpline
210
0.0
220
0.0
230
1.0
 70
     8
 71
     3
 72
     8
 73
     4
 74
     0
 42
0.0000000001
 43
0.0000000001
 40
0.0
 40
0.0
 40
0.0
 40
0.0
 40
1.0
 40
1.0
 40
1.0
 40
1.0
 10
203.1848613803086
 20
977.2933007036009
 30
0.0
 10
203.2538388733737
 20
977.3151211831919
 30
0.0
 10
203.3227232187728
 20
977.3373323847064
 30
0.0
 10
203.3915119283347
 20
977.3599335058516
 30
0.0
  0
SPLINE
  5
244
330
70
100
AcDbEntity
  8
Front$1
 62
    18
420
        0
370
    35
100
AcDbSpline
210
0.0
220
0.0
230
1.0
 70
     8
 71
     3
 72
     8
 73
     4
 74
     0
 42
0.0000000001
 43
0.0000000001
 40
0.0
 40
0.0
 40
0.0
 40
0.0
 40
1.0
 40
1.0
 40
1.0
 40
1.0
 10
202.6919054756509
 20
977.2496464120159
 30
0.0
 10
202.8563664498997
 20
977.2619813316687
 30
0.0
 10
203.020697054043
 20
977.2765337546379
 30
0.0
 10
203.1848636672439
 20
977.2933007036044
 30
0.0
  0
SPLINE
  5
245
330
70
100
AcDbEntity
  8
Front$1
 62
    18
420
        0
370
    35
100
AcDbSpline
210
0.0
220
0.0
230
1.0
 70
     8
 71
     3
 72
     8
 73
     4
 74
     0
 42
0.0000000001
 43
0.0000000001
 40
0.0
 40
0.0
 40
0.0
 40
0.0
 40
1.0
 40
1.0
 40
1.0
 40
1.0
 10
203.4956265981109
 20
977.1730770472995
 30
0.0
 10
203.6629232535625
 20
977.2232862773917
 30
0.0
 10
203.8296990611216
 20
977.2757816316334
 30
0.0
 10
203.9959189336032
 20
977.3305520657732
 30
0.0
  0
SPLINE
  5
246
330
70
100
AcDbEntity
  8
Front$1
 62
    18
420
        0
370
    35
100
AcDbSpline
210
0.0
220
0.0
230
1.0
 70
     8
 71
     3
 72
     8
 73
     4
 74
     0
 42
0.0000000001
 43
0.0000000001
 40
0.0
 40
0.0
 40
0.0
 40
0.0
 40
1.0
 40
1.0
 40
1.0
 40
1.0
 10
203.0026697893809
 20
977.1099269933202
 30
0.0
 10
203.1671954234262
 20
977.1287720424535
 30
0.0
 10
203.3315259089786
 20
977.1498234809133
 30
0.0
 10
203.495627980973
 20
977.1730770473023
 30
0.0
  0
SPLINE
  5
247
330
70
100
AcDbEntity
  8
Front$1
 62
    18
420
        0
370
    35
100
AcDbSpline
210
0.0
220
0.0
230
1.0
 70
     8
 71
     3
 72
     8
 73
     4
 74
     0
 42
0.0000000001
 43
0.0000000001
 40
0.0
 40
0.0
 40
0.0
 40
0.0
 40
1.0
 40
1.0
 40
1.0
 40
1.0
 10
203.0026682458356
 20
977.2026593144255
 30
0.0
 10
203.1699665457199
 20
977.2529632936839
 30
0.0
 10
203.3367423818436
 20
977.3055562041136
 30
0.0
 10
203.5029605813261
 20
977.3604269539164
 30
0.0
  0
SPLINE
  5
248
330
70
100
AcDbEntity
  8
Front$1
 62
    18
420
        0
370
    35
100
AcDbSpline
210
0.0
220
0.0
230
1.0
 70
     8
 71
     3
 72
     8
 73
     4
 74
     0
 42
0.0000000001
 43
0.0000000001
 40
0.0
 40
0.0
 40
0.0
 40
0.0
 40
1.0
 40
1.0
 40
1.0
 40
1.0
 10
203.8063908153308
 20
977.1121496652167
 30
0.0
 10
203.9736596174907
 20
977.1597786584852
 30
0.0
 10
204.1404353631415
 20
977.209687432126
 30
0.0
 10
204.3066831508231
 20
977.2618655416382
 30
0.0
  0
SPLINE
  5
249
330
70
100
AcDbEntity
  8
Front$1
 62
    18
420
        0
370
    35
100
AcDbSpline
210
0.0
220
0.0
230
1.0
 70
     8
 71
     3
 72
     8
 73
     4
 74
     0
 42
0.0000000001
 43
0.0000000001
 40
0.0
 40
0.0
 40
0.0
 40
0.0
 40
1.0
 40
1.0
 40
1.0
 40
1.0
 10
203.31343410311
 20
977.0295106428012
 30
0.0
 10
203.4780243303785
 20
977.0548581410238
 30
0.0
 10
203.6423547522363
 20
977.0824063299924
 30
0.0
 10
203.8063922947031
 20
977.1121496652158
 30
0.0
  0
SPLINE
  5
24A
330
70
100
AcDbEntity
  8
Front$1
 62
    18
420
        0
370
    35
100
AcDbSpline
210
0.0
220
0.0
230
1.0
 70
     8
 71
     3
 72
     8
 73
     4
 74
     0
 42
0.0000000001
 43
0.0000000001
 40
0.0
 40
0.0
 40
0.0
 40
0.0
 40
1.0
 40
1.0
 40
1.0
 40
1.0
 10
203.3134324630546
 20
977.094626828708
 30
0.0
 10
203.478241197332
 20
977.141554657188
 30
0.0
 10
203.6425717072098
 20
977.190694145287
 30
0.0
 10
203.8063906546458
 20
977.2420353239867
 30
0.0
  0
SPLINE
  5
24B
330
70
100
AcDbEntity
  8
Front$1
 62
    18
420
        0
370
    35
100
AcDbSpline
210
0.0
220
0.0
230
1.0
 70
     8
 71
     3
 72
     8
 73
     4
 74
     0
 42
0.0000000001
 43
0.0000000001
 40
0.0
 40
0.0
 40
0.0
 40
0.0
 40
1.0
 40
1.0
 40
1.0
 40
1.0
 10
203.8063924553835
 20
977.2420353239867
 30
0.0
 10
203.9722914555796
 20
977.2677736866226
 30
0.0
 10
204.1379221772759
 20
977.2957673326301
 30
0.0
 10
204.3032501599937
 20
977.3260104377623
 30
0.0
  0
SPLINE
  5
24C
330
70
100
AcDbEntity
  8
Front$1
 62
    18
420
        0
370
    35
100
AcDbSpline
210
0.0
220
0.0
230
1.0
 70
     8
 71
     3
 72
     8
 73
     4
 74
     0
 42
0.0000000001
 43
0.0000000001
 40
0.0
 40
0.0
 40
0.0
 40
0.0
 40
1.0
 40
1.0
 40
1.0
 40
1.0
 10
202.9573672138458
 20
976.86884931438
 30
0.0
 10
203.1245340557443
 20
976.906943976488
 30
0.0
 10
203.2913095600788
 20
976.9472936173352
 30
0.0
 10
203.4576595493381
 20
976.9898899680201
 30
0.0
  0
SPLINE
  5
24D
330
70
100
AcDbEntity
  8
Front$1
 62
    18
420
        0
370
    35
100
AcDbSpline
210
0.0
220
0.0
230
1.0
 70
     8
 71
     3
 72
     8
 73
     4
 74
     0
 42
0.0000000001
 43
0.0000000001
 40
0.0
 40
0.0
 40
0.0
 40
0.0
 40
1.0
 40
1.0
 40
1.0
 40
1.0
 10
202.4644090810079
 20
976.7941380402699
 30
0.0
 10
202.6289704938572
 20
976.8168642635282
 30
0.0
 10
202.7933007040338
 20
976.8417696603474
 30
0.0
 10
202.957367272601
 20
976.8688493143791
 30
0.0
  0
SPLINE
  5
24E
330
70
100
AcDbEntity
  8
Front$1
 62
    18
420
        0
370
    35
100
AcDbSpline
210
0.0
220
0.0
230
1.0
 70
     8
 71
     3
 72
     8
 73
     4
 74
     0
 42
0.0000000001
 43
0.0000000001
 40
0.0
 40
0.0
 40
0.0
 40
0.0
 40
1.0
 40
1.0
 40
1.0
 40
1.0
 10
202.4644088615696
 20
976.8388512990778
 30
0.0
 10
202.631575059896
 20
976.8769326934343
 30
0.0
 10
202.7983505365992
 20
976.9172663236686
 30
0.0
 10
202.9647011970601
 20
976.959843944207
 30
0.0
  0
SPLINE
  5
24F
330
70
100
AcDbEntity
  8
Front$1
 62
    18
420
        0
370
    35
100
AcDbSpline
210
0.0
220
0.0
230
1.0
 70
     8
 71
     3
 72
     8
 73
     4
 74
     0
 42
0.0000000001
 43
0.0000000001
 40
0.0
 40
0.0
 40
0.0
 40
0.0
 40
1.0
 40
1.0
 40
1.0
 40
1.0
 10
202.9647016497602
 20
976.9598439442006
 30
0.0
 10
203.1292663332979
 20
976.9827232121114
 30
0.0
 10
203.2935966895993
 20
977.0077963621833
 30
0.0
 10
203.4576598413541
 20
977.0350583780709
 30
0.0
  0
SPLINE
  5
250
330
70
100
AcDbEntity
  8
Front$1
 62
    18
420
        0
370
    35
100
AcDbSpline
210
0.0
220
0.0
230
1.0
 70
     8
 71
     3
 72
     8
 73
     4
 74
     0
 42
0.0000000001
 43
0.0000000001
 40
0.0
 40
0.0
 40
0.0
 40
0.0
 40
1.0
 40
1.0
 40
1.0
 40
1.0
 10
203.268131431063
 20
976.8959120762419
 30
0.0
 10
203.4352744778562
 20
976.9316190093858
 30
0.0
 10
203.6020500038739
 20
976.9695828252752
 30
0.0
 10
203.7684237665562
 20
977.0097957291309
 30
0.0
  0
SPLINE
  5
251
330
70
100
AcDbEntity
  8
Front$1
 62
    18
420
        0
370
    35
100
AcDbSpline
210
0.0
220
0.0
230
1.0
 70
     8
 71
     3
 72
     8
 73
     4
 74
     0
 42
0.0000000001
 43
0.0000000001
 40
0.0
 40
0.0
 40
0.0
 40
0.0
 40
1.0
 40
1.0
 40
1.0
 40
1.0
 10
202.7678392508378
 20
976.8003530930664
 30
0.0
 10
202.934919090927
 20
976.8299615373926
 30
0.0
 10
203.1016945207266
 20
976.8618166935885
 30
0.0
 10
203.2681315863301
 20
976.895912076243
 30
0.0
  0
SPLINE
  5
252
330
70
100
AcDbEntity
  8
Front$1
 62
    18
420
        0
370
    35
100
AcDbSpline
210
0.0
220
0.0
230
1.0
 70
     8
 71
     3
 72
     8
 73
     4
 74
     0
 42
0.0000000001
 43
0.0000000001
 40
0.0
 40
0.0
 40
0.0
 40
0.0
 40
1.0
 40
1.0
 40
1.0
 40
1.0
 10
202.7714407882168
 20
976.8185771003382
 30
0.0
 10
202.937375306773
 20
976.8539148248455
 30
0.0
 10
203.1029499000697
 20
976.8914699989281
 30
0.0
 10
203.2681312703807
 20
976.9312350700875
 30
0.0
  0
SPLINE
  5
253
330
70
100
AcDbEntity
  8
Front$1
 62
    18
420
        0
370
    35
100
AcDbSpline
210
0.0
220
0.0
230
1.0
 70
     8
 71
     3
 72
     8
 73
     4
 74
     0
 42
0.0000000001
 43
0.0000000001
 40
0.0
 40
0.0
 40
0.0
 40
0.0
 40
1.0
 40
1.0
 40
1.0
 40
1.0
 10
203.2681317470105
 20
976.9312350700875
 30
0.0
 10
203.4340440912074
 20
976.9608251953469
 30
0.0
 10
203.5996527847828
 20
976.9926424743289
 30
0.0
 10
203.7649242277548
 20
977.0266804516976
 30
0.0
  0
SPLINE
  5
254
330
70
100
AcDbEntity
  8
Front$1
 62
    18
420
        0
370
    35
100
AcDbSpline
210
0.0
220
0.0
230
1.0
 70
     8
 71
     3
 72
     8
 73
     4
 74
     0
 42
0.0000000001
 43
0.0000000001
 40
0.0
 40
0.0
 40
0.0
 40
0.0
 40
1.0
 40
1.0
 40
1.0
 40
1.0
 10
193.1407962746862
 20
976.9159640520502
 30
0.0
 10
193.3073122931519
 20
976.8897229099993
 30
0.0
 10
193.4740877520753
 20
976.8657256726809
 30
0.0
 10
193.6410886101794
 20
976.8439772382771
 30
0.0
  0
SPLINE
  5
255
330
70
100
AcDbEntity
  8
Front$1
 62
    18
420
        0
370
    35
100
AcDbSpline
210
0.0
220
0.0
230
1.0
 70
     8
 71
     3
 72
     8
 73
     4
 74
     0
 42
0.0000000001
 43
0.0000000001
 40
0.0
 40
0.0
 40
0.0
 40
0.0
 40
1.0
 40
1.0
 40
1.0
 40
1.0
 10
192.6405046175832
 20
977.0452640548883
 30
0.0
 10
192.8080286554468
 20
976.9997929402716
 30
0.0
 10
192.9760114542478
 20
976.9566055941213
 30
0.0
 10
193.1444179440832
 20
976.9157110326959
 30
0.0
  0
SPLINE
  5
256
330
70
100
AcDbEntity
  8
Front$1
 62
    18
420
        0
370
    35
100
AcDbSpline
210
0.0
220
0.0
230
1.0
 70
     8
 71
     3
 72
     8
 73
     4
 74
     0
 42
0.0000000001
 43
0.0000000001
 40
0.0
 40
0.0
 40
0.0
 40
0.0
 40
1.0
 40
1.0
 40
1.0
 40
1.0
 10
192.6405037059339
 20
977.1010377795146
 30
0.0
 10
192.8070159791568
 20
977.0745993165874
 30
0.0
 10
192.9737916093709
 20
977.0504215942356
 30
0.0
 10
193.1407960414262
 20
977.028509621974
 30
0.0
  0
SPLINE
  5
257
330
70
100
AcDbEntity
  8
Front$1
 62
    18
420
        0
370
    35
100
AcDbSpline
210
0.0
220
0.0
230
1.0
 70
     8
 71
     3
 72
     8
 73
     4
 74
     0
 42
0.0000000001
 43
0.0000000001
 40
0.0
 40
0.0
 40
0.0
 40
0.0
 40
1.0
 40
1.0
 40
1.0
 40
1.0
 10
193.1407971137559
 20
977.0285096219723
 30
0.0
 10
193.3071213465064
 20
976.9834279479892
 30
0.0
 10
193.4738968830843
 20
976.9405959000414
 30
0.0
 10
193.6410894492483
 20
976.9000222805935
 30
0.0
  0
SPLINE
  5
258
330
70
100
AcDbEntity
  8
Front$1
 62
    18
420
        0
370
    35
100
AcDbSpline
210
0.0
220
0.0
230
1.0
 70
     8
 71
     3
 72
     8
 73
     4
 74
     0
 42
0.0000000001
 43
0.0000000001
 40
0.0
 40
0.0
 40
0.0
 40
0.0
 40
1.0
 40
1.0
 40
1.0
 40
1.0
 10
193.9898208041786
 20
976.8388512990778
 30
0.0
 10
194.1564290819315
 20
976.8217067739888
 30
0.0
 10
194.323204482901
 20
976.8068013454303
 30
0.0
 10
194.4901131396709
 20
976.7941380402781
 30
0.0
  0
SPLINE
  5
259
330
70
100
AcDbEntity
  8
Front$1
 62
    18
420
        0
370
    35
100
AcDbSpline
210
0.0
220
0.0
230
1.0
 70
     8
 71
     3
 72
     8
 73
     4
 74
     0
 42
0.0000000001
 43
0.0000000001
 40
0.0
 40
0.0
 40
0.0
 40
0.0
 40
1.0
 40
1.0
 40
1.0
 40
1.0
 10
193.4968637835845
 20
976.9579682869116
 30
0.0
 10
193.6607821971183
 20
976.9160813355256
 30
0.0
 10
193.8251124658609
 20
976.8763730459459
 30
0.0
 10
193.9898219751776
 20
976.8388512990778
 30
0.0
  0
SPLINE
  5
25A
330
70
100
AcDbEntity
  8
Front$1
 62
    18
420
        0
370
    35
100
AcDbSpline
210
0.0
220
0.0
230
1.0
 70
     8
 71
     3
 72
     8
 73
     4
 74
     0
 42
0.0000000001
 43
0.0000000001
 40
0.0
 40
0.0
 40
0.0
 40
0.0
 40
1.0
 40
1.0
 40
1.0
 40
1.0
 10
193.4895283080041
 20
977.0350583780718
 30
0.0
 10
193.6561337594621
 20
977.0177443198509
 30
0.0
 10
193.822909340809
 20
977.0026871476529
 30
0.0
 10
193.9898206434954
 20
976.989889968021
 30
0.0
  0
SPLINE
  5
25B
330
70
100
AcDbEntity
  8
Front$1
 62
    18
420
        0
370
    35
100
AcDbSpline
210
0.0
220
0.0
230
1.0
 70
     8
 71
     3
 72
     8
 73
     4
 74
     0
 42
0.0000000001
 43
0.0000000001
 40
0.0
 40
0.0
 40
0.0
 40
0.0
 40
1.0
 40
1.0
 40
1.0
 40
1.0
 10
193.989822135858
 20
976.9898899680201
 30
0.0
 10
194.1561721251173
 20
976.9472936173352
 30
0.0
 10
194.3229476294509
 20
976.906943976488
 30
0.0
 10
194.4901144713503
 20
976.86884931438
 30
0.0
  0
SPLINE
  5
25C
330
70
100
AcDbEntity
  8
Front$1
 62
    18
420
        0
370
    35
100
AcDbSpline
210
0.0
220
0.0
230
1.0
 70
     8
 71
     3
 72
     8
 73
     4
 74
     0
 42
0.0000000001
 43
0.0000000001
 40
0.0
 40
0.0
 40
0.0
 40
0.0
 40
1.0
 40
1.0
 40
1.0
 40
1.0
 10
196.3473653308465
 20
976.9056831989482
 30
0.0
 10
196.5142217380235
 20
976.9131162475714
 30
0.0
 10
196.680997233916
 20
976.9228002978898
 30
0.0
 10
196.8476576663388
 20
976.9347333668083
 30
0.0
  0
SPLINE
  5
25D
330
70
100
AcDbEntity
  8
Front$1
 62
    18
420
        0
370
    35
100
AcDbSpline
210
0.0
220
0.0
230
1.0
 70
     8
 71
     3
 72
     8
 73
     4
 74
     0
 42
0.0000000001
 43
0.0000000001
 40
0.0
 40
0.0
 40
0.0
 40
0.0
 40
1.0
 40
1.0
 40
1.0
 40
1.0
 10
196.8476595147267
 20
976.9347333668083
 30
0.0
 10
196.8951079095941
 20
976.9265611326309
 30
0.0
 10
196.942579716775
 20
976.9185711815088
 30
0.0
 10
196.9900741482679
 20
976.9107636460702
 30
0.0
  0
SPLINE
  5
25E
330
70
100
AcDbEntity
  8
Front$1
 62
    18
420
        0
370
    35
100
AcDbSpline
210
0.0
220
0.0
230
1.0
 70
     8
 71
     3
 72
     8
 73
     4
 74
     0
 42
0.0000000001
 43
0.0000000001
 40
0.0
 40
0.0
 40
0.0
 40
0.0
 40
1.0
 40
1.0
 40
1.0
 40
1.0
 10
196.5368936823815
 20
976.9532637619695
 30
0.0
 10
196.6880482642018
 20
976.9622074989074
 30
0.0
 10
196.8391164515306
 20
976.9730020332207
 30
0.0
 10
196.9900727588292
 20
976.9856455438484
 30
0.0
  0
SPLINE
  5
25F
330
70
100
AcDbEntity
  8
Front$1
 62
    18
420
        0
370
    35
100
AcDbSpline
210
0.0
220
0.0
230
1.0
 70
     8
 71
     3
 72
     8
 73
     4
 74
     0
 42
0.0000000001
 43
0.0000000001
 40
0.0
 40
0.0
 40
0.0
 40
0.0
 40
1.0
 40
1.0
 40
1.0
 40
1.0
 10
196.0366026322435
 20
977.0528054619207
 30
0.0
 10
196.2030241268576
 20
977.0173684614
 30
0.0
 10
196.3697996994178
 20
976.9841856144431
 30
0.0
 10
196.5368949677358
 20
976.9532637619713
 30
0.0
  0
SPLINE
  5
260
330
70
100
AcDbEntity
  8
Front$1
 62
    18
420
        0
370
    35
100
AcDbSpline
210
0.0
220
0.0
230
1.0
 70
     8
 71
     3
 72
     8
 73
     4
 74
     0
 42
0.0000000001
 43
0.0000000001
 40
0.0
 40
0.0
 40
0.0
 40
0.0
 40
1.0
 40
1.0
 40
1.0
 40
1.0
 10
196.0366011136284
 20
977.1894368486064
 30
0.0
 10
196.2034847833874
 20
977.1994066483484
 30
0.0
 10
196.3702605488533
 20
977.2116542261846
 30
0.0
 10
196.5368934491207
 20
977.2261770146769
 30
0.0
  0
SPLINE
  5
261
330
70
100
AcDbEntity
  8
Front$1
 62
    18
420
        0
370
    35
100
AcDbSpline
210
0.0
220
0.0
230
1.0
 70
     8
 71
     3
 72
     8
 73
     4
 74
     0
 42
0.0000000001
 43
0.0000000001
 40
0.0
 40
0.0
 40
0.0
 40
0.0
 40
1.0
 40
1.0
 40
1.0
 40
1.0
 10
196.5368952009967
 20
977.2261770146743
 30
0.0
 10
196.6876683238888
 20
977.1938441105785
 30
0.0
 10
196.8387366584265
 20
977.1633744376394
 30
0.0
 10
196.9900742774434
 20
977.1347732252278
 30
0.0
  0
SPLINE
  5
262
330
70
100
AcDbEntity
  8
Front$1
 62
    18
420
        0
370
    35
100
AcDbSpline
210
0.0
220
0.0
230
1.0
 70
     8
 71
     3
 72
     8
 73
     4
 74
     0
 42
0.0000000001
 43
0.0000000001
 40
0.0
 40
0.0
 40
0.0
 40
0.0
 40
1.0
 40
1.0
 40
1.0
 40
1.0
 10
196.8856276543465
 20
977.2019176405009
 30
0.0
 10
196.9204287003549
 20
977.1949730717105
 30
0.0
 10
196.9552445278423
 20
977.1881276323856
 30
0.0
 10
196.9900748190802
 20
977.1813813849986
 30
0.0
  0
SPLINE
  5
263
330
70
100
AcDbEntity
  8
Front$1
 62
    18
420
        0
370
    35
100
AcDbSpline
210
0.0
220
0.0
230
1.0
 70
     8
 71
     3
 72
     8
 73
     4
 74
     0
 42
0.0000000001
 43
0.0000000001
 40
0.0
 40
0.0
 40
0.0
 40
0.0
 40
1.0
 40
1.0
 40
1.0
 40
1.0
 10
197.6357311332658
 20
977.3756894281687
 30
0.0
 10
197.7191466137856
 20
977.3600696945567
 30
0.0
 10
197.8026419024281
 20
977.3450236403551
 30
0.0
 10
197.886212558591
 20
977.3305520657704
 30
0.0
  0
SPLINE
  5
264
330
70
100
AcDbEntity
  8
Front$1
 62
    18
420
        0
370
    35
100
AcDbSpline
210
0.0
220
0.0
230
1.0
 70
     8
 71
     3
 72
     8
 73
     4
 74
     0
 42
0.0000000001
 43
0.0000000001
 40
0.0
 40
0.0
 40
0.0
 40
0.0
 40
1.0
 40
1.0
 40
1.0
 40
1.0
 10
198.0454135344007
 20
977.2431975024437
 30
0.0
 10
198.2124611028384
 20
977.269081814884
 30
0.0
 10
198.3792369427247
 20
977.2972528505489
 30
0.0
 10
198.545705869893
 20
977.3277046662842
 30
0.0
  0
SPLINE
  5
265
330
70
100
AcDbEntity
  8
Front$1
 62
    18
420
        0
370
    35
100
AcDbSpline
210
0.0
220
0.0
230
1.0
 70
     8
 71
     3
 72
     8
 73
     4
 74
     0
 42
0.0000000001
 43
0.0000000001
 40
0.0
 40
0.0
 40
0.0
 40
0.0
 40
1.0
 40
1.0
 40
1.0
 40
1.0
 10
198.5457085583466
 20
977.3277046662869
 30
0.0
 10
198.712241306921
 20
977.3034744365123
 30
0.0
 10
198.8790171558021
 20
977.281526517021
 30
0.0
 10
199.0460008938389
 20
977.2618655416463
 30
0.0
  0
SPLINE
  5
266
330
70
100
AcDbEntity
  8
Front$1
 62
    18
420
        0
370
    35
100
AcDbSpline
210
0.0
220
0.0
230
1.0
 70
     8
 71
     3
 72
     8
 73
     4
 74
     0
 42
0.0000000001
 43
0.0000000001
 40
0.0
 40
0.0
 40
0.0
 40
0.0
 40
1.0
 40
1.0
 40
1.0
 40
1.0
 10
199.1913608444665
 20
977.0033151993557
 30
0.0
 10
199.2464804067713
 20
976.998593428253
 30
0.0
 10
199.3016156084532
 20
976.9941183175406
 30
0.0
 10
199.3567652075689
 20
976.989889968021
 30
0.0
  0
SPLINE
  5
267
330
70
100
AcDbEntity
  8
Front$1
 62
    18
420
        0
370
    35
100
AcDbSpline
210
0.0
220
0.0
230
1.0
 70
     8
 71
     3
 72
     8
 73
     4
 74
     0
 42
0.0000000001
 43
0.0000000001
 40
0.0
 40
0.0
 40
0.0
 40
0.0
 40
1.0
 40
1.0
 40
1.0
 40
1.0
 10
200.4555957236571
 20
976.4939993724592
 30
0.0
 10
200.620042124222
 20
976.5053337486479
 30
0.0
 10
200.784372063059
 20
976.5188186532114
 30
0.0
 10
200.9485539152511
 20
976.5344514910102
 30
0.0
  0
SPLINE
  5
268
330
70
100
AcDbEntity
  8
Front$1
 62
    18
420
        0
370
    35
100
AcDbSpline
210
0.0
220
0.0
230
1.0
 70
     8
 71
     3
 72
     8
 73
     4
 74
     0
 42
0.0000000001
 43
0.0000000001
 40
0.0
 40
0.0
 40
0.0
 40
0.0
 40
1.0
 40
1.0
 40
1.0
 40
1.0
 10
200.4555954402113
 20
976.5257933968413
 30
0.0
 10
200.620145168049
 20
976.5476131546829
 30
0.0
 10
200.7844751468792
 20
976.5715885321606
 30
0.0
 10
200.9485536318043
 20
976.5977148977636
 30
0.0
  0
SPLINE
  5
269
330
70
100
AcDbEntity
  8
Front$1
 62
    18
420
        0
370
    35
100
AcDbSpline
210
0.0
220
0.0
230
1.0
 70
     8
 71
     3
 72
     8
 73
     4
 74
     0
 42
0.0000000001
 43
0.0000000001
 40
0.0
 40
0.0
 40
0.0
 40
0.0
 40
1.0
 40
1.0
 40
1.0
 40
1.0
 10
200.9485540759324
 20
976.5977148977636
 30
0.0
 10
201.1142474176068
 20
976.6091501663959
 30
0.0
 10
201.2798218234093
 20
976.6227777380754
 30
0.0
 10
201.4452446753921
 20
976.6385949281866
 30
0.0
  0
SPLINE
  5
26A
330
70
100
AcDbEntity
  8
Front$1
 62
    18
420
        0
370
    35
100
AcDbSpline
210
0.0
220
0.0
230
1.0
 70
     8
 71
     3
 72
     8
 73
     4
 74
     0
 42
0.0000000001
 43
0.0000000001
 40
0.0
 40
0.0
 40
0.0
 40
0.0
 40
1.0
 40
1.0
 40
1.0
 40
1.0
 10
194.6113503117794
 20
976.6024393572061
 30
0.0
 10
194.7779136303579
 20
976.5806542853443
 30
0.0
 10
194.9446888131606
 20
976.5610861191516
 30
0.0
 10
195.1116426472717
 20
976.5437387555857
 30
0.0
  0
SPLINE
  5
26B
330
70
100
AcDbEntity
  8
Front$1
 62
    18
420
        0
370
    35
100
AcDbSpline
210
0.0
220
0.0
230
1.0
 70
     8
 71
     3
 72
     8
 73
     4
 74
     0
 42
0.0000000001
 43
0.0000000001
 40
0.0
 40
0.0
 40
0.0
 40
0.0
 40
1.0
 40
1.0
 40
1.0
 40
1.0
 10
194.1110582671445
 20
976.6830687782185
 30
0.0
 10
194.2787516204234
 20
976.6537985762388
 30
0.0
 10
194.4467343139422
 20
976.6267829785466
 30
0.0
 10
194.6149722194332
 20
976.6020274737748
 30
0.0
  0
SPLINE
  5
26C
330
70
100
AcDbEntity
  8
Front$1
 62
    18
420
        0
370
    35
100
AcDbSpline
210
0.0
220
0.0
230
1.0
 70
     8
 71
     3
 72
     8
 73
     4
 74
     0
 42
0.0000000001
 43
0.0000000001
 40
0.0
 40
0.0
 40
0.0
 40
0.0
 40
1.0
 40
1.0
 40
1.0
 40
1.0
 10
194.1110577430254
 20
976.7044387388796
 30
0.0
 10
194.277619419453
 20
976.6825647686983
 30
0.0
 10
194.4443946927949
 20
976.662916734709
 30
0.0
 10
194.6113500785177
 20
976.6454985817745
 30
0.0
  0
SPLINE
  5
26D
330
70
100
AcDbEntity
  8
Front$1
 62
    18
420
        0
370
    35
100
AcDbSpline
210
0.0
220
0.0
230
1.0
 70
     8
 71
     3
 72
     8
 73
     4
 74
     0
 42
0.0000000001
 43
0.0000000001
 40
0.0
 40
0.0
 40
0.0
 40
0.0
 40
1.0
 40
1.0
 40
1.0
 40
1.0
 10
194.6113507633163
 20
976.6454985817745
 30
0.0
 10
194.777841910367
 20
976.6165144723563
 30
0.0
 10
194.9446171217241
 20
976.5897494046294
 30
0.0
 10
195.1116430988095
 20
976.5652087225452
 30
0.0
  0
SPLINE
  5
26E
330
70
100
AcDbEntity
  8
Front$1
 62
    18
420
        0
370
    35
100
AcDbSpline
210
0.0
220
0.0
230
1.0
 70
     8
 71
     3
 72
     8
 73
     4
 74
     0
 42
0.0000000001
 43
0.0000000001
 40
0.0
 40
0.0
 40
0.0
 40
0.0
 40
1.0
 40
1.0
 40
1.0
 40
1.0
 10
195.4603739132635
 20
976.5253860890798
 30
0.0
 10
195.6270267068785
 20
976.5125429430318
 30
0.0
 10
195.7938018336763
 20
976.5019119784748
 30
0.0
 10
195.9606662487558
 20
976.4934953018309
 30
0.0
  0
SPLINE
  5
26F
330
70
100
AcDbEntity
  8
Front$1
 62
    18
420
        0
370
    35
100
AcDbSpline
210
0.0
220
0.0
230
1.0
 70
     8
 71
     3
 72
     8
 73
     4
 74
     0
 42
0.0000000001
 43
0.0000000001
 40
0.0
 40
0.0
 40
0.0
 40
0.0
 40
1.0
 40
1.0
 40
1.0
 40
1.0
 10
194.9674164325606
 20
976.5977148977636
 30
0.0
 10
195.1327112414037
 20
976.5713948558023
 30
0.0
 10
195.2982612469013
 20
976.5472578173158
 30
0.0
 10
195.4640339925991
 20
976.525308514425
 30
0.0
  0
SPLINE
  5
270
330
70
100
AcDbEntity
  8
Front$1
 62
    18
420
        0
370
    35
100
AcDbSpline
210
0.0
220
0.0
230
1.0
 70
     8
 71
     3
 72
     8
 73
     4
 74
     0
 42
0.0000000001
 43
0.0000000001
 40
0.0
 40
0.0
 40
0.0
 40
0.0
 40
1.0
 40
1.0
 40
1.0
 40
1.0
 10
194.9600813445104
 20
976.6395060098448
 30
0.0
 10
195.1267331208555
 20
976.6266043162204
 30
0.0
 10
195.2935083483089
 20
976.6159248790081
 30
0.0
 10
195.4603736800027
 20
976.6074698335705
 30
0.0
  0
SPLINE
  5
271
330
70
100
AcDbEntity
  8
Front$1
 62
    18
420
        0
370
    35
100
AcDbSpline
210
0.0
220
0.0
230
1.0
 70
     8
 71
     3
 72
     8
 73
     4
 74
     0
 42
0.0000000001
 43
0.0000000001
 40
0.0
 40
0.0
 40
0.0
 40
0.0
 40
1.0
 40
1.0
 40
1.0
 40
1.0
 10
195.460374784835
 20
976.6074698335714
 30
0.0
 10
195.6268904993949
 20
976.5809125280529
 30
0.0
 10
195.7936656803185
 20
976.5565714649829
 30
0.0
 10
195.9606671203273
 20
976.5344514910102
 30
0.0
  0
SPLINE
  5
272
330
70
100
AcDbEntity
  8
Front$1
 62
    18
420
        0
370
    35
100
AcDbSpline
210
0.0
220
0.0
230
1.0
 70
     8
 71
     3
 72
     8
 73
     4
 74
     0
 42
0.0000000001
 43
0.0000000001
 40
0.0
 40
0.0
 40
0.0
 40
0.0
 40
1.0
 40
1.0
 40
1.0
 40
1.0
 10
195.8091072381849
 20
976.5716364452009
 30
0.0
 10
195.9025146744761
 20
976.5580974519506
 30
0.0
 10
195.9959968111716
 20
976.5452547062368
 30
0.0
 10
196.0895478076318
 20
976.5331090104574
 30
0.0
  0
SPLINE
  5
273
330
70
100
AcDbEntity
  8
Front$1
 62
    18
420
        0
370
    35
100
AcDbSpline
210
0.0
220
0.0
230
1.0
 70
     8
 71
     3
 72
     8
 73
     4
 74
     0
 42
0.0000000001
 43
0.0000000001
 40
0.0
 40
0.0
 40
0.0
 40
0.0
 40
1.0
 40
1.0
 40
1.0
 40
1.0
 10
195.8091059465805
 20
976.632326043371
 30
0.0
 10
195.902576580348
 20
976.6300975300064
 30
0.0
 10
195.9960587291525
 20
976.6285677804599
 30
0.0
 10
196.0895465160274
 20
976.6277368909031
 30
0.0
  0
SPLINE
  5
274
330
70
100
AcDbEntity
  8
Front$1
 62
    18
420
        0
370
    35
100
AcDbSpline
210
0.0
220
0.0
230
1.0
 70
     8
 71
     3
 72
     8
 73
     4
 74
     0
 42
0.0000000001
 43
0.0000000001
 40
0.0
 40
0.0
 40
0.0
 40
0.0
 40
1.0
 40
1.0
 40
1.0
 40
1.0
 10
200.0918858207569
 20
976.4719914778398
 30
0.0
 10
200.1576388060958
 20
976.4791736871503
 30
0.0
 10
200.2233633083288
 20
976.4866994341463
 30
0.0
 10
200.2890573086907
 20
976.4945684876719
 30
0.0
  0
SPLINE
  5
275
330
70
100
AcDbEntity
  8
Front$1
 62
    18
420
        0
370
    35
100
AcDbSpline
210
0.0
220
0.0
230
1.0
 70
     8
 71
     3
 72
     8
 73
     4
 74
     0
 42
0.0000000001
 43
0.0000000001
 40
0.0
 40
0.0
 40
0.0
 40
0.0
 40
1.0
 40
1.0
 40
1.0
 40
1.0
 10
200.0918866608235
 20
976.5263879396806
 30
0.0
 10
200.1576196046253
 20
976.5284513290234
 30
0.0
 10
200.2233441093649
 20
976.5308588165543
 30
0.0
 10
200.2890581487573
 20
976.5336103280516
 30
0.0
  0
SPLINE
  5
276
330
70
100
AcDbEntity
  8
Front$1
 62
    18
420
        0
370
    35
100
AcDbSpline
210
0.0
220
0.0
230
1.0
 70
     8
 71
     3
 72
     8
 73
     4
 74
     0
 42
0.0000000001
 43
0.0000000001
 40
0.0
 40
0.0
 40
0.0
 40
0.0
 40
1.0
 40
1.0
 40
1.0
 40
1.0
 10
204.1624581246278
 20
977.3263806628337
 30
0.0
 10
204.2260503393391
 20
977.3372322419055
 30
0.0
 10
204.289599653499
 20
977.3484164228211
 30
0.0
 10
204.3531041107635
 20
977.35993286128
 30
0.0
  0
SPLINE
  5
277
330
70
100
AcDbEntity
  8
Front$1
 62
    18
420
        0
370
    35
100
AcDbSpline
210
0.0
220
0.0
230
1.0
 70
     8
 71
     3
 72
     8
 73
     4
 74
     0
 42
0.0000000001
 43
0.0000000001
 40
0.0
 40
0.0
 40
0.0
 40
0.0
 40
1.0
 40
1.0
 40
1.0
 40
1.0
 10
201.2140186827755
 20
977.3507212730255
 30
0.0
 10
201.3807651259085
 20
977.3472882343439
 30
0.0
 10
201.5475410272429
 20
977.3461448009893
 30
0.0
 10
201.7143110182678
 20
977.3472912154511
 30
0.0
  0
SPLINE
  5
278
330
70
100
AcDbEntity
  8
Front$1
 62
    18
420
        0
370
    35
100
AcDbSpline
210
0.0
220
0.0
230
1.0
 70
     8
 71
     3
 72
   203
 73
   199
 74
     0
 42
0.0000000001
 43
0.0000000001
 40
0.0
 40
0.0
 40
0.0
 40
0.0
 40
1.0
 40
1.0
 40
1.0
 40
2.0
 40
2.0
 40
2.0
 40
3.0
 40
3.0
 40
3.0
 40
4.0
 40
4.0
 40
4.0
 40
5.0
 40
5.0
 40
5.0
 40
6.0
 40
6.0
 40
6.0
 40
7.0
 40
7.0
 40
7.0
 40
8.0
 40
8.0
 40
8.0
 40
9.0
 40
9.0
 40
9.0
 40
10.0
 40
10.0
 40
10.0
 40
11.0
 40
11.0
 40
11.0
 40
12.0
 40
12.0
 40
12.0
 40
13.0
 40
13.0
 40
13.0
 40
14.0
 40
14.0
 40
14.0
 40
15.0
 40
15.0
 40
15.0
 40
16.0
 40
16.0
 40
16.0
 40
17.0
 40
17.0
 40
17.0
 40
18.0
 40
18.0
 40
18.0
 40
19.0
 40
19.0
 40
19.0
 40
20.0
 40
20.0
 40
20.0
 40
21.0
 40
21.0
 40
21.0
 40
22.0
 40
22.0
 40
22.0
 40
23.0
 40
23.0
 40
23.0
 40
24.0
 40
24.0
 40
24.0
 40
25.0
 40
25.0
 40
25.0
 40
26.0
 40
26.0
 40
26.0
 40
27.0
 40
27.0
 40
27.0
 40
28.0
 40
28.0
 40
28.0
 40
29.0
 40
29.0
 40
29.0
 40
30.0
 40
30.0
 40
30.0
 40
31.0
 40
31.0
 40
31.0
 40
32.0
 40
32.0
 40
32.0
 40
33.0
 40
33.0
 40
33.0
 40
34.0
 40
34.0
 40
34.0
 40
35.0
 40
35.0
 40
35.0
 40
36.0
 40
36.0
 40
36.0
 40
37.0
 40
37.0
 40
37.0
 40
38.0
 40
38.0
 40
38.0
 40
39.0
 40
39.0
 40
39.0
 40
40.0
 40
40.0
 40
40.0
 40
41.0
 40
41.0
 40
41.0
 40
42.0
 40
42.0
 40
42.0
 40
43.0
 40
43.0
 40
43.0
 40
44.0
 40
44.0
 40
44.0
 40
45.0
 40
45.0
 40
45.0
 40
46.0
 40
46.0
 40
46.0
 40
47.0
 40
47.0
 40
47.0
 40
48.0
 40
48.0
 40
48.0
 40
49.0
 40
49.0
 40
49.0
 40
50.0
 40
50.0
 40
50.0
 40
51.0
 40
51.0
 40
51.0
 40
52.0
 40
52.0
 40
52.0
 40
53.0
 40
53.0
 40
53.0
 40
54.0
 40
54.0
 40
54.0
 40
55.0
 40
55.0
 40
55.0
 40
56.0
 40
56.0
 40
56.0
 40
57.0
 40
57.0
 40
57.0
 40
58.0
 40
58.0
 40
58.0
 40
59.0
 40
59.0
 40
59.0
 40
60.0
 40
60.0
 40
60.0
 40
61.0
 40
61.0
 40
61.0
 40
62.0
 40
62.0
 40
62.0
 40
63.0
 40
63.0
 40
63.0
 40
64.0
 40
64.0
 40
64.0
 40
65.0
 40
65.0
 40
65.0
 40
66.0
 40
66.0
 40
66.0
 40
66.0
 10
744.4102017495679
 20
938.3371112674412
 30
0.0
 10
744.4102008653262
 20
938.3371101324938
 30
0.0
 10
744.411046021094
 20
938.3381857283803
 30
0.0
 10
744.4127236619406
 20
938.3403210431424
 30
0.0
 10
744.4145392905629
 20
938.3426319898553
 30
0.0
 10
744.4173305551394
 20
938.3461853287863
 30
0.0
 10
744.421080796943
 20
938.3509606657826
 30
0.0
 10
744.4285812805519
 20
938.3605113397752
 30
0.0
 10
744.4399176730658
 20
938.3749500060293
 30
0.0
 10
744.454982118279
 20
938.394161223703
 30
0.0
 10
744.4851110087056
 20
938.4325836590488
 30
0.0
 10
744.5301337732307
 20
938.4900580051617
 30
0.0
 10
744.589437258166
 20
938.5661529541103
 30
0.0
 10
744.6190890006327
 20
938.6042004285846
 30
0.0
 10
744.6523157510637
 20
938.6469128254411
 30
0.0
 10
744.6890671333676
 20
938.6942937714156
 30
0.0
 10
744.7074428245196
 20
938.717984244402
 30
0.0
 10
744.7266999259591
 20
938.7428424466342
 30
0.0
 10
744.7468335891462
 20
938.768872426468
 30
0.0
 10
744.7569004207398
 20
938.7818874163841
 30
0.0
 10
744.7671937978484
 20
938.7952049707109
 30
0.0
 10
744.7776721210011
 20
938.8087725966069
 30
0.0
 10
744.7881504441538
 20
938.8223402225012
 30
0.0
 10
744.7988194876834
 20
938.8361653719838
 30
0.0
 10
744.8096758702686
 20
938.8502449663411
 30
0.0
 10
744.8965269309519
 20
938.9628817212015
 30
0.0
 10
744.9953345940539
 20
939.0917432927672
 30
0.0
 10
745.1046133243762
 20
939.2356819879914
 30
0.0
 10
745.2138920547004
 20
939.3796206832158
 30
0.0
 10
745.3336533728106
 20
939.538645266044
 30
0.0
 10
745.4627039426322
 20
939.7122394535708
 30
0.0
 10
745.5272292275422
 20
939.7990365473342
 30
0.0
 10
745.5940803121721
 20
939.8894850305623
 30
0.0
 10
745.6631231029259
 20
939.9835728334565
 30
0.0
 10
745.6803838006144
 20
940.0070947841795
 30
0.0
 10
745.6977929842251
 20
940.0308600646404
 30
0.0
 10
745.7153059700649
 20
940.0548104585324
 30
0.0
 10
745.7328189559066
 20
940.0787608524241
 30
0.0
 10
745.7504314412253
 20
940.1028904433678
 30
0.0
 10
745.7681403134556
 20
940.1271974317296
 30
0.0
 10
745.8035580579162
 20
940.175811408455
 30
0.0
 10
745.8393613500265
 20
940.2251349748549
 30
0.0
 10
745.8755263369421
 20
940.2751562639423
 30
0.0
 10
746.0201862846079
 20
940.4752414202903
 30
0.0
 10
746.1706232467804
 20
940.6864483564204
 30
0.0
 10
746.3254167781742
 20
940.9083658705823
 30
0.0
 10
746.4802103095681
 20
941.130283384744
 30
0.0
 10
746.6393718902418
 20
941.3629129438977
 30
0.0
 10
746.8015112122957
 20
941.6063543768522
 30
0.0
 10
746.9636505343478
 20
941.8497958098051
 30
0.0
 10
747.1287800680129
 20
942.1040434331588
 30
0.0
 10
747.2953633259021
 20
942.3697390833204
 30
0.0
 10
747.3370091403739
 20
942.4361629958603
 30
0.0
 10
747.3787445576363
 20
942.5033053539101
 30
0.0
 10
747.4205425851359
 20
942.5711824486169
 30
0.0
 10
747.4414415988867
 20
942.6051209959696
 30
0.0
 10
747.4623678025746
 20
942.6392623172505
 30
0.0
 10
747.4832653942448
 20
942.6735225776683
 30
0.0
 10
747.504162985917
 20
942.7077828380879
 30
0.0
 10
747.5250362695732
 20
942.7421694559816
 30
0.0
 10
747.5458819214273
 20
942.7766828191307
 30
0.0
 10
747.6292645288431
 20
942.9147362717285
 30
0.0
 10
747.7122050274119
 20
943.0548176484117
 30
0.0
 10
747.7944617874127
 20
943.1969932714983
 30
0.0
 10
747.9589753074178
 20
943.4813445176697
 30
0.0
 10
748.1207885966396
 20
943.7740371780929
 30
0.0
 10
748.277636366045
 20
944.0759902479676
 30
0.0
 10
748.4344841354486
 20
944.3779433178406
 30
0.0
 10
748.5863885747167
 20
944.6891424731965
 30
0.0
 10
748.730394029535
 20
945.0111649874179
 30
0.0
 10
748.8023967569424
 20
945.1721762445268
 30
0.0
 10
748.8724120327352
 20
945.3359047977992
 30
0.0
 10
748.9399744175898
 20
945.5026318557756
 30
0.0
 10
749.0075368024426
 20
945.6693589137502
 30
0.0
 10
749.0726476231393
 20
945.8390833347365
 30
0.0
 10
749.1347554526946
 20
946.0121603594433
 30
0.0
 10
749.1658093674723
 20
946.0986988717976
 30
0.0
 10
749.1961404304147
 20
946.1861750413481
 30
0.0
 10
749.2254466247395
 20
946.2739421108144
 30
0.0
 10
749.2547528190644
 20
946.3617091802788
 30
0.0
 10
749.2830814774734
 20
946.449892629047
 30
0.0
 10
749.3103724454467
 20
946.5385069237418
 30
0.0
 10
749.3649543813972
 20
946.7157355131313
 30
0.0
 10
749.4153872345886
 20
946.8946864735171
 30
0.0
 10
749.4611679629924
 20
947.0754878324024
 30
0.0
 10
749.5527294198
 20
947.4370905501764
 30
0.0
 10
749.6256955368844
 20
947.8060799582982
 30
0.0
 10
749.6757900846732
 20
948.1836680583837
 30
0.0
 10
749.6883137216209
 20
948.2780650834065
 30
0.0
 10
749.6994068690273
 20
948.3730006891729
 30
0.0
 10
749.7090014979931
 20
948.4684960597515
 30
0.0
 10
749.7137988124759
 20
948.5162437450417
 30
0.0
 10
749.7182255030093
 20
948.5641854110909
 30
0.0
 10
749.7222525954112
 20
948.6120632049242
 30
0.0
 10
749.726279687813
 20
948.6599409987574
 30
0.0
 10
749.7299118140727
 20
948.707783978085
 30
0.0
 10
749.7331482360368
 20
948.7555922170614
 30
0.0
 10
749.7460939238972
 20
948.9468251729668
 30
0.0
 10
749.752708343065
 20
949.1375022832599
 30
0.0
 10
749.7530575629171
 20
949.3276317206964
 30
0.0
 10
749.7537560026212
 20
949.7078905955676
 30
0.0
 10
749.7293239145983
 20
950.0859567995686
 30
0.0
 10
749.6811996529759
 20
950.4619228126539
 30
0.0
 10
749.6571375221665
 20
950.6499058191966
 30
0.0
 10
749.6271706532352
 20
950.8373643184931
 30
0.0
 10
749.5915728545278
 20
951.0243122206667
 30
0.0
 10
749.5826734048496
 20
951.0710491962109
 30
0.0
 10
749.5734189234553
 20
951.1177660916747
 30
0.0
 10
749.563861795852
 20
951.1642451178685
 30
0.0
 10
749.5543046682469
 20
951.2107241440626
 30
0.0
 10
749.5444351994192
 20
951.257017193051
 30
0.0
 10
749.5342642194336
 20
951.3031292347331
 30
0.0
 10
749.5139222594644
 20
951.3953533180975
 30
0.0
 10
749.4923742548707
 20
951.4868533722401
 30
0.0
 10
749.4697020055355
 20
951.5776657747082
 30
0.0
 10
749.4243575068594
 20
951.7592905796446
 30
0.0
 10
749.3745213067777
 20
951.9381685306434
 30
0.0
 10
749.3207959767187
 20
952.114556104132
 30
0.0
 10
749.2670706466597
 20
952.290943677619
 30
0.0
 10
749.2094561866215
 20
952.4648408735975
 30
0.0
 10
749.1484911768584
 20
952.6364637445366
 30
0.0
 10
749.0265611573322
 20
952.979709486417
 30
0.0
 10
748.8912803469648
 20
953.3138894874319
 30
0.0
 10
748.7462714330213
 20
953.6403084006943
 30
0.0
 10
748.7281453187788
 20
953.6811107648517
 30
0.0
 10
748.709866148929
 20
953.7217912092673
 30
0.0
 10
748.6914401296271
 20
953.7623517397278
 30
0.0
 10
748.6730141103235
 20
953.8029122701882
 30
0.0
 10
748.6544359651871
 20
953.8433636773843
 30
0.0
 10
748.63576605044
 20
953.8835925368694
 30
0.0
 10
748.598426220944
 20
953.9640502558359
 30
0.0
 10
748.5606734251687
 20
954.0437209109223
 30
0.0
 10
748.5225595066403
 20
954.1226415253749
 30
0.0
 10
748.4463316695837
 20
954.2804827542841
 30
0.0
 10
748.3686629612111
 20
954.4353276531873
 30
0.0
 10
748.2899188193114
 20
954.5874209681915
 30
0.0
 10
748.1324305355083
 20
954.8916075982033
 30
0.0
 10
747.9706776729527
 20
955.1848316645774
 30
0.0
 10
747.8069983219629
 20
955.4684081372288
 30
0.0
 10
747.6433189709714
 20
955.7519846098802
 30
0.0
 10
747.4776939899639
 20
956.0259006247942
 30
0.0
 10
747.3119714969725
 20
956.2908362151592
 30
0.0
 10
747.1462490039812
 20
956.5557718055243
 30
0.0
 10
746.9804149047777
 20
956.8117222952423
 30
0.0
 10
746.816072236852
 20
957.0588614942117
 30
0.0
 10
746.6517295689263
 20
957.3060006931791
 30
0.0
 10
746.4912980629232
 20
957.5407006449387
 30
0.0
 10
746.3361276705399
 20
957.7633669413735
 30
0.0
 10
746.1809572781567
 20
957.9860332378101
 30
0.0
 10
746.0310245022974
 20
958.1966812056398
 30
0.0
 10
745.8875939284389
 20
958.3952407240539
 30
0.0
 10
745.7441633545804
 20
958.5938002424681
 30
0.0
 10
745.6072242854643
 20
958.7802743209813
 30
0.0
 10
745.4781519762982
 20
958.9540658746537
 30
0.0
 10
745.4136158217133
 20
959.0409616514898
 30
0.0
 10
745.3510490274857
 20
959.1246783818023
 30
0.0
 10
745.2906478430177
 20
959.2050848528232
 30
0.0
 10
745.2604472507846
 20
959.2452880883319
 30
0.0
 10
745.2307883472695
 20
959.2846631803094
 30
0.0
 10
745.201698014649
 20
959.3231894107612
 30
0.0
 10
745.1871528483406
 20
959.3424525259869
 30
0.0
 10
745.1727498247546
 20
959.3615034258309
 30
0.0
 10
745.1584924734179
 20
959.3803392331064
 30
0.0
 10
745.1442351220793
 20
959.3991750403839
 30
0.0
 10
745.1301291780146
 20
959.4177881377472
 30
0.0
 10
745.1162183929118
 20
959.4361227749613
 30
0.0
 10
745.0049321120968
 20
959.5827998726853
 30
0.0
 10
744.9053788418096
 20
959.7126818061424
 30
0.0
 10
744.8184206591613
 20
959.8255069860842
 30
0.0
 10
744.7314624765149
 20
959.9383321660262
 30
0.0
 10
744.657091193696
 20
960.0341057799514
 30
0.0
 10
744.5964451523232
 20
960.1119489477696
 30
0.0
 10
744.5661221316368
 20
960.1508705316783
 30
0.0
 10
744.5392354432042
 20
960.1852994837946
 30
0.0
 10
744.5159646576448
 20
960.2150580394745
 30
0.0
 10
744.5043292648643
 20
960.2299373173137
 30
0.0
 10
744.4935863968512
 20
960.2436634049736
 30
0.0
 10
744.4838178702575
 20
960.2561372184146
 30
0.0
 10
744.4740493436657
 20
960.2686110318554
 30
0.0
 10
744.4652464883274
 20
960.2798432046355
 30
0.0
 10
744.4574116932399
 20
960.2898357640169
 30
0.0
 10
744.4417421030666
 20
960.3098208827796
 30
0.0
 10
744.4299447538979
 20
960.3248475479476
 30
0.0
 10
744.4220596864925
 20
960.3348883646903
 30
0.0
 10
744.4181171527907
 20
960.3399087730622
 30
0.0
 10
744.4151529714436
 20
960.3436821340437
 30
0.0
 10
744.4131741343608
 20
960.34620097259
 30
0.0
 10
744.4121847158185
 20
960.3474603918639
 30
0.0
 10
744.4114416333432
 20
960.3484061805284
 30
0.0
 10
744.4109458884923
 20
960.3490371482513
 30
0.0
 10
744.410698016065
 20
960.3493526321127
 30
0.0
 10
744.4105119780433
 20
960.3495894107382
 30
0.0
 10
744.4104034216689
 20
960.3497275745667
 30
0.0
 10
744.4103491434835
 20
960.3497966564818
 30
0.0
 10
744.4103142357071
 20
960.3498410846968
 30
0.0
 10
744.410281280494
 20
960.3498830278049
 30
0.0
 10
744.4102483252809
 20
960.3499249709129
 30
0.0
 10
744.4102173226292
 20
960.349964428914
 30
0.0
 10
744.4102167043838
 20
960.3499652157706
 30
0.0
  0
SPLINE
  5
279
330
70
100
AcDbEntity
  8
Front$1
 62
    18
420
        0
370
    35
100
AcDbSpline
210
0.0
220
0.0
230
1.0
 70
     8
 71
     3
 72
   203
 73
   199
 74
     0
 42
0.0000000001
 43
0.0000000001
 40
0.0
 40
0.0
 40
0.0
 40
0.0
 40
1.0
 40
1.0
 40
1.0
 40
2.0
 40
2.0
 40
2.0
 40
3.0
 40
3.0
 40
3.0
 40
4.0
 40
4.0
 40
4.0
 40
5.0
 40
5.0
 40
5.0
 40
6.0
 40
6.0
 40
6.0
 40
7.0
 40
7.0
 40
7.0
 40
8.0
 40
8.0
 40
8.0
 40
9.0
 40
9.0
 40
9.0
 40
10.0
 40
10.0
 40
10.0
 40
11.0
 40
11.0
 40
11.0
 40
12.0
 40
12.0
 40
12.0
 40
13.0
 40
13.0
 40
13.0
 40
14.0
 40
14.0
 40
14.0
 40
15.0
 40
15.0
 40
15.0
 40
16.0
 40
16.0
 40
16.0
 40
17.0
 40
17.0
 40
17.0
 40
18.0
 40
18.0
 40
18.0
 40
19.0
 40
19.0
 40
19.0
 40
20.0
 40
20.0
 40
20.0
 40
21.0
 40
21.0
 40
21.0
 40
22.0
 40
22.0
 40
22.0
 40
23.0
 40
23.0
 40
23.0
 40
24.0
 40
24.0
 40
24.0
 40
25.0
 40
25.0
 40
25.0
 40
26.0
 40
26.0
 40
26.0
 40
27.0
 40
27.0
 40
27.0
 40
28.0
 40
28.0
 40
28.0
 40
29.0
 40
29.0
 40
29.0
 40
30.0
 40
30.0
 40
30.0
 40
31.0
 40
31.0
 40
31.0
 40
32.0
 40
32.0
 40
32.0
 40
33.0
 40
33.0
 40
33.0
 40
34.0
 40
34.0
 40
34.0
 40
35.0
 40
35.0
 40
35.0
 40
36.0
 40
36.0
 40
36.0
 40
37.0
 40
37.0
 40
37.0
 40
38.0
 40
38.0
 40
38.0
 40
39.0
 40
39.0
 40
39.0
 40
40.0
 40
40.0
 40
40.0
 40
41.0
 40
41.0
 40
41.0
 40
42.0
 40
42.0
 40
42.0
 40
43.0
 40
43.0
 40
43.0
 40
44.0
 40
44.0
 40
44.0
 40
45.0
 40
45.0
 40
45.0
 40
46.0
 40
46.0
 40
46.0
 40
47.0
 40
47.0
 40
47.0
 40
48.0
 40
48.0
 40
48.0
 40
49.0
 40
49.0
 40
49.0
 40
50.0
 40
50.0
 40
50.0
 40
51.0
 40
51.0
 40
51.0
 40
52.0
 40
52.0
 40
52.0
 40
53.0
 40
53.0
 40
53.0
 40
54.0
 40
54.0
 40
54.0
 40
55.0
 40
55.0
 40
55.0
 40
56.0
 40
56.0
 40
56.0
 40
57.0
 40
57.0
 40
57.0
 40
58.0
 40
58.0
 40
58.0
 40
59.0
 40
59.0
 40
59.0
 40
60.0
 40
60.0
 40
60.0
 40
61.0
 40
61.0
 40
61.0
 40
62.0
 40
62.0
 40
62.0
 40
63.0
 40
63.0
 40
63.0
 40
64.0
 40
64.0
 40
64.0
 40
65.0
 40
65.0
 40
65.0
 40
66.0
 40
66.0
 40
66.0
 40
66.0
 10
492.2627470626012
 20
960.3499842504062
 30
0.0
 10
492.2627479468437
 20
960.3499853853554
 30
0.0
 10
492.2619027910768
 20
960.3489097894671
 30
0.0
 10
492.2602251502303
 20
960.346774474705
 30
0.0
 10
492.2584095216071
 20
960.3444635279929
 30
0.0
 10
492.2556182570296
 20
960.3409101890619
 30
0.0
 10
492.2518680152261
 20
960.3361348520657
 30
0.0
 10
492.2443675316189
 20
960.3265841780739
 30
0.0
 10
492.2330311391042
 20
960.312145511819
 30
0.0
 10
492.2179666938909
 20
960.2929342941461
 30
0.0
 10
492.1878378034644
 20
960.2545118587986
 30
0.0
 10
492.1428150389383
 20
960.1970375126857
 30
0.0
 10
492.083511554004
 20
960.1209425637371
 30
0.0
 10
492.0538598115363
 20
960.0828950892628
 30
0.0
 10
492.0206330611072
 20
960.040182692408
 30
0.0
 10
491.9838816788024
 20
959.9928017464335
 30
0.0
 10
491.9655059876504
 20
959.9691112734454
 30
0.0
 10
491.9462488862109
 20
959.9442530712149
 30
0.0
 10
491.9261152230237
 20
959.9182230913811
 30
0.0
 10
491.9160483914302
 20
959.9052081014633
 30
0.0
 10
491.9057550143215
 20
959.8918905471364
 30
0.0
 10
491.8952766911688
 20
959.8783229212422
 30
0.0
 10
491.8847983680152
 20
959.8647552953462
 30
0.0
 10
491.8741293244866
 20
959.8509301458634
 30
0.0
 10
491.8632729419014
 20
959.8368505515063
 30
0.0
 10
491.7764218812189
 20
959.7242137966476
 30
0.0
 10
491.677614218117
 20
959.595352225082
 30
0.0
 10
491.5683354877928
 20
959.4514135298577
 30
0.0
 10
491.4590567574696
 20
959.3074748346335
 30
0.0
 10
491.3392954393593
 20
959.1484502518033
 30
0.0
 10
491.2102448695386
 20
958.9748560642766
 30
0.0
 10
491.1457195846278
 20
958.888058970515
 30
0.0
 10
491.0788684999979
 20
958.7976104872851
 30
0.0
 10
491.0098257092441
 20
958.7035226843909
 30
0.0
 10
490.9925650115556
 20
958.6800007336679
 30
0.0
 10
490.9751558279449
 20
958.656235453207
 30
0.0
 10
490.9576428421042
 20
958.632285059317
 30
0.0
 10
490.9401298562642
 20
958.608334665425
 30
0.0
 10
490.9225173709455
 20
958.5842050744814
 30
0.0
 10
490.9048084987143
 20
958.5598980861178
 30
0.0
 10
490.8693907542528
 20
958.5112841093941
 30
0.0
 10
490.8335874621443
 20
958.4619605429944
 30
0.0
 10
490.7974224752279
 20
958.4119392539069
 30
0.0
 10
490.652762527563
 20
958.2118540975571
 30
0.0
 10
490.5023255653905
 20
958.000647161427
 30
0.0
 10
490.3475320339957
 20
957.7787296472671
 30
0.0
 10
490.1927385026019
 20
957.5568121331052
 30
0.0
 10
490.0335769219282
 20
957.3241825739497
 30
0.0
 10
489.8714375998752
 20
957.0807411409969
 30
0.0
 10
489.7092982778222
 20
956.8372997080423
 30
0.0
 10
489.5441687441571
 20
956.5830520846885
 30
0.0
 10
489.3775854862687
 20
956.3173564345269
 30
0.0
 10
489.3359396717969
 20
956.250932521987
 30
0.0
 10
489.2942042545346
 20
956.1837901639373
 30
0.0
 10
489.2524062270331
 20
956.1159130692303
 30
0.0
 10
489.2315072132833
 20
956.0819745218777
 30
0.0
 10
489.2105810095963
 20
956.0478332005986
 30
0.0
 10
489.1896834179242
 20
956.0135729401791
 30
0.0
 10
489.168785826253
 20
955.9793126797595
 30
0.0
 10
489.1479125425957
 20
955.9449260618658
 30
0.0
 10
489.1270668907418
 20
955.9104126987167
 30
0.0
 10
489.043684283326
 20
955.7723592461188
 30
0.0
 10
488.9607437847589
 20
955.6322778694356
 30
0.0
 10
488.8784870247564
 20
955.4901022463509
 30
0.0
 10
488.713973504753
 20
955.2057510001777
 30
0.0
 10
488.5521602155295
 20
954.9130583397545
 30
0.0
 10
488.3953124461259
 20
954.6111052698815
 30
0.0
 10
488.2384646767222
 20
954.3091522000068
 30
0.0
 10
488.0865602374542
 20
953.9979530446526
 30
0.0
 10
487.9425547826358
 20
953.6759305304313
 30
0.0
 10
487.8705520552266
 20
953.5149192733205
 30
0.0
 10
487.8005367794348
 20
953.3511907200482
 30
0.0
 10
487.7329743945811
 20
953.1844636620736
 30
0.0
 10
487.6654120097273
 20
953.0177366040971
 30
0.0
 10
487.6003011890297
 20
952.8480121831126
 30
0.0
 10
487.5381933594753
 20
952.674935158404
 30
0.0
 10
487.5071394446977
 20
952.5883966460495
 30
0.0
 10
487.4768083817553
 20
952.5009204764993
 30
0.0
 10
487.4475021874304
 20
952.4131534070347
 30
0.0
 10
487.4181959931056
 20
952.3253863375684
 30
0.0
 10
487.3898673346976
 20
952.2372028888003
 30
0.0
 10
487.3625763667223
 20
952.1485885941055
 30
0.0
 10
487.3079944307737
 20
951.9713600047161
 30
0.0
 10
487.2575615775804
 20
951.7924090443321
 30
0.0
 10
487.2117808491766
 20
951.611607685445
 30
0.0
 10
487.12021939237
 20
951.250004967671
 30
0.0
 10
487.0472532752846
 20
950.8810155595492
 30
0.0
 10
486.9971587274967
 20
950.5034274594637
 30
0.0
 10
486.9846350905491
 20
950.4090304344426
 30
0.0
 10
486.9735419431426
 20
950.3140948286745
 30
0.0
 10
486.9639473141769
 20
950.2185994580958
 30
0.0
 10
486.9591499996931
 20
950.1708517728056
 30
0.0
 10
486.9547233091598
 20
950.1229101067565
 30
0.0
 10
486.9506962167579
 20
950.0750323129231
 30
0.0
 10
486.946669124356
 20
950.0271545190917
 30
0.0
 10
486.9430369980982
 20
949.9793115397642
 30
0.0
 10
486.9398005761322
 20
949.9315033007878
 30
0.0
 10
486.9268548882728
 20
949.7402703448825
 30
0.0
 10
486.9202404691058
 20
949.5495932345875
 30
0.0
 10
486.9198912492538
 20
949.3594637971527
 30
0.0
 10
486.9191928095479
 20
948.9792049222815
 30
0.0
 10
486.9436248975725
 20
948.6011387182808
 30
0.0
 10
486.9917491591932
 20
948.2251727051952
 30
0.0
 10
487.0158112900035
 20
948.0371896986508
 30
0.0
 10
487.0457781589347
 20
947.8497311993542
 30
0.0
 10
487.0813759576431
 20
947.6627832971807
 30
0.0
 10
487.0902754073203
 20
947.6160463216384
 30
0.0
 10
487.0995298887137
 20
947.5693294261745
 30
0.0
 10
487.1090870163189
 20
947.5228503999787
 30
0.0
 10
487.1186441439231
 20
947.4763713737848
 30
0.0
 10
487.1285136127517
 20
947.4300783247981
 30
0.0
 10
487.1386845927363
 20
947.3839662831142
 30
0.0
 10
487.1590265527065
 20
947.2917421997498
 30
0.0
 10
487.1805745572983
 20
947.2002421456091
 30
0.0
 10
487.2032468066354
 20
947.109429743141
 30
0.0
 10
487.2485913053096
 20
946.9278049382028
 30
0.0
 10
487.2984275053922
 20
946.7489269872057
 30
0.0
 10
487.3521528354513
 20
946.5725394137171
 30
0.0
 10
487.4058781655112
 20
946.3961518402284
 30
0.0
 10
487.4634926255476
 20
946.2222546442498
 30
0.0
 10
487.5244576353106
 20
946.0506317733106
 30
0.0
 10
487.6463876548378
 20
945.7073860314304
 30
0.0
 10
487.7816684652071
 20
945.3732060304155
 30
0.0
 10
487.9266773791496
 20
945.0467871171531
 30
0.0
 10
487.9448034933921
 20
945.0059847529955
 30
0.0
 10
487.9630826632401
 20
944.9653043085801
 30
0.0
 10
487.9815086825438
 20
944.9247437781195
 30
0.0
 10
487.9999347018475
 20
944.8841832476592
 30
0.0
 10
488.0185128469839
 20
944.843731840463
 30
0.0
 10
488.0371827617309
 20
944.8035029809798
 30
0.0
 10
488.074522591226
 20
944.7230452620114
 30
0.0
 10
488.1122753870013
 20
944.6433746069269
 30
0.0
 10
488.1503893055296
 20
944.5644539924725
 30
0.0
 10
488.2266171425863
 20
944.406612763565
 30
0.0
 10
488.3042858509589
 20
944.2517678646618
 30
0.0
 10
488.3830299928595
 20
944.0996745496558
 30
0.0
 10
488.5405182766617
 20
943.7954879196441
 30
0.0
 10
488.7022711392164
 20
943.50226385327
 30
0.0
 10
488.865950490207
 20
943.2186873806204
 30
0.0
 10
489.0296298411977
 20
942.9351109079689
 30
0.0
 10
489.1952548222061
 20
942.6611948930549
 30
0.0
 10
489.3609773151974
 20
942.3962593026899
 30
0.0
 10
489.5266998081888
 20
942.131323712325
 30
0.0
 10
489.6925339073932
 20
941.8753732226051
 30
0.0
 10
489.856876575318
 20
941.6282340236357
 30
0.0
 10
490.0212192432427
 20
941.3810948246682
 30
0.0
 10
490.1816507492467
 20
941.1463948729105
 30
0.0
 10
490.3368211416299
 20
940.9237285764739
 30
0.0
 10
490.4919915340133
 20
940.701062280039
 30
0.0
 10
490.6419243098716
 20
940.4904143122076
 30
0.0
 10
490.7853548837302
 20
940.2918547937934
 30
0.0
 10
490.9287854575886
 20
940.0932952753791
 30
0.0
 10
491.0657245267056
 20
939.9068211968661
 30
0.0
 10
491.1947968358727
 20
939.7330296431936
 30
0.0
 10
491.2593329904566
 20
939.6461338663575
 30
0.0
 10
491.3218997846843
 20
939.562417136045
 30
0.0
 10
491.3823009691514
 20
939.4820106650259
 30
0.0
 10
491.4125015613854
 20
939.4418074295154
 30
0.0
 10
491.4421604649014
 20
939.4024323375397
 30
0.0
 10
491.47125079752
 20
939.363906107088
 30
0.0
 10
491.4857959638302
 20
939.3446429918622
 30
0.0
 10
491.5001989874154
 20
939.3255920920164
 30
0.0
 10
491.514456338753
 20
939.3067562847409
 30
0.0
 10
491.5287136900906
 20
939.2879204774654
 30
0.0
 10
491.5428196341554
 20
939.2693073801019
 30
0.0
 10
491.5567304192572
 20
939.250972742886
 30
0.0
 10
491.6680167000722
 20
939.1042956451638
 30
0.0
 10
491.7675699703614
 20
938.974413711705
 30
0.0
 10
491.8545281530078
 20
938.861588531765
 30
0.0
 10
491.9414863356542
 20
938.7487633518231
 30
0.0
 10
492.0158576184739
 20
938.6529897378968
 30
0.0
 10
492.0765036598468
 20
938.5751465700796
 30
0.0
 10
492.1068266805332
 20
938.5362249861699
 30
0.0
 10
492.1337133689657
 20
938.5017960340537
 30
0.0
 10
492.1569841545252
 20
938.4720374783737
 30
0.0
 10
492.1686195473057
 20
938.4571582005337
 30
0.0
 10
492.1793624153196
 20
938.4434321128738
 30
0.0
 10
492.1891309419124
 20
938.4309582994337
 30
0.0
 10
492.1988994685052
 20
938.418484485992
 30
0.0
 10
492.2077023238434
 20
938.4072523132127
 30
0.0
 10
492.2155371189301
 20
938.3972597538305
 30
0.0
 10
492.2312067091033
 20
938.3772746350697
 30
0.0
 10
492.2430040582712
 20
938.3622479699006
 30
0.0
 10
492.2508891256766
 20
938.3522071531571
 30
0.0
 10
492.2548316593792
 20
938.3471867447861
 30
0.0
 10
492.2577958407273
 20
938.3434133838054
 30
0.0
 10
492.2597746778101
 20
938.3408945452574
 30
0.0
 10
492.2607640963515
 20
938.3396351259834
 30
0.0
 10
492.2615071788259
 20
938.338689337319
 30
0.0
 10
492.2620029236786
 20
938.3380583695961
 30
0.0
 10
492.262250796105
 20
938.3377428857366
 30
0.0
 10
492.2624368341257
 20
938.3375061071109
 30
0.0
 10
492.2625453905002
 20
938.3373679432807
 30
0.0
 10
492.2625996686874
 20
938.3372988613665
 30
0.0
 10
492.2626345764629
 20
938.3372544331505
 30
0.0
 10
492.2626675316769
 20
938.3372124900434
 30
0.0
 10
492.26270048689
 20
938.3371705469343
 30
0.0
 10
492.2627314895407
 20
938.3371310889343
 30
0.0
 10
492.2627321077852
 20
938.3371303020776
 30
0.0
  0
SPLINE
  5
27A
330
70
100
AcDbEntity
  8
Front$1
 62
    18
420
        0
370
    35
100
AcDbSpline
210
0.0
220
0.0
230
1.0
 70
     8
 71
     3
 72
    11
 73
     7
 74
     0
 42
0.0000000001
 43
0.0000000001
 40
0.0
 40
0.0
 40
0.0
 40
0.0
 40
1.0
 40
1.0
 40
1.0
 40
2.0
 40
2.0
 40
2.0
 40
2.0
 10
198.2952223801967
 20
977.2386437350315
 30
0.0
 10
198.2686927841032
 20
977.2385184089399
 30
0.0
 10
198.2421609784032
 20
977.2384174593835
 30
0.0
 10
198.2156269628804
 20
977.2383408985506
 30
0.0
 10
198.1890929473575
 20
977.2382643377186
 30
0.0
 10
198.1625567220135
 20
977.2382121656082
 30
0.0
 10
198.1360182868411
 20
977.238184394414
 30
0.0
  0
SPLINE
  5
27B
330
70
100
AcDbEntity
  8
Front$1
 62
    18
420
        0
370
    35
100
AcDbSpline
210
0.0
220
0.0
230
1.0
 70
     8
 71
     3
 72
    11
 73
     7
 74
     0
 42
0.0000000001
 43
0.0000000001
 40
0.0
 40
0.0
 40
0.0
 40
0.0
 40
1.0
 40
1.0
 40
1.0
 40
2.0
 40
2.0
 40
2.0
 40
2.0
 10
197.1354331493339
 20
977.2487006752472
 30
0.0
 10
197.1112034894631
 20
977.2492353442158
 30
0.0
 10
197.0869753089846
 20
977.2497903224321
 30
0.0
 10
197.0627486148687
 20
977.2503656022673
 30
0.0
 10
197.0385219207528
 20
977.2509408821024
 30
0.0
 10
197.0142967130014
 20
977.2515364635582
 30
0.0
 10
196.9900730017552
 20
977.2521523388714
 30
0.0
  0
SPLINE
  5
27C
330
70
100
AcDbEntity
  8
Front$1
 62
    18
420
        0
370
    35
100
AcDbSpline
210
0.0
220
0.0
230
1.0
 70
     8
 71
     3
 72
   191
 73
   187
 74
     0
 42
0.0000000001
 43
0.0000000001
 40
0.0
 40
0.0
 40
0.0
 40
0.0
 40
1.0
 40
1.0
 40
1.0
 40
2.0
 40
2.0
 40
2.0
 40
3.0
 40
3.0
 40
3.0
 40
4.0
 40
4.0
 40
4.0
 40
5.0
 40
5.0
 40
5.0
 40
6.0
 40
6.0
 40
6.0
 40
7.0
 40
7.0
 40
7.0
 40
8.0
 40
8.0
 40
8.0
 40
9.0
 40
9.0
 40
9.0
 40
10.0
 40
10.0
 40
10.0
 40
11.0
 40
11.0
 40
11.0
 40
12.0
 40
12.0
 40
12.0
 40
13.0
 40
13.0
 40
13.0
 40
14.0
 40
14.0
 40
14.0
 40
15.0
 40
15.0
 40
15.0
 40
16.0
 40
16.0
 40
16.0
 40
17.0
 40
17.0
 40
17.0
 40
18.0
 40
18.0
 40
18.0
 40
19.0
 40
19.0
 40
19.0
 40
20.0
 40
20.0
 40
20.0
 40
21.0
 40
21.0
 40
21.0
 40
22.0
 40
22.0
 40
22.0
 40
23.0
 40
23.0
 40
23.0
 40
24.0
 40
24.0
 40
24.0
 40
25.0
 40
25.0
 40
25.0
 40
26.0
 40
26.0
 40
26.0
 40
27.0
 40
27.0
 40
27.0
 40
28.0
 40
28.0
 40
28.0
 40
29.0
 40
29.0
 40
29.0
 40
30.0
 40
30.0
 40
30.0
 40
31.0
 40
31.0
 40
31.0
 40
32.0
 40
32.0
 40
32.0
 40
33.0
 40
33.0
 40
33.0
 40
34.0
 40
34.0
 40
34.0
 40
35.0
 40
35.0
 40
35.0
 40
36.0
 40
36.0
 40
36.0
 40
37.0
 40
37.0
 40
37.0
 40
38.0
 40
38.0
 40
38.0
 40
39.0
 40
39.0
 40
39.0
 40
40.0
 40
40.0
 40
40.0
 40
41.0
 40
41.0
 40
41.0
 40
42.0
 40
42.0
 40
42.0
 40
43.0
 40
43.0
 40
43.0
 40
44.0
 40
44.0
 40
44.0
 40
45.0
 40
45.0
 40
45.0
 40
46.0
 40
46.0
 40
46.0
 40
47.0
 40
47.0
 40
47.0
 40
48.0
 40
48.0
 40
48.0
 40
49.0
 40
49.0
 40
49.0
 40
50.0
 40
50.0
 40
50.0
 40
51.0
 40
51.0
 40
51.0
 40
52.0
 40
52.0
 40
52.0
 40
53.0
 40
53.0
 40
53.0
 40
54.0
 40
54.0
 40
54.0
 40
55.0
 40
55.0
 40
55.0
 40
56.0
 40
56.0
 40
56.0
 40
57.0
 40
57.0
 40
57.0
 40
58.0
 40
58.0
 40
58.0
 40
59.0
 40
59.0
 40
59.0
 40
60.0
 40
60.0
 40
60.0
 40
61.0
 40
61.0
 40
61.0
 40
62.0
 40
62.0
 40
62.0
 40
62.0
 10
212.0989114837548
 20
1004.575851043786
 30
0.0
 10
212.0989054850152
 20
1004.575843416517
 30
0.0
 10
212.0831197127754
 20
1004.555772145343
 30
0.0
 10
212.0524924603187
 20
1004.516711297976
 30
0.0
 10
212.0218652078611
 20
1004.477650450608
 30
0.0
 10
211.976393259105
 20
1004.419596320524
 30
0.0
 10
211.9166823283876
 20
1004.342967842286
 30
0.0
 10
211.8868268630285
 20
1004.304653603167
 30
0.0
 10
211.853406868061
 20
1004.261686070443
 30
0.0
 10
211.8164720154418
 20
1004.214060383077
 30
0.0
 10
211.7980045891318
 20
1004.190247539394
 30
0.0
 10
211.7786581981536
 20
1004.165269567725
 30
0.0
 10
211.7584376146197
 20
1004.139122279323
 30
0.0
 10
211.7483273228527
 20
1004.126048635121
 30
0.0
 10
211.7379952954106
 20
1004.11267849422
 30
0.0
 10
211.7274817038496
 20
1004.09906252836
 30
0.0
 10
211.7169681122887
 20
1004.085446562499
 30
0.0
 10
211.706264686396
 20
1004.071574085174
 30
0.0
 10
211.695374779757
 20
1004.057448138384
 30
0.0
 10
211.6082555266421
 20
1003.94444056406
 30
0.0
 10
211.5092341772761
 20
1003.815270045977
 30
0.0
 10
211.3997852339435
 20
1003.671069620674
 30
0.0
 10
211.2903362906109
 20
1003.526869195368
 30
0.0
 10
211.1704483596914
 20
1003.367630277057
 30
0.0
 10
211.0413076260929
 20
1003.193859405209
 30
0.0
 10
210.9767372592933
 20
1003.106973969285
 30
0.0
 10
210.9098502535626
 20
1003.016446616495
 30
0.0
 10
210.8407800531431
 20
1002.922288490298
 30
0.0
 10
210.8235125030387
 20
1002.898748958749
 30
0.0
 10
210.8060968889131
 20
1002.874966463845
 30
0.0
 10
210.7885851324936
 20
1002.851009178261
 30
0.0
 10
210.771073376075
 20
1002.827051892677
 30
0.0
 10
210.7534626659517
 20
1002.8029160145
 30
0.0
 10
210.7357560963528
 20
1002.778603321356
 30
0.0
 10
210.7003429571541
 20
1002.729977935067
 30
0.0
 10
210.6645463800514
 20
1002.680645288909
 30
0.0
 10
210.6283900873759
 20
1002.630617094287
 30
0.0
 10
210.4837649166739
 20
1002.4305043158
 30
0.0
 10
210.3333941865758
 20
1002.219304271086
 30
0.0
 10
210.1786919245078
 20
1001.997420676515
 30
0.0
 10
210.0239896624398
 20
1001.775537081945
 30
0.0
 10
209.8649444647163
 20
1001.542968555108
 30
0.0
 10
209.7029422221658
 20
1001.299610469605
 30
0.0
 10
209.5409399796154
 20
1001.056252384103
 30
0.0
 10
209.3759682704513
 20
1000.802110463084
 30
0.0
 10
209.2095602548943
 20
1000.536539853642
 30
0.0
 10
209.1679582510051
 20
1000.470147201282
 30
0.0
 10
209.126267736363
 20
1000.403037319357
 30
0.0
 10
209.084515657125
 20
1000.335193883651
 30
0.0
 10
209.0636396175059
 20
1000.301272165798
 30
0.0
 10
209.042738086122
 20
1000.267150283127
 30
0.0
 10
209.0218685442478
 20
1000.232914979299
 30
0.0
 10
209.0009990023727
 20
1000.198679675469
 30
0.0
 10
208.9801539355331
 20
1000.164318272101
 30
0.0
 10
208.9593366589215
 20
1000.129830375755
 30
0.0
 10
208.8760675524782
 20
999.9918787903743
 30
0.0
 10
208.7932430896926
 20
999.8519033173552
 30
0.0
 10
208.7111043583027
 20
999.7098374266206
 30
0.0
 10
208.5468268955219
 20
999.4257056451496
 30
0.0
 10
208.3852576866048
 20
999.1332476591342
 30
0.0
 10
208.2286574002137
 20
998.8315440818015
 30
0.0
 10
208.0720571138217
 20
998.5298405044696
 30
0.0
 10
207.9204036426518
 20
998.2189056308735
 30
0.0
 10
207.776646700524
 20
997.8971636693659
 30
0.0
 10
207.7047682294606
 20
997.7362926886117
 30
0.0
 10
207.6348765685198
 20
997.5727085107237
 30
0.0
 10
207.5674361742876
 20
997.4061303443304
 30
0.0
 10
207.4999957800565
 20
997.2395521779381
 30
0.0
 10
207.4350053309536
 20
997.069981160952
 30
0.0
 10
207.3730150267056
 20
996.8970626804985
 30
0.0
 10
207.3420198745826
 20
996.8106034402717
 30
0.0
 10
207.3117497966532
 20
996.7232160337044
 30
0.0
 10
207.2825044002675
 20
996.6355428765565
 30
0.0
 10
207.2532590038818
 20
996.5478697194084
 30
0.0
 10
207.2249895877994
 20
996.4597809937103
 30
0.0
 10
207.1977561153417
 20
996.3712622716675
 30
0.0
 10
207.1432891704244
 20
996.1942248275809
 30
0.0
 10
207.0929643311092
 20
996.0154684058061
 30
0.0
 10
207.0472829848341
 20
995.8348653499252
 30
0.0
 10
206.9559202922846
 20
995.4736592381641
 30
0.0
 10
206.8831185159797
 20
995.10508141851
 30
0.0
 10
206.8331390050489
 20
994.7279237958182
 30
0.0
 10
206.820644127316
 20
994.6336343901448
 30
0.0
 10
206.8095766497472
 20
994.5388075901256
 30
0.0
 10
206.8000043572383
 20
994.4434222839964
 30
0.0
 10
206.795218210983
 20
994.3957296309317
 30
0.0
 10
206.7908019447805
 20
994.3478441382321
 30
0.0
 10
206.7867844579359
 20
994.3000239846961
 30
0.0
 10
206.7827669710914
 20
994.2522038311599
 30
0.0
 10
206.7791435077434
 20
994.204418408406
 30
0.0
 10
206.775914800487
 20
994.1566676424582
 30
0.0
 10
206.7629999714627
 20
993.9656645786682
 30
0.0
 10
206.756401239898
 20
993.7752160237804
 30
0.0
 10
206.7560527232599
 20
993.5853138327994
 30
0.0
 10
206.7553556899838
 20
993.2055094508369
 30
0.0
 10
206.7797289265109
 20
992.8278924951282
 30
0.0
 10
206.8277398687069
 20
992.4523708345377
 30
0.0
 10
206.8517453398054
 20
992.264610004242
 30
0.0
 10
206.8816420175244
 20
992.0773724597356
 30
0.0
 10
206.9171572291198
 20
991.8906443436016
 30
0.0
 10
206.9260360320186
 20
991.8439623145678
 30
0.0
 10
206.9352698463463
 20
991.7972963885841
 30
0.0
 10
206.9448059158549
 20
991.750867171625
 30
0.0
 10
206.9543419853644
 20
991.7044379546659
 30
0.0
 10
206.9641898162381
 20
991.6581943468964
 30
0.0
 10
206.9743386128648
 20
991.6121313931016
 30
0.0
 10
206.9946362061173
 20
991.5200054855132
 30
0.0
 10
207.0161376623782
 20
991.4286021938268
 30
0.0
 10
207.038761316021
 20
991.337885128596
 30
0.0
 10
207.1292559305894
 20
990.9750168676719
 30
0.0
 10
207.2376239515161
 20
990.6230758990432
 30
0.0
 10
207.3593123755854
 20
990.2801753080176
 30
0.0
 10
207.4810007996557
 20
989.9372747169927
 30
0.0
 10
207.6160227216123
 20
989.6034239017753
 30
0.0
 10
207.7607649380707
 20
989.2773207246564
 30
0.0
 10
207.7788577151277
 20
989.2365578275166
 30
0.0
 10
207.797103421909
 20
989.1959166374689
 30
0.0
 10
207.8154958676814
 20
989.1553951515698
 30
0.0
 10
207.8338883134529
 20
989.1148736656695
 30
0.0
 10
207.852434826058
 20
989.0744565831736
 30
0.0
 10
207.8710740485467
 20
989.0342598492571
 30
0.0
 10
207.908352493524
 20
988.9538663814255
 30
0.0
 10
207.9460440149242
 20
988.8742588958475
 30
0.0
 10
207.9840968599346
 20
988.7954004038229
 30
0.0
 10
208.0602025499565
 20
988.6376834197745
 30
0.0
 10
208.1377499210121
 20
988.4829585858597
 30
0.0
 10
208.2163741681879
 20
988.3309813192699
 30
0.0
 10
208.3736226625388
 20
988.0270267860923
 30
0.0
 10
208.5351415455025
 20
987.7340188544204
 30
0.0
 10
208.6985969041097
 20
987.4506424053906
 30
0.0
 10
208.8620522627179
 20
987.1672659563611
 30
0.0
 10
209.0274631772854
 20
986.893533847906
 30
0.0
 10
209.1929854113768
 20
986.6287642330153
 30
0.0
 10
209.3585076454674
 20
986.3639946181256
 30
0.0
 10
209.5241552331499
 20
986.1081922030844
 30
0.0
 10
209.6883296104534
 20
985.8611795217475
 30
0.0
 10
209.7293732047783
 20
985.7994263514138
 30
0.0
 10
209.7702015024761
 20
985.7384113669541
 30
0.0
 10
209.8107507214427
 20
985.6781874023445
 30
0.0
 10
209.8512999404083
 20
985.6179634377349
 30
0.0
 10
209.8915840197705
 20
985.5585108196155
 30
0.0
 10
209.9315821175151
 20
985.4998198530983
 30
0.0
 10
210.011578313004
 20
985.3824379200633
 30
0.0
 10
210.0904305820241
 20
985.2681025934343
 30
0.0
 10
210.1679792065643
 20
985.1567730528913
 30
0.0
 10
210.3230764556447
 20
984.9341139718035
 30
0.0
 10
210.4729620043272
 20
984.7234466412711
 30
0.0
 10
210.6163761553207
 20
984.5248351328955
 30
0.0
 10
210.7597903063133
 20
984.3262236245209
 30
0.0
 10
210.8967436747753
 20
984.1396650306933
 30
0.0
 10
211.0258683414031
 20
983.9657473224097
 30
0.0
 10
211.090430674717
 20
983.8787884682679
 30
0.0
 10
211.1530332070088
 20
983.7949981948822
 30
0.0
 10
211.2134809628196
 20
983.7145061276341
 30
0.0
 10
211.2437048407255
 20
983.6742600940105
 30
0.0
 10
211.2733897422004
 20
983.6348391856409
 30
0.0
 10
211.302508976335
 20
983.5962638816337
 30
0.0
 10
211.3170685934028
 20
983.5769762296294
 30
0.0
 10
211.3314867936351
 20
983.5578999787166
 30
0.0
 10
211.3457600737038
 20
983.5390379733208
 30
0.0
 10
211.3600333537734
 20
983.5201759679248
 30
0.0
 10
211.3741644239744
 20
983.5015246768543
 30
0.0
 10
211.3881006088523
 20
983.4831516806488
 30
0.0
 10
211.4995900878757
 20
983.3361677110069
 30
0.0
 10
211.5993853140226
 20
983.2059394160395
 30
0.0
 10
211.6866305312505
 20
983.0927187118723
 30
0.0
 10
211.7738757484785
 20
982.979498007705
 30
0.0
 10
211.8485790551694
 20
982.8832798529456
 30
0.0
 10
211.909611658918
 20
982.8049292942305
 30
0.0
 10
211.9401279607919
 20
982.7657540148729
 30
0.0
 10
211.9672216226836
 20
982.7310555779641
 30
0.0
 10
211.9907147095601
 20
982.7010094056731
 30
0.0
 10
211.9965879812789
 20
982.6934978626013
 30
0.0
 10
212.0022360734529
 20
982.6862773321519
 30
0.0
 10
212.0076559049048
 20
982.6793510648357
 30
0.0
 10
212.0130757363568
 20
982.6724247975198
 30
0.0
 10
212.0182666563815
 20
982.6657936284346
 30
0.0
 10
212.0232129361994
 20
982.6594769975372
 30
0.0
 10
212.0331054958342
 20
982.6468437357425
 30
0.0
 10
212.0420353372401
 20
982.6354483122795
 30
0.0
 10
212.0499993847216
 20
982.625290128406
 30
0.0
 10
212.0818555746491
 20
982.584657392913
 30
0.0
 10
212.0982844479968
 20
982.5637686721938
 30
0.0
 10
212.0988911638288
 20
982.5629964878135
 30
0.0
 10
212.0989026914294
 20
982.5629818163097
 30
0.0
 10
212.0989082152719
 20
982.5629747855282
 30
0.0
 10
212.0989088316965
 20
982.56297399725
 30
0.0
  0
SPLINE
  5
27D
330
70
100
AcDbEntity
  8
Front$1
 62
    18
420
        0
370
    35
100
AcDbSpline
210
0.0
220
0.0
230
1.0
 70
     8
 71
     3
 72
   140
 73
   136
 74
     0
 42
0.0000000001
 43
0.0000000001
 40
0.0
 40
0.0
 40
0.0
 40
0.0
 40
1.0
 40
1.0
 40
1.0
 40
2.0
 40
2.0
 40
2.0
 40
3.0
 40
3.0
 40
3.0
 40
4.0
 40
4.0
 40
4.0
 40
5.0
 40
5.0
 40
5.0
 40
6.0
 40
6.0
 40
6.0
 40
7.0
 40
7.0
 40
7.0
 40
8.0
 40
8.0
 40
8.0
 40
9.0
 40
9.0
 40
9.0
 40
10.0
 40
10.0
 40
10.0
 40
11.0
 40
11.0
 40
11.0
 40
12.0
 40
12.0
 40
12.0
 40
13.0
 40
13.0
 40
13.0
 40
14.0
 40
14.0
 40
14.0
 40
15.0
 40
15.0
 40
15.0
 40
16.0
 40
16.0
 40
16.0
 40
17.0
 40
17.0
 40
17.0
 40
18.0
 40
18.0
 40
18.0
 40
19.0
 40
19.0
 40
19.0
 40
20.0
 40
20.0
 40
20.0
 40
21.0
 40
21.0
 40
21.0
 40
22.0
 40
22.0
 40
22.0
 40
23.0
 40
23.0
 40
23.0
 40
24.0
 40
24.0
 40
24.0
 40
25.0
 40
25.0
 40
25.0
 40
26.0
 40
26.0
 40
26.0
 40
27.0
 40
27.0
 40
27.0
 40
28.0
 40
28.0
 40
28.0
 40
29.0
 40
29.0
 40
29.0
 40
30.0
 40
30.0
 40
30.0
 40
31.0
 40
31.0
 40
31.0
 40
32.0
 40
32.0
 40
32.0
 40
33.0
 40
33.0
 40
33.0
 40
34.0
 40
34.0
 40
34.0
 40
35.0
 40
35.0
 40
35.0
 40
36.0
 40
36.0
 40
36.0
 40
37.0
 40
37.0
 40
37.0
 40
38.0
 40
38.0
 40
38.0
 40
39.0
 40
39.0
 40
39.0
 40
40.0
 40
40.0
 40
40.0
 40
41.0
 40
41.0
 40
41.0
 40
42.0
 40
42.0
 40
42.0
 40
43.0
 40
43.0
 40
43.0
 40
44.0
 40
44.0
 40
44.0
 40
45.0
 40
45.0
 40
45.0
 40
45.0
 10
212.0989087654052
 20
1028.139626022502
 30
0.0
 10
212.0989078197581
 20
1028.139632441701
 30
0.0
 10
212.0983142467167
 20
1028.143316260461
 30
0.0
 10
212.0971559639447
 20
1028.150557546068
 30
0.0
 10
212.0959976811719
 20
1028.157798831675
 30
0.0
 10
212.0942746886685
 20
1028.168597584126
 30
0.0
 10
212.0920148673149
 20
1028.182927383061
 30
0.0
 10
212.0897550459613
 20
1028.197257181995
 30
0.0
 10
212.0869583957565
 20
1028.215118027412
 30
0.0
 10
212.0836528000418
 20
1028.236588481835
 30
0.0
 10
212.0828264011134
 20
1028.241956095441
 30
0.0
 10
212.0819681969642
 20
1028.247549833264
 30
0.0
 10
212.0810786341708
 20
1028.253372002577
 30
0.0
 10
212.0801890713765
 20
1028.259194171889
 30
0.0
 10
212.079266790186
 20
1028.265253775828
 30
0.0
 10
212.0783179763866
 20
1028.271515667109
 30
0.0
 10
212.0764203487879
 20
1028.284039449673
 30
0.0
 10
212.0744159624519
 20
1028.297375907817
 30
0.0
 10
212.0723140097143
 20
1028.311508408026
 30
0.0
 10
212.0681101042392
 20
1028.339773408445
 30
0.0
 10
212.0635167809205
 20
1028.371216428228
 30
0.0
 10
212.0586047277638
 20
1028.405778284568
 30
0.0
 10
212.0536926746072
 20
1028.44034014091
 30
0.0
 10
212.0484618916125
 20
1028.47802083381
 30
0.0
 10
212.0429830838357
 20
1028.518853141537
 30
0.0
 10
212.0402436799477
 20
1028.539269295401
 30
0.0
 10
212.0374422821206
 20
1028.560474773843
 30
0.0
 10
212.0345879600409
 20
1028.582482598833
 30
0.0
 10
212.0317336379603
 20
1028.60449042382
 30
0.0
 10
212.0288182571385
 20
1028.627366722825
 30
0.0
 10
212.0258857450754
 20
1028.6508504789
 30
0.0
 10
212.0200207209491
 20
1028.697817991049
 30
0.0
 10
212.0140820487613
 20
1028.747246941851
 30
0.0
 10
212.0081545813737
 20
1028.799070086007
 30
0.0
 10
212.0022271139851
 20
1028.850893230163
 30
0.0
 10
211.9963108513966
 20
1028.905110567673
 30
0.0
 10
211.9904894176252
 20
1028.961725512788
 30
0.0
 10
211.9846679838538
 20
1029.018340457902
 30
0.0
 10
211.9789413788994
 20
1029.077353010621
 30
0.0
 10
211.9733958659371
 20
1029.138838722108
 30
0.0
 10
211.9706231094551
 20
1029.169581577853
 30
0.0
 10
211.9678905361888
 20
1029.201011288098
 30
0.0
 10
211.9652423127018
 20
1029.232735141457
 30
0.0
 10
211.9625940892156
 20
1029.264458994815
 30
0.0
 10
211.9600239364281
 20
1029.296541909271
 30
0.0
 10
211.9575397902936
 20
1029.328978289425
 30
0.0
 10
211.9525714980255
 20
1029.393851049734
 30
0.0
 10
211.9479478447392
 20
1029.460135288424
 30
0.0
 10
211.9437308232882
 20
1029.527817694233
 30
0.0
 10
211.9395138018372
 20
1029.595500100042
 30
0.0
 10
211.9357034122195
 20
1029.664580672972
 30
0.0
 10
211.9323626354071
 20
1029.735086639662
 30
0.0
 10
211.9306922470014
 20
1029.770339623006
 30
0.0
 10
211.9291392866253
 20
1029.805949585619
 30
0.0
 10
211.9277119069411
 20
1029.841923954473
 30
0.0
 10
211.926284527256
 20
1029.877898323327
 30
0.0
 10
211.9249823730479
 20
1029.914276219188
 30
0.0
 10
211.9238257937923
 20
1029.950610227172
 30
0.0
 10
211.921512635281
 20
1030.02327824314
 30
0.0
 10
211.9197645739778
 20
1030.096166274627
 30
0.0
 10
211.9185926613727
 20
1030.169268945863
 30
0.0
 10
211.9174207487668
 20
1030.242371617098
 30
0.0
 10
211.916824984859
 20
1030.315688928082
 30
0.0
 10
211.9168158142902
 20
1030.389221577354
 30
0.0
 10
211.9168066437214
 20
1030.462754226625
 30
0.0
 10
211.9173840664916
 20
1030.536502214184
 30
0.0
 10
211.918558406418
 20
1030.610472476714
 30
0.0
 10
211.9188519913996
 20
1030.628965042346
 30
0.0
 10
211.9191833485029
 20
1030.647490767674
 30
0.0
 10
211.9195500328715
 20
1030.665931036068
 30
0.0
 10
211.919916717241
 20
1030.684371304461
 30
0.0
 10
211.9203189805867
 20
1030.702746526743
 30
0.0
 10
211.9207560512196
 20
1030.721057507817
 30
0.0
 10
211.9216301924862
 20
1030.757679469963
 30
0.0
 10
211.9226435629061
 20
1030.794044467285
 30
0.0
 10
211.9237901644437
 20
1030.830156843913
 30
0.0
 10
211.9260833675189
 20
1030.90238159717
 30
0.0
 10
211.9289093939687
 20
1030.973597612145
 30
0.0
 10
211.9322215493103
 20
1031.043817535715
 30
0.0
 10
211.9355337046527
 20
1031.114037459286
 30
0.0
 10
211.9393319888877
 20
1031.183261291454
 30
0.0
 10
211.943569255236
 20
1031.251473070835
 30
0.0
 10
211.9456878884093
 20
1031.285578960526
 30
0.0
 10
211.9479162495736
 20
1031.319431390633
 30
0.0
 10
211.9502482393845
 20
1031.353025511912
 30
0.0
 10
211.9525802291964
 20
1031.386619633191
 30
0.0
 10
211.9549983162433
 20
1031.41970236411
 30
0.0
 10
211.9574888464549
 20
1031.452243244468
 30
0.0
 10
211.962469906879
 20
1031.517325005185
 30
0.0
 10
211.9677443440487
 20
1031.580299844381
 30
0.0
 10
211.9732308192579
 20
1031.641218555132
 30
0.0
 10
211.9787172944661
 20
1031.702137265884
 30
0.0
 10
211.9844158077139
 20
1031.760999848192
 30
0.0
 10
211.9902462555038
 20
1031.817796521014
 30
0.0
 10
211.9931614793986
 20
1031.846194857424
 30
0.0
 10
211.9961096906445
 20
1031.874075871084
 30
0.0
 10
211.9990806856995
 20
1031.901432344562
 30
0.0
 10
212.0005661832265
 20
1031.915110581302
 30
0.0
 10
212.002057376707
 20
1031.928657682994
 30
0.0
 10
212.0035529660163
 20
1031.942072361238
 30
0.0
 10
212.0050485553266
 20
1031.955487039482
 30
0.0
 10
212.0065506243372
 20
1031.968787377879
 30
0.0
 10
212.008049583932
 20
1031.981899946104
 30
0.0
 10
212.0140454223129
 20
1032.034350219001
 30
0.0
 10
212.0199898256342
 20
1032.083803864414
 30
0.0
 10
212.025801165807
 20
1032.130360208072
 30
0.0
 10
212.0316125059799
 20
1032.176916551731
 30
0.0
 10
212.0372907830033
 20
1032.220575593634
 30
0.0
 10
212.0427570144793
 20
1032.261349637443
 30
0.0
 10
212.0482232459553
 20
1032.302123681253
 30
0.0
 10
212.0534774318839
 20
1032.340012726969
 30
0.0
 10
212.0584389640144
 20
1032.374942837873
 30
0.0
 10
212.0596793470468
 20
1032.383675365599
 30
0.0
 10
212.0609014207857
 20
1032.392222519467
 30
0.0
 10
212.0621038781928
 20
1032.400582231643
 30
0.0
 10
212.0633063355999
 20
1032.40894194382
 30
0.0
 10
212.0644900827683
 20
1032.417120321839
 30
0.0
 10
212.0656466358123
 20
1032.425066131354
 30
0.0
 10
212.0679597418994
 20
1032.440957750386
 30
0.0
 10
212.0701701705493
 20
1032.45596235869
 30
0.0
 10
212.0722720234517
 20
1032.470096564986
 30
0.0
 10
212.0764757292554
 20
1032.498364977576
 30
0.0
 10
212.0802450124647
 20
1032.52315803867
 30
0.0
 10
212.0835342263945
 20
1032.544529284163
 30
0.0
 10
212.0868234403233
 20
1032.565900529657
 30
0.0
 10
212.0896325849735
 20
1032.583849959548
 30
0.0
 10
212.0919156260397
 20
1032.598331022638
 30
0.0
 10
212.0930571465724
 20
1032.605571554182
 30
0.0
 10
212.0940671234194
 20
1032.611943444553
 30
0.0
 10
212.0949395864527
 20
1032.617431087539
 30
0.0
 10
212.0958120494861
 20
1032.622918730526
 30
0.0
 10
212.0965478937078
 20
1032.62752771857
 30
0.0
 10
212.0971367606062
 20
1032.631209388085
 30
0.0
 10
212.0983144944021
 20
1032.638572727113
 30
0.0
 10
212.0989078279181
 20
1032.642255799446
 30
0.0
 10
212.0989090840212
 20
1032.642263597452
 30
0.0
  0
SPLINE
  5
27E
330
70
100
AcDbEntity
  8
Front$1
 62
    18
420
        0
370
    35
100
AcDbSpline
210
0.0
220
0.0
230
1.0
 70
     8
 71
     3
 72
   152
 73
   148
 74
     0
 42
0.0000000001
 43
0.0000000001
 40
0.0
 40
0.0
 40
0.0
 40
0.0
 40
1.0
 40
1.0
 40
1.0
 40
2.0
 40
2.0
 40
2.0
 40
3.0
 40
3.0
 40
3.0
 40
4.0
 40
4.0
 40
4.0
 40
5.0
 40
5.0
 40
5.0
 40
6.0
 40
6.0
 40
6.0
 40
7.0
 40
7.0
 40
7.0
 40
8.0
 40
8.0
 40
8.0
 40
9.0
 40
9.0
 40
9.0
 40
10.0
 40
10.0
 40
10.0
 40
11.0
 40
11.0
 40
11.0
 40
12.0
 40
12.0
 40
12.0
 40
13.0
 40
13.0
 40
13.0
 40
14.0
 40
14.0
 40
14.0
 40
15.0
 40
15.0
 40
15.0
 40
16.0
 40
16.0
 40
16.0
 40
17.0
 40
17.0
 40
17.0
 40
18.0
 40
18.0
 40
18.0
 40
19.0
 40
19.0
 40
19.0
 40
20.0
 40
20.0
 40
20.0
 40
21.0
 40
21.0
 40
21.0
 40
22.0
 40
22.0
 40
22.0
 40
23.0
 40
23.0
 40
23.0
 40
24.0
 40
24.0
 40
24.0
 40
25.0
 40
25.0
 40
25.0
 40
26.0
 40
26.0
 40
26.0
 40
27.0
 40
27.0
 40
27.0
 40
28.0
 40
28.0
 40
28.0
 40
29.0
 40
29.0
 40
29.0
 40
30.0
 40
30.0
 40
30.0
 40
31.0
 40
31.0
 40
31.0
 40
32.0
 40
32.0
 40
32.0
 40
33.0
 40
33.0
 40
33.0
 40
34.0
 40
34.0
 40
34.0
 40
35.0
 40
35.0
 40
35.0
 40
36.0
 40
36.0
 40
36.0
 40
37.0
 40
37.0
 40
37.0
 40
38.0
 40
38.0
 40
38.0
 40
39.0
 40
39.0
 40
39.0
 40
40.0
 40
40.0
 40
40.0
 40
41.0
 40
41.0
 40
41.0
 40
42.0
 40
42.0
 40
42.0
 40
43.0
 40
43.0
 40
43.0
 40
44.0
 40
44.0
 40
44.0
 40
45.0
 40
45.0
 40
45.0
 40
46.0
 40
46.0
 40
46.0
 40
47.0
 40
47.0
 40
47.0
 40
48.0
 40
48.0
 40
48.0
 40
49.0
 40
49.0
 40
49.0
 40
49.0
 10
184.082524287558
 20
1034.493344461077
 30
0.0
 10
184.0825261017553
 20
1034.493338279903
 30
0.0
 10
184.0845124882389
 20
1034.486570076456
 30
0.0
 10
184.0883875272193
 20
1034.473279592271
 30
0.0
 10
184.0922625661987
 20
1034.459989108085
 30
0.0
 10
184.0980245599357
 20
1034.440178668929
 30
0.0
 10
184.1055822860053
 20
1034.413905533829
 30
0.0
 10
184.1131400120739
 20
1034.38763239873
 30
0.0
 10
184.1224934704751
 20
1034.354896567687
 30
0.0
 10
184.1335538003559
 20
1034.315562599973
 30
0.0
 10
184.1363188828254
 20
1034.305729108045
 30
0.0
 10
184.1391906459776
 20
1034.295482263799
 30
0.0
 10
184.1421676923855
 20
1034.284817954433
 30
0.0
 10
184.1451447387935
 20
1034.274153645068
 30
0.0
 10
184.1482280962518
 20
1034.263067998107
 30
0.0
 10
184.1513965127178
 20
1034.251628168183
 30
0.0
 10
184.1577333456489
 20
1034.228748508338
 30
0.0
 10
184.1644268632481
 20
1034.204393864912
 30
0.0
 10
184.1714470475172
 20
1034.178595335371
 30
0.0
 10
184.1854874160562
 20
1034.126998276289
 30
0.0
 10
184.2008339550039
 20
1034.069636579499
 30
0.0
 10
184.217257340867
 20
1034.006619539795
 30
0.0
 10
184.2336807267293
 20
1033.94360250009
 30
0.0
 10
184.2511818332696
 20
1033.874929929763
 30
0.0
 10
184.2695342052529
 20
1033.800536441921
 30
0.0
 10
184.2787103912451
 20
1033.763339698
 30
0.0
 10
184.2880993584194
 20
1033.724710031507
 30
0.0
 10
184.2976720162369
 20
1033.684622299668
 30
0.0
 10
184.3024583451461
 20
1033.664578433749
 30
0.0
 10
184.3072971293077
 20
1033.644141827459
 30
0.0
 10
184.3121595534921
 20
1033.623415779542
 30
0.0
 10
184.3170219776766
 20
1033.602689731626
 30
0.0
 10
184.3219067467889
 20
1033.581679319944
 30
0.0
 10
184.3268092861062
 20
1033.560389128093
 30
0.0
 10
184.3464194433764
 20
1033.475228360692
 30
0.0
 10
184.3663139239288
 20
1033.385591110603
 30
0.0
 10
184.386214686554
 20
1033.291566453759
 30
0.0
 10
184.4061154491792
 20
1033.197541796916
 30
0.0
 10
184.4260234938847
 20
1033.099129353654
 30
0.0
 10
184.445661088027
 20
1032.996280427975
 30
0.0
 10
184.4652986821702
 20
1032.893431502297
 30
0.0
 10
184.4846668615573
 20
1032.786147099548
 30
0.0
 10
184.5034731348541
 20
1032.67423614501
 30
0.0
 10
184.508174703179
 20
1032.646258406376
 30
0.0
 10
184.5128422339849
 20
1032.617981573454
 30
0.0
 10
184.5174443027663
 20
1032.589570621953
 30
0.0
 10
184.5220463715486
 20
1032.561159670453
 30
0.0
 10
184.5265895297234
 20
1032.532576089191
 30
0.0
 10
184.5310701282615
 20
1032.503821305719
 30
0.0
 10
184.5400313253367
 20
1032.446311738778
 30
0.0
 10
184.5487422838596
 20
1032.388117362998
 30
0.0
 10
184.5571744522194
 20
1032.329244140788
 30
0.0
 10
184.5740387889373
 20
1032.211497696369
 30
0.0
 10
184.5897862121401
 20
1032.091039798173
 30
0.0
 10
184.6041892293142
 20
1031.967858294874
 30
0.0
 10
184.6185922464883
 20
1031.844676791576
 30
0.0
 10
184.6316508576337
 20
1031.718771683174
 30
0.0
 10
184.6431288078411
 20
1031.59005019823
 30
0.0
 10
184.6488677829447
 20
1031.52568945576
 30
0.0
 10
184.6542114244248
 20
1031.460623353679
 30
0.0
 10
184.6591287207711
 20
1031.394832062876
 30
0.0
 10
184.6615873689434
 20
1031.361936417473
 30
0.0
 10
184.6639392086572
 20
1031.328855346911
 30
0.0
 10
184.6661678210703
 20
1031.295791071527
 30
0.0
 10
184.6683964334825
 20
1031.262726796144
 30
0.0
 10
184.6705056493583
 20
1031.229629805886
 30
0.0
 10
184.6724945793357
 20
1031.196500373566
 30
0.0
 10
184.6804502992463
 20
1031.063982644286
 30
0.0
 10
184.6864804341021
 20
1030.93094709421
 30
0.0
 10
184.690531152054
 20
1030.797402416553
 30
0.0
 10
184.6945818700069
 20
1030.663857738896
 30
0.0
 10
184.696653171055
 20
1030.529803933661
 30
0.0
 10
184.6966962948254
 20
1030.395236162923
 30
0.0
 10
184.6967178567101
 20
1030.327952277554
 30
0.0
 10
184.6962324486121
 20
1030.260539692266
 30
0.0
 10
184.6952343509774
 20
1030.19299649956
 30
0.0
 10
184.6942362533418
 20
1030.125453306855
 30
0.0
 10
184.6927244195785
 20
1030.057744676393
 30
0.0
 10
184.6906965086636
 20
1029.989973901916
 30
0.0
 10
184.6866406868339
 20
1029.854432352964
 30
0.0
 10
184.6805877766737
 20
1029.720786871286
 30
0.0
 10
184.6727082140842
 20
1029.588957482801
 30
0.0
 10
184.6648286514946
 20
1029.457128094318
 30
0.0
 10
184.6551228117423
 20
1029.327115392336
 30
0.0
 10
184.6437559644319
 20
1029.198891537328
 30
0.0
 10
184.6323891171223
 20
1029.070667682319
 30
0.0
 10
184.6193612622546
 20
1028.944232674285
 30
0.0
 10
184.6048404640632
 20
1028.819608906735
 30
0.0
 10
184.5975800649675
 20
1028.75729702296
 30
0.0
 10
184.5899271806229
 20
1028.695301815341
 30
0.0
 10
184.5820054995929
 20
1028.634380748552
 30
0.0
 10
184.574083818562
 20
1028.573459681762
 30
0.0
 10
184.5658815531742
 20
1028.513494854024
 30
0.0
 10
184.5574347291776
 20
1028.454463404468
 30
0.0
 10
184.5405410811836
 20
1028.336400505357
 30
0.0
 10
184.522669932212
 20
1028.222064179099
 30
0.0
 10
184.5040958760728
 20
1028.111360337593
 30
0.0
 10
184.4855218199327
 20
1028.000656496087
 30
0.0
 10
184.4662439809699
 20
1027.893585278145
 30
0.0
 10
184.4465303079087
 20
1027.790163612574
 30
0.0
 10
184.4366734713776
 20
1027.738452779789
 30
0.0
 10
184.4267076523611
 20
1027.6876560448
 30
0.0
 10
184.416666785658
 20
1027.637786283856
 30
0.0
 10
184.4116463523069
 20
1027.612851403384
 30
0.0
 10
184.4066067198182
 20
1027.588147270579
 30
0.0
 10
184.4015798219752
 20
1027.563806211632
 30
0.0
 10
184.3965529241332
 20
1027.539465152685
 30
0.0
 10
184.3915318729696
 20
1027.515454967399
 30
0.0
 10
184.3865211942966
 20
1027.491769835546
 30
0.0
 10
184.3664784796065
 20
1027.397029308136
 30
0.0
 10
184.3466017247747
 20
1027.307489635655
 30
0.0
 10
184.327158329118
 20
1027.223014793761
 30
0.0
 10
184.3077149334613
 20
1027.138539951865
 30
0.0
 10
184.2887039056168
 20
1027.05913041786
 30
0.0
 10
184.2703868540347
 20
1026.984809310639
 30
0.0
 10
184.2520698024536
 20
1026.910488203417
 30
0.0
 10
184.2344456817609
 20
1026.841254396795
 30
0.0
 10
184.2177853846651
 20
1026.777294904057
 30
0.0
 10
184.213620310391
 20
1026.761305030873
 30
0.0
 10
184.2095229146462
 20
1026.74567406499
 30
0.0
 10
184.2055112058324
 20
1026.730456480278
 30
0.0
 10
184.2014994970186
 20
1026.715238895565
 30
0.0
 10
184.197568874486
 20
1026.700417420237
 30
0.0
 10
184.1937219503006
 20
1026.685987914118
 30
0.0
 10
184.1860281019298
 20
1026.657128901879
 30
0.0
 10
184.1786690469462
 20
1026.629837766477
 30
0.0
 10
184.1716650566168
 20
1026.604094274236
 30
0.0
 10
184.1576570759571
 20
1026.552607289755
 30
0.0
 10
184.1450710811841
 20
1026.50730142657
 30
0.0
 10
184.1340683087519
 20
1026.468155338687
 30
0.0
 10
184.1230655363197
 20
1026.429009250803
 30
0.0
 10
184.1136459862273
 20
1026.396022938222
 30
0.0
 10
184.1059794137281
 20
1026.369363023797
 30
0.0
 10
184.1021461274786
 20
1026.356033066586
 30
0.0
 10
184.0987512497549
 20
1026.34428765517
 30
0.0
 10
184.0958174456045
 20
1026.334166741007
 30
0.0
 10
184.0928836414541
 20
1026.324045826844
 30
0.0
 10
184.0904274004242
 20
1026.315606126805
 30
0.0
 10
184.0884589297911
 20
1026.308853940202
 30
0.0
 10
184.0845219885259
 20
1026.295349566997
 30
0.0
 10
184.0825291158253
 20
1026.288559816359
 30
0.0
 10
184.0825247351467
 20
1026.288544857945
 30
0.0
 10
184.0825203544682
 20
1026.288529899531
 30
0.0
 10
184.0845041245465
 20
1026.295289152922
 30
0.0
 10
184.0883755313052
 20
1026.308567056843
 30
0.0
 10
184.0885613588298
 20
1026.309204396232
 30
0.0
 10
184.0887515347221
 20
1026.309856760014
 30
0.0
 10
184.0889460488915
 20
1026.310524141836
 30
0.0
  0
SPLINE
  5
27F
330
70
100
AcDbEntity
  8
Front$1
 62
    18
420
        0
370
    35
100
AcDbSpline
210
0.0
220
0.0
230
1.0
 70
     8
 71
     3
 72
   104
 73
   100
 74
     0
 42
0.0000000001
 43
0.0000000001
 40
0.0
 40
0.0
 40
0.0
 40
0.0
 40
1.0
 40
1.0
 40
1.0
 40
2.0
 40
2.0
 40
2.0
 40
3.0
 40
3.0
 40
3.0
 40
4.0
 40
4.0
 40
4.0
 40
5.0
 40
5.0
 40
5.0
 40
6.0
 40
6.0
 40
6.0
 40
7.0
 40
7.0
 40
7.0
 40
8.0
 40
8.0
 40
8.0
 40
9.0
 40
9.0
 40
9.0
 40
10.0
 40
10.0
 40
10.0
 40
11.0
 40
11.0
 40
11.0
 40
12.0
 40
12.0
 40
12.0
 40
13.0
 40
13.0
 40
13.0
 40
14.0
 40
14.0
 40
14.0
 40
15.0
 40
15.0
 40
15.0
 40
16.0
 40
16.0
 40
16.0
 40
17.0
 40
17.0
 40
17.0
 40
18.0
 40
18.0
 40
18.0
 40
19.0
 40
19.0
 40
19.0
 40
20.0
 40
20.0
 40
20.0
 40
21.0
 40
21.0
 40
21.0
 40
22.0
 40
22.0
 40
22.0
 40
23.0
 40
23.0
 40
23.0
 40
24.0
 40
24.0
 40
24.0
 40
25.0
 40
25.0
 40
25.0
 40
26.0
 40
26.0
 40
26.0
 40
27.0
 40
27.0
 40
27.0
 40
28.0
 40
28.0
 40
28.0
 40
29.0
 40
29.0
 40
29.0
 40
30.0
 40
30.0
 40
30.0
 40
31.0
 40
31.0
 40
31.0
 40
32.0
 40
32.0
 40
32.0
 40
33.0
 40
33.0
 40
33.0
 40
33.0
 10
492.2627477672449
 20
975.909077332558
 30
0.0
 10
492.2627465236173
 20
975.9090878421721
 30
0.0
 10
492.2614721515974
 20
975.9198033726315
 30
0.0
 10
492.2590449479521
 20
975.9407956129926
 30
0.0
 10
492.257831346129
 20
975.9512917331731
 30
0.0
 10
492.2563294629581
 20
975.9643751076964
 30
0.0
 10
492.2545544106014
 20
975.9801039697194
 30
0.0
 10
492.2536668844231
 20
975.9879684007319
 30
0.0
 10
492.2527089690547
 20
975.9965143631307
 30
0.0
 10
492.2516895747503
 20
976.0056941216571
 30
0.0
 10
492.250670180445
 20
976.0148738801836
 30
0.0
 10
492.2495934425287
 20
976.0246500800949
 30
0.0
 10
492.2484643729221
 20
976.0350105410006
 30
0.0
 10
492.2439480944976
 20
976.0764523846237
 30
0.0
 10
492.2385952123541
 20
976.1271583707712
 30
0.0
 10
492.2327125444444
 20
976.1870482732865
 30
0.0
 10
492.2312418774672
 20
976.2020207489149
 30
0.0
 10
492.2297380938762
 20
976.2175724424333
 30
0.0
 10
492.2282061035093
 20
976.2337127725123
 30
0.0
 10
492.2266741131425
 20
976.2498531025912
 30
0.0
 10
492.2251094822732
 20
976.2666311065569
 30
0.0
 10
492.2235345626868
 20
976.2838700887597
 30
0.0
 10
492.2203847235141
 20
976.3183480531642
 30
0.0
 10
492.2171962564443
 20
976.3546320212681
 30
0.0
 10
492.2140153585696
 20
976.3926690202689
 30
0.0
 10
492.2076535628185
 20
976.4687430182721
 30
0.0
 10
492.2013204544319
 20
976.5517784946286
 30
0.0
 10
492.1953804801669
 20
976.6419763407339
 30
0.0
 10
492.1938954866009
 20
976.6645258022599
 30
0.0
 10
492.1924317513839
 20
976.6875864308694
 30
0.0
 10
492.1910128043891
 20
976.7108738566912
 30
0.0
 10
492.1895938573944
 20
976.7341612825131
 30
0.0
 10
492.1882171683537
 20
976.7577095615243
 30
0.0
 10
492.1868869337068
 20
976.7815142809887
 30
0.0
 10
492.1842264644137
 20
976.8291237199155
 30
0.0
 10
492.1817521505491
 20
976.8777571392975
 30
0.0
 10
492.1794966475217
 20
976.9274021604488
 30
0.0
 10
492.1772411444944
 20
976.9770471816009
 30
0.0
 10
492.1752044523045
 20
977.0277038045232
 30
0.0
 10
492.1734196110455
 20
977.079388944705
 30
0.0
 10
492.172527190416
 20
977.1052315147953
 30
0.0
 10
492.171697743588
 20
977.1313316692694
 30
0.0
 10
492.1709355366592
 20
977.1576944137132
 30
0.0
 10
492.1701733297304
 20
977.1840571581561
 30
0.0
 10
492.1694777546445
 20
977.210726010654
 30
0.0
 10
492.1688599375829
 20
977.2373667867068
 30
0.0
 10
492.166388669335
 20
977.3439298909162
 30
0.0
 10
492.165127110381
 20
977.4510982924311
 30
0.0
 10
492.1651178835527
 20
977.5588575522379
 30
0.0
 10
492.165113270139
 20
977.6127371821422
 30
0.0
 10
492.1654216712859
 20
977.6667655722867
 30
0.0
 10
492.1660483320611
 20
977.720947390757
 30
0.0
 10
492.1663616624482
 20
977.748038299992
 30
0.0
 10
492.1667549599215
 20
977.7751534611489
 30
0.0
 10
492.1672218986969
 20
977.8020030018087
 30
0.0
 10
492.1676888374713
 20
977.8288525424695
 30
0.0
 10
492.1682301811361
 20
977.8555131294051
 30
0.0
 10
492.1688427370336
 20
977.8819879309393
 30
0.0
 10
492.1712929606256
 20
977.9878871370748
 30
0.0
 10
492.1748825690293
 20
978.0908400936324
 30
0.0
 10
492.1794122163665
 20
978.1908339988303
 30
0.0
 10
492.1805446282014
 20
978.2158324751307
 30
0.0
 10
492.1817357695972
 20
978.2406443591526
 30
0.0
 10
492.1829824017541
 20
978.2652660228286
 30
0.0
 10
492.1842290339109
 20
978.2898876865056
 30
0.0
 10
492.1855256959706
 20
978.3142071169505
 30
0.0
 10
492.1868597015345
 20
978.3380940120041
 30
0.0
 10
492.1895277126614
 20
978.3858678021132
 30
0.0
 10
492.1923532322816
 20
978.4320869586199
 30
0.0
 10
492.1952928047949
 20
978.4767886292593
 30
0.0
 10
492.198232377309
 20
978.5214902998996
 30
0.0
 10
492.2012860027153
 20
978.5646744846726
 30
0.0
 10
492.2044106139455
 20
978.6063341230692
 30
0.0
 10
492.2075352251758
 20
978.6479937614668
 30
0.0
 10
492.2107326087316
 20
978.6881487786304
 30
0.0
 10
492.2139533849758
 20
978.7266869424975
 30
0.0
 10
492.2203949374643
 20
978.8037632702307
 30
0.0
 10
492.2267238101539
 20
978.8720263298101
 30
0.0
 10
492.2325932857329
 20
978.9318343261193
 30
0.0
 10
492.2355280235223
 20
978.961738324274
 30
0.0
 10
492.2383483986713
 20
978.9895126881974
 30
0.0
 10
492.2410111039871
 20
979.0151074006061
 30
0.0
 10
492.242342456645
 20
979.0279047568102
 30
0.0
 10
492.2436367767859
 20
979.0401787370537
 30
0.0
 10
492.2448805022449
 20
979.0518426289226
 30
0.0
 10
492.246124227705
 20
979.0635065207917
 30
0.0
 10
492.2473125339747
 20
979.0745159620474
 30
0.0
 10
492.2484422775296
 20
979.0848839692971
 30
0.0
 10
492.2529612517482
 20
979.1263559982963
 30
0.0
 10
492.2565429619726
 20
979.1576568420678
 30
0.0
 10
492.2589935318237
 20
979.1788569155542
 30
0.0
 10
492.2596061742861
 20
979.1841569339258
 30
0.0
 10
492.2601481121737
 20
979.1888199466283
 30
0.0
 10
492.2606162198071
 20
979.1928353786051
 30
0.0
 10
492.2610843274405
 20
979.1968508105828
 30
0.0
 10
492.2614791210826
 20
979.2002230661401
 30
0.0
 10
492.2617954489497
 20
979.2029201002897
 30
0.0
 10
492.2624281046828
 20
979.2083141685889
 30
0.0
 10
492.2627480213368
 20
979.2110220634803
 30
0.0
 10
492.2627475161853
 20
979.2110177986868
 30
0.0
  0
SPLINE
  5
280
330
70
100
AcDbEntity
  8
Front$1
 62
    18
420
        0
370
    35
100
AcDbSpline
210
0.0
220
0.0
230
1.0
 70
     8
 71
     3
 72
   104
 73
   100
 74
     0
 42
0.0000000001
 43
0.0000000001
 40
0.0
 40
0.0
 40
0.0
 40
0.0
 40
1.0
 40
1.0
 40
1.0
 40
2.0
 40
2.0
 40
2.0
 40
3.0
 40
3.0
 40
3.0
 40
4.0
 40
4.0
 40
4.0
 40
5.0
 40
5.0
 40
5.0
 40
6.0
 40
6.0
 40
6.0
 40
7.0
 40
7.0
 40
7.0
 40
8.0
 40
8.0
 40
8.0
 40
9.0
 40
9.0
 40
9.0
 40
10.0
 40
10.0
 40
10.0
 40
11.0
 40
11.0
 40
11.0
 40
12.0
 40
12.0
 40
12.0
 40
13.0
 40
13.0
 40
13.0
 40
14.0
 40
14.0
 40
14.0
 40
15.0
 40
15.0
 40
15.0
 40
16.0
 40
16.0
 40
16.0
 40
17.0
 40
17.0
 40
17.0
 40
18.0
 40
18.0
 40
18.0
 40
19.0
 40
19.0
 40
19.0
 40
20.0
 40
20.0
 40
20.0
 40
21.0
 40
21.0
 40
21.0
 40
22.0
 40
22.0
 40
22.0
 40
23.0
 40
23.0
 40
23.0
 40
24.0
 40
24.0
 40
24.0
 40
25.0
 40
25.0
 40
25.0
 40
26.0
 40
26.0
 40
26.0
 40
27.0
 40
27.0
 40
27.0
 40
28.0
 40
28.0
 40
28.0
 40
29.0
 40
29.0
 40
29.0
 40
30.0
 40
30.0
 40
30.0
 40
31.0
 40
31.0
 40
31.0
 40
32.0
 40
32.0
 40
32.0
 40
33.0
 40
33.0
 40
33.0
 40
33.0
 10
772.4265862692918
 20
919.6761926046475
 30
0.0
 10
772.4265850256651
 20
919.6762031142608
 30
0.0
 10
772.4253106536452
 20
919.6869186447202
 30
0.0
 10
772.4228834500008
 20
919.7079108850813
 30
0.0
 10
772.4216698481777
 20
919.7184070052626
 30
0.0
 10
772.420167965005
 20
919.7314903797851
 30
0.0
 10
772.4183929126484
 20
919.747219241808
 30
0.0
 10
772.417505386471
 20
919.7550836728206
 30
0.0
 10
772.4165474711026
 20
919.7636296352193
 30
0.0
 10
772.415528076799
 20
919.7728093937458
 30
0.0
 10
772.4145086824937
 20
919.7819891522723
 30
0.0
 10
772.4134319445766
 20
919.7917653521836
 30
0.0
 10
772.4123028749709
 20
919.8021258130902
 30
0.0
 10
772.4077865965464
 20
919.8435676567132
 30
0.0
 10
772.4024337144019
 20
919.8942736428598
 30
0.0
 10
772.3965510464932
 20
919.9541635453751
 30
0.0
 10
772.3950803795141
 20
919.9691360210035
 30
0.0
 10
772.3935765959249
 20
919.9846877145228
 30
0.0
 10
772.3920446055581
 20
920.0008280446018
 30
0.0
 10
772.3905126151913
 20
920.0169683746807
 30
0.0
 10
772.3889479843219
 20
920.0337463786453
 30
0.0
 10
772.3873730647356
 20
920.0509853608492
 30
0.0
 10
772.384223225561
 20
920.0854633252529
 30
0.0
 10
772.381034758493
 20
920.1217472933567
 30
0.0
 10
772.3778538606166
 20
920.1597842923584
 30
0.0
 10
772.3714920648672
 20
920.2358582903617
 30
0.0
 10
772.3651589564797
 20
920.3188937667182
 30
0.0
 10
772.3592189822157
 20
920.4090916128224
 30
0.0
 10
772.3577339886487
 20
920.4316410743485
 30
0.0
 10
772.3562702534327
 20
920.4547017029581
 30
0.0
 10
772.3548513064379
 20
920.4779891287799
 30
0.0
 10
772.3534323594431
 20
920.5012765546015
 30
0.0
 10
772.3520556704024
 20
920.5248248336138
 30
0.0
 10
772.3507254357555
 20
920.5486295530773
 30
0.0
 10
772.3480649664616
 20
920.5962389920042
 30
0.0
 10
772.3455906525978
 20
920.6448724113871
 30
0.0
 10
772.3433351495696
 20
920.6945174325374
 30
0.0
 10
772.3410796465432
 20
920.7441624536896
 30
0.0
 10
772.3390429543524
 20
920.7948190766128
 30
0.0
 10
772.3372581130933
 20
920.8465042167937
 30
0.0
 10
772.3363656924647
 20
920.8723467868839
 30
0.0
 10
772.3355362456368
 20
920.8984469413589
 30
0.0
 10
772.3347740387071
 20
920.9248096858027
 30
0.0
 10
772.3340118317792
 20
920.9511724302446
 30
0.0
 10
772.3333162566923
 20
920.9778412827436
 30
0.0
 10
772.3326984396298
 20
921.0044820587954
 30
0.0
 10
772.3302271713819
 20
921.1110451630046
 30
0.0
 10
772.3289656124288
 20
921.2182135645198
 30
0.0
 10
772.3289563856014
 20
921.3259728243265
 30
0.0
 10
772.3289517721878
 20
921.3798524542308
 30
0.0
 10
772.3292601733337
 20
921.4338808443754
 30
0.0
 10
772.3298868341098
 20
921.4880626628454
 30
0.0
 10
772.3302001644969
 20
921.5151535720815
 30
0.0
 10
772.3305934619693
 20
921.5422687332376
 30
0.0
 10
772.3310604007438
 20
921.5691182738973
 30
0.0
 10
772.3315273395201
 20
921.5959678145591
 30
0.0
 10
772.3320686831848
 20
921.6226284014938
 30
0.0
 10
772.3326812390824
 20
921.649103203028
 30
0.0
 10
772.3351314626743
 20
921.7550024091634
 30
0.0
 10
772.3387210710771
 20
921.8579553657219
 30
0.0
 10
772.3432507184152
 20
921.9579492709199
 30
0.0
 10
772.3443831302484
 20
921.9829477472194
 30
0.0
 10
772.3455742716451
 20
922.0077596312403
 30
0.0
 10
772.3468209038019
 20
922.0323812949173
 30
0.0
 10
772.3480675359588
 20
922.0570029585942
 30
0.0
 10
772.3493641980184
 20
922.0813223890401
 30
0.0
 10
772.3506982035814
 20
922.1052092840928
 30
0.0
 10
772.3533662147092
 20
922.1529830742019
 30
0.0
 10
772.3561917343304
 20
922.1992022307095
 30
0.0
 10
772.3591313068427
 20
922.243903901348
 30
0.0
 10
772.3620708793569
 20
922.2886055719882
 30
0.0
 10
772.365124504764
 20
922.3317897567612
 30
0.0
 10
772.3682491159925
 20
922.3734493951578
 30
0.0
 10
772.3713737272228
 20
922.4151090335563
 30
0.0
 10
772.3745711107803
 20
922.4552640507191
 30
0.0
 10
772.3777918870236
 20
922.493802214587
 30
0.0
 10
772.3842334395121
 20
922.5708785423194
 30
0.0
 10
772.3905623122009
 20
922.6391416018996
 30
0.0
 10
772.3964317877817
 20
922.6989495982088
 30
0.0
 10
772.3993665255711
 20
922.7288535963635
 30
0.0
 10
772.4021869007192
 20
922.756627960287
 30
0.0
 10
772.4048496060349
 20
922.7822226726948
 30
0.0
 10
772.4061809586928
 20
922.7950200288997
 30
0.0
 10
772.4074752788347
 20
922.8072940091424
 30
0.0
 10
772.4087190042937
 20
922.8189579010104
 30
0.0
 10
772.4099627297528
 20
922.8306217928802
 30
0.0
 10
772.4111510360216
 20
922.841631234136
 30
0.0
 10
772.4122807795774
 20
922.8519992413858
 30
0.0
 10
772.416799753797
 20
922.8934712703848
 30
0.0
 10
772.4203814640205
 20
922.9247721141565
 30
0.0
 10
772.4228320338716
 20
922.9459721876429
 30
0.0
 10
772.4234446763348
 20
922.9512722060135
 30
0.0
 10
772.4239866142215
 20
922.955935218717
 30
0.0
 10
772.424454721855
 20
922.9599506506946
 30
0.0
 10
772.4249228294884
 20
922.9639660826723
 30
0.0
 10
772.4253176231305
 20
922.9673383382287
 30
0.0
 10
772.4256339509975
 20
922.9700353723783
 30
0.0
 10
772.4262666067316
 20
922.9754294406776
 30
0.0
 10
772.4265865233847
 20
922.978137335569
 30
0.0
 10
772.4265860182331
 20
922.9781330707755
 30
0.0
  0
SPLINE
  5
281
330
70
100
AcDbEntity
  8
Front$1
 62
    18
420
        0
370
    35
100
AcDbSpline
210
0.0
220
0.0
230
1.0
 70
     8
 71
     3
 72
    29
 73
    25
 74
     0
 42
0.0000000001
 43
0.0000000001
 40
0.0
 40
0.0
 40
0.0
 40
0.0
 40
1.0
 40
1.0
 40
1.0
 40
2.0
 40
2.0
 40
2.0
 40
3.0
 40
3.0
 40
3.0
 40
4.0
 40
4.0
 40
4.0
 40
5.0
 40
5.0
 40
5.0
 40
6.0
 40
6.0
 40
6.0
 40
7.0
 40
7.0
 40
7.0
 40
8.0
 40
8.0
 40
8.0
 40
8.0
 10
492.2618506023955
 20
979.5612189116445
 30
0.0
 10
492.2618732462888
 20
979.5612129948139
 30
0.0
 10
492.2601318988645
 20
979.5510437715348
 30
0.0
 10
492.2570168131196
 20
979.5308681343604
 30
0.0
 10
492.2538987924045
 20
979.5106734881082
 30
0.0
 10
492.2494044435325
 20
979.4804535633957
 30
0.0
 10
492.2439324725647
 20
979.4406964669887
 30
0.0
 10
492.2384547229675
 20
979.4008973854388
 30
0.0
 10
492.2319972853656
 20
979.3515409782594
 30
0.0
 10
492.2249539349368
 20
979.2933918232993
 30
0.0
 10
492.2179047532117
 20
979.2351945257669
 30
0.0
 10
492.2102686880862
 20
979.1681899151281
 30
0.0
 10
492.2024375544469
 20
979.0933938369271
 30
0.0
 10
492.194603316916
 20
979.0185681131006
 30
0.0
 10
492.1865738562082
 20
978.9359447441501
 30
0.0
 10
492.1787396853024
 20
978.8467598756424
 30
0.0
 10
492.170906316086
 20
978.7575841336346
 30
0.0
 10
492.1632681967039
 20
978.6618482349076
 30
0.0
 10
492.1562166817129
 20
978.5609802327499
 30
0.0
 10
492.1491689260519
 20
978.4601660057123
 30
0.0
 10
492.1427071494836
 20
978.3542251458767
 30
0.0
 10
492.1372248978878
 20
978.244748251188
 30
0.0
 10
492.1352042790531
 20
978.2043978456249
 30
0.0
 10
492.1333167259981
 20
978.1635670794329
 30
0.0
 10
492.1315821081607
 20
978.1223421302412
 30
0.0
  0
SPLINE
  5
282
330
70
100
AcDbEntity
  8
Front$1
 62
    18
420
        0
370
    35
100
AcDbSpline
210
0.0
220
0.0
230
1.0
 70
     8
 71
     3
 72
    11
 73
     7
 74
     0
 42
0.0000000001
 43
0.0000000001
 40
0.0
 40
0.0
 40
0.0
 40
0.0
 40
1.0
 40
1.0
 40
1.0
 40
2.0
 40
2.0
 40
2.0
 40
2.0
 10
197.8862109258289
 20
977.2386437350315
 30
0.0
 10
197.912742150007
 20
977.2385184012492
 30
0.0
 10
197.9392747699039
 20
977.2384174508397
 30
0.0
 10
197.9658087854659
 20
977.2383408915038
 30
0.0
 10
197.9923428010279
 20
977.238264332168
 30
0.0
 10
198.018878212255
 20
977.2382121639047
 30
0.0
 10
198.0454150191853
 20
977.238184394414
 30
0.0
  0
SPLINE
  5
283
330
70
100
AcDbEntity
  8
Front$1
 62
    18
420
        0
370
    35
100
AcDbSpline
210
0.0
220
0.0
230
1.0
 70
     8
 71
     3
 72
    11
 73
     7
 74
     0
 42
0.0000000001
 43
0.0000000001
 40
0.0
 40
0.0
 40
0.0
 40
0.0
 40
1.0
 40
1.0
 40
1.0
 40
2.0
 40
2.0
 40
2.0
 40
2.0
 10
199.0460001566925
 20
977.2487006752472
 30
0.0
 10
199.070230339682
 20
977.2492353557591
 30
0.0
 10
199.0944587815475
 20
977.2497903406211
 30
0.0
 10
199.118685475566
 20
977.2503656208938
 30
0.0
 10
199.1429121695837
 20
977.2509409011654
 30
0.0
 10
199.1671371157554
 20
977.2515364768478
 30
0.0
 10
199.1913603042712
 20
977.2521523388714
 30
0.0
  0
SPLINE
  5
284
330
70
100
AcDbEntity
  8
Front$1
 62
    18
420
        0
370
    35
100
AcDbSpline
210
0.0
220
0.0
230
1.0
 70
     8
 71
     3
 72
   140
 73
   136
 74
     0
 42
0.0000000001
 43
0.0000000001
 40
0.0
 40
0.0
 40
0.0
 40
0.0
 40
1.0
 40
1.0
 40
1.0
 40
2.0
 40
2.0
 40
2.0
 40
3.0
 40
3.0
 40
3.0
 40
4.0
 40
4.0
 40
4.0
 40
5.0
 40
5.0
 40
5.0
 40
6.0
 40
6.0
 40
6.0
 40
7.0
 40
7.0
 40
7.0
 40
8.0
 40
8.0
 40
8.0
 40
9.0
 40
9.0
 40
9.0
 40
10.0
 40
10.0
 40
10.0
 40
11.0
 40
11.0
 40
11.0
 40
12.0
 40
12.0
 40
12.0
 40
13.0
 40
13.0
 40
13.0
 40
14.0
 40
14.0
 40
14.0
 40
15.0
 40
15.0
 40
15.0
 40
16.0
 40
16.0
 40
16.0
 40
17.0
 40
17.0
 40
17.0
 40
18.0
 40
18.0
 40
18.0
 40
19.0
 40
19.0
 40
19.0
 40
20.0
 40
20.0
 40
20.0
 40
21.0
 40
21.0
 40
21.0
 40
22.0
 40
22.0
 40
22.0
 40
23.0
 40
23.0
 40
23.0
 40
24.0
 40
24.0
 40
24.0
 40
25.0
 40
25.0
 40
25.0
 40
26.0
 40
26.0
 40
26.0
 40
27.0
 40
27.0
 40
27.0
 40
28.0
 40
28.0
 40
28.0
 40
29.0
 40
29.0
 40
29.0
 40
30.0
 40
30.0
 40
30.0
 40
31.0
 40
31.0
 40
31.0
 40
32.0
 40
32.0
 40
32.0
 40
33.0
 40
33.0
 40
33.0
 40
34.0
 40
34.0
 40
34.0
 40
35.0
 40
35.0
 40
35.0
 40
36.0
 40
36.0
 40
36.0
 40
37.0
 40
37.0
 40
37.0
 40
38.0
 40
38.0
 40
38.0
 40
39.0
 40
39.0
 40
39.0
 40
40.0
 40
40.0
 40
40.0
 40
41.0
 40
41.0
 40
41.0
 40
42.0
 40
42.0
 40
42.0
 40
43.0
 40
43.0
 40
43.0
 40
44.0
 40
44.0
 40
44.0
 40
45.0
 40
45.0
 40
45.0
 40
45.0
 10
722.8475933338468
 20
900.3148762083547
 30
0.0
 10
722.8475869146477
 20
900.3148752627076
 30
0.0
 10
722.843903095887
 20
900.3142816896669
 30
0.0
 10
722.8366618102809
 20
900.313123406895
 30
0.0
 10
722.8294205246747
 20
900.3119651241231
 30
0.0
 10
722.8186217722213
 20
900.3102421316198
 30
0.0
 10
722.804291973287
 20
900.3079823102652
 30
0.0
 10
722.7899621743526
 20
900.3057224889108
 30
0.0
 10
722.7721013289374
 20
900.3029258387069
 30
0.0
 10
722.7506308745141
 20
900.2996202429931
 30
0.0
 10
722.7452632609074
 20
900.2987938440638
 30
0.0
 10
722.7396695230854
 20
900.2979356399137
 30
0.0
 10
722.7338473537729
 20
900.2970460771212
 30
0.0
 10
722.7280251844604
 20
900.2961565143268
 30
0.0
 10
722.721965580522
 20
900.2952342331354
 30
0.0
 10
722.7157036892386
 20
900.2942854193371
 30
0.0
 10
722.7031799066753
 20
900.2923877917382
 30
0.0
 10
722.6898434485319
 20
900.2903834054013
 30
0.0
 10
722.6757109483223
 20
900.2882814526637
 30
0.0
 10
722.6474459479032
 20
900.2840775471886
 30
0.0
 10
722.6160029281218
 20
900.2794842238708
 30
0.0
 10
722.5814410717794
 20
900.2745721707142
 30
0.0
 10
722.5468792154388
 20
900.2696601175575
 30
0.0
 10
722.509198522539
 20
900.2644293345619
 30
0.0
 10
722.4683662148109
 20
900.2589505267861
 30
0.0
 10
722.4479500609486
 20
900.256211122898
 30
0.0
 10
722.4267445825062
 20
900.25340972507
 30
0.0
 10
722.4047367575167
 20
900.2505554029903
 30
0.0
 10
722.3827289325272
 20
900.2477010809107
 30
0.0
 10
722.3598526335244
 20
900.2447857000879
 30
0.0
 10
722.3363688774497
 20
900.2418531880248
 30
0.0
 10
722.2894013653004
 20
900.2359881638986
 30
0.0
 10
722.2399727638785
 20
900.2300492084087
 30
0.0
 10
722.1881496779515
 20
900.2241216938037
 30
0.0
 10
722.1363265920262
 20
900.2181941791969
 30
0.0
 10
722.0821090215959
 20
900.2122781054787
 30
0.0
 10
722.0254939600217
 20
900.2064567661419
 30
0.0
 10
721.9688788984476
 20
900.2006354268051
 30
0.0
 10
721.909866345728
 20
900.1949088218498
 30
0.0
 10
721.848380634241
 20
900.1893633088876
 30
0.0
 10
721.8176377784966
 20
900.1865905524065
 30
0.0
 10
721.7862080682516
 20
900.1838579791384
 30
0.0
 10
721.7544842148927
 20
900.1812097556522
 30
0.0
 10
721.7227603615338
 20
900.178561532166
 30
0.0
 10
721.6906774470771
 20
900.1759913793794
 30
0.0
 10
721.6582410669234
 20
900.1735072332449
 30
0.0
 10
721.5933683066141
 20
900.1685389409757
 30
0.0
 10
721.5270840679258
 20
900.1639152876904
 30
0.0
 10
721.4594016621158
 20
900.1596982662377
 30
0.0
 10
721.3917192563058
 20
900.1554812447865
 30
0.0
 10
721.3226386833776
 20
900.1516708551699
 30
0.0
 10
721.2521327166869
 20
900.1483300783585
 30
0.0
 10
721.2168797333415
 20
900.1466596899517
 30
0.0
 10
721.18126977073
 20
900.1451067295766
 30
0.0
 10
721.145295401875
 20
900.1436793498905
 30
0.0
 10
721.1093210330218
 20
900.1422519702064
 30
0.0
 10
721.0729431371601
 20
900.1409498159992
 30
0.0
 10
721.0366091213745
 20
900.1397932264717
 30
0.0
 10
720.9639410898053
 20
900.1374800474186
 30
0.0
 10
720.8910531059919
 20
900.1357319699382
 30
0.0
 10
720.8179504466024
 20
900.1345600597705
 30
0.0
 10
720.7448477872149
 20
900.1333881496048
 30
0.0
 10
720.6715304522476
 20
900.1327924067519
 30
0.0
 10
720.5979977909865
 20
900.1327832467122
 30
0.0
 10
720.5244651297235
 20
900.132774086671
 30
0.0
 10
720.4507171421646
 20
900.1333515094412
 30
0.0
 10
720.3767468796359
 20
900.1345258493692
 30
0.0
 10
720.3582543140036
 20
900.1348194343499
 30
0.0
 10
720.3397285886749
 20
900.1351507914533
 30
0.0
 10
720.3212883202813
 20
900.1355174758227
 30
0.0
 10
720.3028480518878
 20
900.1358841601904
 30
0.0
 10
720.2844728296058
 20
900.136286423536
 30
0.0
 10
720.2661618485326
 20
900.1367234941699
 30
0.0
 10
720.2295398863862
 20
900.1375976354374
 30
0.0
 10
720.1931748890638
 20
900.1386110058556
 30
0.0
 10
720.1570625124349
 20
900.1397576073941
 30
0.0
 10
720.0848377591792
 20
900.1420508104693
 30
0.0
 10
720.013621744205
 20
900.1448768369192
 30
0.0
 10
719.9434018206338
 20
900.1481889922615
 30
0.0
 10
719.8731818970627
 20
900.151501147604
 30
0.0
 10
719.8039580648947
 20
900.1552994318371
 30
0.0
 10
719.7357462855125
 20
900.1595366981856
 30
0.0
 10
719.7016403958222
 20
900.1616553313597
 30
0.0
 10
719.6677879657145
 20
900.1638836925231
 30
0.0
 10
719.6341938444366
 20
900.166215682335
 30
0.0
 10
719.6005997231586
 20
900.1685476721467
 30
0.0
 10
719.5675169922396
 20
900.1709657591927
 30
0.0
 10
719.5349761118814
 20
900.1734562894053
 30
0.0
 10
719.4698943511648
 20
900.1784373498285
 30
0.0
 10
719.4069195119682
 20
900.1837117869982
 30
0.0
 10
719.3460008012152
 20
900.1891982622073
 30
0.0
 10
719.2850820904641
 20
900.1946847374165
 30
0.0
 10
719.2262195081566
 20
900.2003832506652
 30
0.0
 10
719.1694228353354
 20
900.2062136984532
 30
0.0
 10
719.1410244989238
 20
900.2091289223498
 30
0.0
 10
719.113143485265
 20
900.212077133594
 30
0.0
 10
719.085787011787
 20
900.2150481286498
 30
0.0
 10
719.072108775048
 20
900.2165336261768
 30
0.0
 10
719.0585616733551
 20
900.2180248196564
 30
0.0
 10
719.0451469951113
 20
900.2195204089675
 30
0.0
 10
719.0317323168674
 20
900.2210159982769
 30
0.0
 10
719.0184319784694
 20
900.2225180672867
 30
0.0
 10
719.0053194102456
 20
900.2240170268814
 30
0.0
 10
718.9528691373489
 20
900.2300128652622
 30
0.0
 10
718.9034154919355
 20
900.2359572685854
 30
0.0
 10
718.8568591482763
 20
900.2417686087573
 30
0.0
 10
718.8103028046189
 20
900.2475799489292
 30
0.0
 10
718.7666437627158
 20
900.2532582259537
 30
0.0
 10
718.7258697189063
 20
900.2587244574296
 30
0.0
 10
718.685095675095
 20
900.2641906889056
 30
0.0
 10
718.6472066293791
 20
900.2694448748334
 30
0.0
 10
718.6122765184754
 20
900.2744064069647
 30
0.0
 10
718.60354399075
 20
900.2756467899962
 30
0.0
 10
718.5949968368823
 20
900.2768688637353
 30
0.0
 10
718.5866371247048
 20
900.2780713211432
 30
0.0
 10
718.5782774125291
 20
900.2792737785494
 30
0.0
 10
718.5700990345103
 20
900.2804575257195
 30
0.0
 10
718.5621532249934
 20
900.2816140787617
 30
0.0
 10
718.5462616059612
 20
900.2839271848497
 30
0.0
 10
718.5312569976595
 20
900.2861376135006
 30
0.0
 10
718.5171228074905
 20
900.2882395181242
 30
0.0
 10
718.4888544271525
 20
900.2924433273747
 30
0.0
 10
718.4640613418687
 20
900.2962125329995
 30
0.0
 10
718.4426900842809
 20
900.2995017081374
 30
0.0
 10
718.421318826693
 20
900.3027908832736
 30
0.0
 10
718.4033693967994
 20
900.3056000279229
 30
0.0
 10
718.3888883337113
 20
900.3078830689901
 30
0.0
 10
718.3816478021654
 20
900.3090245895219
 30
0.0
 10
718.375275911796
 20
900.3100345663696
 30
0.0
 10
718.3697882688083
 20
900.310907029403
 30
0.0
 10
718.3643006258225
 20
900.3117794924364
 30
0.0
 10
718.3596916377773
 20
900.3125153366582
 30
0.0
 10
718.3560099682636
 20
900.3131042035565
 30
0.0
 10
718.3486466292361
 20
900.3142819373534
 30
0.0
 10
718.3449635569013
 20
900.3148752708694
 30
0.0
 10
718.3449557588974
 20
900.3148765269706
 30
0.0
  0
SPLINE
  5
285
330
70
100
AcDbEntity
  8
Front$1
 62
    18
420
        0
370
    35
100
AcDbSpline
210
0.0
220
0.0
230
1.0
 70
     8
 71
     3
 72
   191
 73
   187
 74
     0
 42
0.0000000001
 43
0.0000000001
 40
0.0
 40
0.0
 40
0.0
 40
0.0
 40
1.0
 40
1.0
 40
1.0
 40
2.0
 40
2.0
 40
2.0
 40
3.0
 40
3.0
 40
3.0
 40
4.0
 40
4.0
 40
4.0
 40
5.0
 40
5.0
 40
5.0
 40
6.0
 40
6.0
 40
6.0
 40
7.0
 40
7.0
 40
7.0
 40
8.0
 40
8.0
 40
8.0
 40
9.0
 40
9.0
 40
9.0
 40
10.0
 40
10.0
 40
10.0
 40
11.0
 40
11.0
 40
11.0
 40
12.0
 40
12.0
 40
12.0
 40
13.0
 40
13.0
 40
13.0
 40
14.0
 40
14.0
 40
14.0
 40
15.0
 40
15.0
 40
15.0
 40
16.0
 40
16.0
 40
16.0
 40
17.0
 40
17.0
 40
17.0
 40
18.0
 40
18.0
 40
18.0
 40
19.0
 40
19.0
 40
19.0
 40
20.0
 40
20.0
 40
20.0
 40
21.0
 40
21.0
 40
21.0
 40
22.0
 40
22.0
 40
22.0
 40
23.0
 40
23.0
 40
23.0
 40
24.0
 40
24.0
 40
24.0
 40
25.0
 40
25.0
 40
25.0
 40
26.0
 40
26.0
 40
26.0
 40
27.0
 40
27.0
 40
27.0
 40
28.0
 40
28.0
 40
28.0
 40
29.0
 40
29.0
 40
29.0
 40
30.0
 40
30.0
 40
30.0
 40
31.0
 40
31.0
 40
31.0
 40
32.0
 40
32.0
 40
32.0
 40
33.0
 40
33.0
 40
33.0
 40
34.0
 40
34.0
 40
34.0
 40
35.0
 40
35.0
 40
35.0
 40
36.0
 40
36.0
 40
36.0
 40
37.0
 40
37.0
 40
37.0
 40
38.0
 40
38.0
 40
38.0
 40
39.0
 40
39.0
 40
39.0
 40
40.0
 40
40.0
 40
40.0
 40
41.0
 40
41.0
 40
41.0
 40
42.0
 40
42.0
 40
42.0
 40
43.0
 40
43.0
 40
43.0
 40
44.0
 40
44.0
 40
44.0
 40
45.0
 40
45.0
 40
45.0
 40
46.0
 40
46.0
 40
46.0
 40
47.0
 40
47.0
 40
47.0
 40
48.0
 40
48.0
 40
48.0
 40
49.0
 40
49.0
 40
49.0
 40
50.0
 40
50.0
 40
50.0
 40
51.0
 40
51.0
 40
51.0
 40
52.0
 40
52.0
 40
52.0
 40
53.0
 40
53.0
 40
53.0
 40
54.0
 40
54.0
 40
54.0
 40
55.0
 40
55.0
 40
55.0
 40
56.0
 40
56.0
 40
56.0
 40
57.0
 40
57.0
 40
57.0
 40
58.0
 40
58.0
 40
58.0
 40
59.0
 40
59.0
 40
59.0
 40
60.0
 40
60.0
 40
60.0
 40
61.0
 40
61.0
 40
61.0
 40
62.0
 40
62.0
 40
62.0
 40
62.0
 10
464.2463603243186
 20
982.5629706297076
 30
0.0
 10
464.2463663230592
 20
982.5629782569777
 30
0.0
 10
464.2621520952989
 20
982.5830495281516
 30
0.0
 10
464.2927793477556
 20
982.6221103755187
 30
0.0
 10
464.3234066002133
 20
982.661171222886
 30
0.0
 10
464.3688785489693
 20
982.7192253529711
 30
0.0
 10
464.4285894796866
 20
982.7958538312087
 30
0.0
 10
464.4584449450449
 20
982.8341680703269
 30
0.0
 10
464.4918649400124
 20
982.877135603052
 30
0.0
 10
464.5287997926325
 20
982.9247612904174
 30
0.0
 10
464.5472672189425
 20
982.9485741340995
 30
0.0
 10
464.5666136099207
 20
982.9735521057701
 30
0.0
 10
464.5868341934547
 20
982.9996993941723
 30
0.0
 10
464.5969444852217
 20
983.0127730383738
 30
0.0
 10
464.6072765126636
 20
983.0261431792742
 30
0.0
 10
464.6177901042246
 20
983.0397591451346
 30
0.0
 10
464.6283036957847
 20
983.0533751109951
 30
0.0
 10
464.6390071216783
 20
983.0672475883202
 30
0.0
 10
464.6498970283174
 20
983.0813735351103
 30
0.0
 10
464.7370162814322
 20
983.1943811094342
 30
0.0
 10
464.8360376307973
 20
983.3235516275163
 30
0.0
 10
464.9454865741309
 20
983.4677520528211
 30
0.0
 10
465.0549355174635
 20
983.6119524781262
 30
0.0
 10
465.174823448383
 20
983.7711913964376
 30
0.0
 10
465.3039641819814
 20
983.944962268286
 30
0.0
 10
465.3685345487811
 20
984.0318477042092
 30
0.0
 10
465.4354215545118
 20
984.1223750569989
 30
0.0
 10
465.5044917549312
 20
984.2165331831965
 30
0.0
 10
465.5217593050356
 20
984.2400727147451
 30
0.0
 10
465.5391749191612
 20
984.2638552096495
 30
0.0
 10
465.5566866755807
 20
984.2878124952331
 30
0.0
 10
465.5741984319993
 20
984.3117697808166
 30
0.0
 10
465.5918091421226
 20
984.3359056589942
 30
0.0
 10
465.6095157117215
 20
984.360218352138
 30
0.0
 10
465.6449288509192
 20
984.408843738427
 30
0.0
 10
465.6807254280229
 20
984.4581763845853
 30
0.0
 10
465.7168817206984
 20
984.5082045792079
 30
0.0
 10
465.8615068913995
 20
984.7083173576947
 30
0.0
 10
466.0118776214985
 20
984.9195174024089
 30
0.0
 10
466.1665798835665
 20
985.1414009969793
 30
0.0
 10
466.3212821456345
 20
985.3632845915498
 30
0.0
 10
466.4803273433581
 20
985.5958531183869
 30
0.0
 10
466.6423295859085
 20
985.8392112038892
 30
0.0
 10
466.8043318284589
 20
986.0825692893923
 30
0.0
 10
466.9693035376231
 20
986.3367112104105
 30
0.0
 10
467.13571155318
 20
986.6022818198526
 30
0.0
 10
467.1773135570693
 20
986.6686744722128
 30
0.0
 10
467.2190040717114
 20
986.7357843541377
 30
0.0
 10
467.2607561509494
 20
986.8036277898436
 30
0.0
 10
467.2816321905684
 20
986.8375495076961
 30
0.0
 10
467.3025337219514
 20
986.8716713903667
 30
0.0
 10
467.3234032638265
 20
986.9059066941963
 30
0.0
 10
467.3442728057016
 20
986.9401419980258
 30
0.0
 10
467.3651178725413
 20
986.9745034013931
 30
0.0
 10
467.3859351491519
 20
987.0089912977382
 30
0.0
 10
467.4692042555961
 20
987.1469428831197
 30
0.0
 10
467.5520287183817
 20
987.2869183561387
 30
0.0
 10
467.6341674497717
 20
987.4289842468742
 30
0.0
 10
467.7984449125524
 20
987.7131160283443
 30
0.0
 10
467.9600141214686
 20
988.0055740143607
 30
0.0
 10
468.1166144078606
 20
988.3072775916925
 30
0.0
 10
468.2732146942526
 20
988.6089811690252
 30
0.0
 10
468.4248681654225
 20
988.9199160426214
 30
0.0
 10
468.5686251075503
 20
989.241658004129
 30
0.0
 10
468.6405035786138
 20
989.4025289848832
 30
0.0
 10
468.7103952395546
 20
989.5661131627711
 30
0.0
 10
468.7778356337857
 20
989.7326913291635
 30
0.0
 10
468.8452760280179
 20
989.8992694955568
 30
0.0
 10
468.9102664771207
 20
990.0688405125428
 30
0.0
 10
468.9722567813678
 20
990.2417589929964
 30
0.0
 10
469.0032519334918
 20
990.3282182332231
 30
0.0
 10
469.0335220114202
 20
990.4156056397905
 30
0.0
 10
469.0627674078059
 20
990.5032787969386
 30
0.0
 10
469.0920128041925
 20
990.5909519540864
 30
0.0
 10
469.1202822202749
 20
990.6790406797846
 30
0.0
 10
469.1475156927326
 20
990.7675594018273
 30
0.0
 10
469.2019826376499
 20
990.944596845914
 30
0.0
 10
469.2523074769642
 20
991.1233532676888
 30
0.0
 10
469.2979888232393
 20
991.3039563235697
 30
0.0
 10
469.3893515157896
 20
991.6651624353308
 30
0.0
 10
469.4621532920946
 20
992.033740254984
 30
0.0
 10
469.5121328030254
 20
992.4108978776766
 30
0.0
 10
469.5246276807575
 20
992.5051872833501
 30
0.0
 10
469.5356951583262
 20
992.6000140833693
 30
0.0
 10
469.545267450836
 20
992.6953993894985
 30
0.0
 10
469.5500535970913
 20
992.7430920425631
 30
0.0
 10
469.5544698632938
 20
992.7909775352619
 30
0.0
 10
469.5584873501384
 20
992.8387976887988
 30
0.0
 10
469.5625048369829
 20
992.886617842335
 30
0.0
 10
469.5661283003301
 20
992.9344032650888
 30
0.0
 10
469.5693570075864
 20
992.9821540310367
 30
0.0
 10
469.5822718366116
 20
993.1731570948269
 30
0.0
 10
469.5888705681763
 20
993.3636056497144
 30
0.0
 10
469.5892190848144
 20
993.5535078406955
 30
0.0
 10
469.5899161180896
 20
993.933312222658
 30
0.0
 10
469.5655428815634
 20
994.3109291783667
 30
0.0
 10
469.5175319393674
 20
994.6864508389571
 30
0.0
 10
469.493526468269
 20
994.8742116692519
 30
0.0
 10
469.463629790549
 20
995.0614492137592
 30
0.0
 10
469.4281145789537
 20
995.2481773298933
 30
0.0
 10
469.4192357760548
 20
995.2948593589271
 30
0.0
 10
469.410001961728
 20
995.3415252849108
 30
0.0
 10
469.4004658922194
 20
995.3879545018699
 30
0.0
 10
469.3909298227099
 20
995.4343837188281
 30
0.0
 10
469.3810819918353
 20
995.4806273265985
 30
0.0
 10
469.3709331952095
 20
995.5266902803924
 30
0.0
 10
469.350635601957
 20
995.6188161879818
 30
0.0
 10
469.3291341456951
 20
995.7102194796672
 30
0.0
 10
469.3065104920533
 20
995.8009365448988
 30
0.0
 10
469.216015877484
 20
996.163804805823
 30
0.0
 10
469.1076478565583
 20
996.5157457744517
 30
0.0
 10
468.985959432488
 20
996.8586463654764
 30
0.0
 10
468.8642710084177
 20
997.2015469565022
 30
0.0
 10
468.7292490864611
 20
997.5353977717187
 30
0.0
 10
468.5845068700037
 20
997.8615009488375
 30
0.0
 10
468.5664140929457
 20
997.9022638459774
 30
0.0
 10
468.5481683861653
 20
997.942905036025
 30
0.0
 10
468.5297759403929
 20
997.9834265219251
 30
0.0
 10
468.5113834946214
 20
998.0239480078244
 30
0.0
 10
468.4928369820154
 20
998.0643650903212
 30
0.0
 10
468.4741977595276
 20
998.1045618242369
 30
0.0
 10
468.4369193145503
 20
998.1849552920685
 30
0.0
 10
468.3992277931501
 20
998.2645627776474
 30
0.0
 10
468.3611749481396
 20
998.3434212696719
 30
0.0
 10
468.2850692581178
 20
998.5011382537194
 30
0.0
 10
468.2075218870614
 20
998.6558630876352
 30
0.0
 10
468.1288976398864
 20
998.8078403542241
 30
0.0
 10
467.9716491455356
 20
999.1117948874025
 30
0.0
 10
467.8101302625718
 20
999.4048028190745
 30
0.0
 10
467.6466749039645
 20
999.6881792681042
 30
0.0
 10
467.4832195453563
 20
999.971555717134
 30
0.0
 10
467.317808630788
 20
1000.245287825589
 30
0.0
 10
467.1522863966974
 20
1000.510057440479
 30
0.0
 10
466.9867641626069
 20
1000.774827055369
 30
0.0
 10
466.8211165749235
 20
1001.030629470409
 30
0.0
 10
466.656942197621
 20
1001.277642151746
 30
0.0
 10
466.6158986032951
 20
1001.339395322081
 30
0.0
 10
466.5750703055973
 20
1001.400410306541
 30
0.0
 10
466.5345210866316
 20
1001.46063427115
 30
0.0
 10
466.4939718676659
 20
1001.52085823576
 30
0.0
 10
466.4536877883038
 20
1001.580310853879
 30
0.0
 10
466.4136896905593
 20
1001.639001820396
 30
0.0
 10
466.3336934950702
 20
1001.756383753432
 30
0.0
 10
466.2548412260494
 20
1001.87071908006
 30
0.0
 10
466.1772926015101
 20
1001.982048620603
 30
0.0
 10
466.0221953524296
 20
1002.20470770169
 30
0.0
 10
465.8723098037471
 20
1002.415375032224
 30
0.0
 10
465.7288956527536
 20
1002.613986540598
 30
0.0
 10
465.585481501761
 20
1002.812598048974
 30
0.0
 10
465.4485281332982
 20
1002.999156642801
 30
0.0
 10
465.3194034666712
 20
1003.173074351085
 30
0.0
 10
465.2548411333573
 20
1003.260033205227
 30
0.0
 10
465.1922386010656
 20
1003.343823478612
 30
0.0
 10
465.1317908452547
 20
1003.424315545861
 30
0.0
 10
465.1015669673488
 20
1003.464561579484
 30
0.0
 10
465.0718820658739
 20
1003.503982487853
 30
0.0
 10
465.0427628317393
 20
1003.542557791861
 30
0.0
 10
465.0282032146715
 20
1003.561845443864
 30
0.0
 10
465.0137850144392
 20
1003.580921694778
 30
0.0
 10
464.9995117343705
 20
1003.599783700174
 30
0.0
 10
464.9852384543009
 20
1003.618645705569
 30
0.0
 10
464.971107384099
 20
1003.63729699664
 30
0.0
 10
464.9571711992211
 20
1003.655669992846
 30
0.0
 10
464.8456817201986
 20
1003.802653962488
 30
0.0
 10
464.7458864940517
 20
1003.932882257454
 30
0.0
 10
464.6586412768238
 20
1004.046102961622
 30
0.0
 10
464.5713960595949
 20
1004.159323665789
 30
0.0
 10
464.4966927529049
 20
1004.255541820548
 30
0.0
 10
464.4356601491563
 20
1004.333892379263
 30
0.0
 10
464.4051438472815
 20
1004.373067658622
 30
0.0
 10
464.3780501853907
 20
1004.40776609553
 30
0.0
 10
464.3545570985143
 20
1004.437812267821
 30
0.0
 10
464.3486838267953
 20
1004.445323810893
 30
0.0
 10
464.3430357346205
 20
1004.452544341343
 30
0.0
 10
464.3376159031695
 20
1004.459470608659
 30
0.0
 10
464.3321960717176
 20
1004.466396875975
 30
0.0
 10
464.3270051516928
 20
1004.47302804506
 30
0.0
 10
464.322058871875
 20
1004.479344675957
 30
0.0
 10
464.3121663122392
 20
1004.491977937752
 30
0.0
 10
464.3032364708342
 20
1004.503373361215
 30
0.0
 10
464.2952724233528
 20
1004.513531545089
 30
0.0
 10
464.2634162334252
 20
1004.554164280582
 30
0.0
 10
464.2469873600775
 20
1004.5750530013
 30
0.0
 10
464.2463806442456
 20
1004.575825185681
 30
0.0
 10
464.2463691166449
 20
1004.575839857185
 30
0.0
 10
464.2463635928016
 20
1004.575846887966
 30
0.0
 10
464.2463629763779
 20
1004.575847676245
 30
0.0
  0
SPLINE
  5
286
330
70
100
AcDbEntity
  8
Front$1
 62
    18
420
        0
370
    35
100
AcDbSpline
210
0.0
220
0.0
230
1.0
 70
     8
 71
     3
 72
    35
 73
    31
 74
     0
 42
0.0000000001
 43
0.0000000001
 40
0.0
 40
0.0
 40
0.0
 40
0.0
 40
1.0
 40
1.0
 40
1.0
 40
2.0
 40
2.0
 40
2.0
 40
3.0
 40
3.0
 40
3.0
 40
4.0
 40
4.0
 40
4.0
 40
5.0
 40
5.0
 40
5.0
 40
6.0
 40
6.0
 40
6.0
 40
7.0
 40
7.0
 40
7.0
 40
8.0
 40
8.0
 40
8.0
 40
9.0
 40
9.0
 40
9.0
 40
10.0
 40
10.0
 40
10.0
 40
10.0
 10
772.2839568372055
 20
921.3271650751593
 30
0.0
 10
772.2839341598337
 20
921.4434655477708
 30
0.0
 10
772.2856753758096
 20
921.5598303974093
 30
0.0
 10
772.2887901758422
 20
921.6743734902228
 30
0.0
 10
772.2919079060265
 20
921.7890243359688
 30
0.0
 10
772.2964018057955
 20
921.901849995751
 30
0.0
 10
772.3018732825676
 20
922.0111593811434
 30
0.0
 10
772.3073505307202
 20
922.1205840673883
 30
0.0
 10
772.3138074192847
 20
922.226485057312
 30
0.0
 10
772.3208502370052
 20
922.3272684271632
 30
0.0
 10
772.3278988791316
 20
922.4281351447844
 30
0.0
 10
772.3355344199444
 20
922.5238757742991
 30
0.0
 10
772.3433651187733
 20
922.6130646138209
 30
0.0
 10
772.3511989168382
 20
922.7022887524999
 30
0.0
 10
772.3592280274315
 20
922.7849559140267
 30
0.0
 10
772.3670620074935
 20
922.8598287847836
 30
0.0
 10
772.3748951839316
 20
922.9346939749484
 30
0.0
 10
772.3825332698707
 20
923.001766473364
 30
0.0
 10
772.3895849827822
 20
923.0600291379559
 30
0.0
 10
772.3966329362992
 20
923.1182607416849
 30
0.0
 10
772.4030951418336
 20
923.167691902443
 30
0.0
 10
772.4085781242611
 20
923.2075550269073
 30
0.0
 10
772.4140569374157
 20
923.2473878393612
 30
0.0
 10
772.4185580161028
 20
923.2776671611009
 30
0.0
 10
772.4216855115482
 20
923.2979065948839
 30
0.0
 10
772.4248109827058
 20
923.3181329285836
 30
0.0
 10
772.4265646481617
 20
923.3283323668656
 30
0.0
 10
772.4265517213953
 20
923.3283342264257
 30
0.0
 10
772.4265517179428
 20
923.3283342269224
 30
0.0
 10
772.426551714363
 20
923.3283342266913
 30
0.0
 10
772.4265507264026
 20
923.3283340672024
 30
0.0
  0
SPLINE
  5
287
330
70
100
AcDbEntity
  8
Front$1
 62
    18
420
        0
370
    35
100
AcDbSpline
210
0.0
220
0.0
230
1.0
 70
     8
 71
     3
 72
    41
 73
    37
 74
     0
 42
0.0000000001
 43
0.0000000001
 40
0.0
 40
0.0
 40
0.0
 40
0.0
 40
1.0
 40
1.0
 40
1.0
 40
2.0
 40
2.0
 40
2.0
 40
3.0
 40
3.0
 40
3.0
 40
4.0
 40
4.0
 40
4.0
 40
5.0
 40
5.0
 40
5.0
 40
6.0
 40
6.0
 40
6.0
 40
7.0
 40
7.0
 40
7.0
 40
8.0
 40
8.0
 40
8.0
 40
9.0
 40
9.0
 40
9.0
 40
10.0
 40
10.0
 40
10.0
 40
11.0
 40
11.0
 40
11.0
 40
12.0
 40
12.0
 40
12.0
 40
12.0
 10
772.4264767403474
 20
919.3259936250651
 30
0.0
 10
772.4264977770035
 20
919.3259858130696
 30
0.0
 10
772.4255275659634
 20
919.3317071931433
 30
0.0
 10
772.4237327090995
 20
919.3430940469461
 30
0.0
 10
772.4219356826543
 20
919.3544946649254
 30
0.0
 10
772.4193120155542
 20
919.3715744615074
 30
0.0
 10
772.4160279471271
 20
919.3941794344064
 30
0.0
 10
772.4127419515952
 20
919.4167976719928
 30
0.0
 10
772.408794779456
 20
919.4449475721885
 30
0.0
 10
772.4043524929474
 20
919.4783774489424
 30
0.0
 10
772.3999077377247
 20
919.5118259037045
 30
0.0
 10
772.3949673176794
 20
919.5505602051452
 30
0.0
 10
772.3896964349332
 20
919.5942429061361
 30
0.0
 10
772.3844234640473
 20
919.6379429126974
 30
0.0
 10
772.3788197685735
 20
919.6865952403532
 30
0.0
 10
772.3730498614531
 20
919.7397830730061
 30
0.0
 10
772.3672790820637
 20
919.7929789463524
 30
0.0
 10
772.3613420407692
 20
919.8507116961136
 30
0.0
 10
772.3554028608796
 20
919.9124926721797
 30
0.0
 10
772.3494644926431
 20
919.9742652051918
 30
0.0
 10
772.3435239863975
 20
920.0400848581139
 30
0.0
 10
772.3377455215813
 20
920.1093979820598
 30
0.0
 10
772.3319695130721
 20
920.1786816424082
 30
0.0
 10
772.3263554082623
 20
920.251455804404
 30
0.0
 10
772.3210679319309
 20
920.3271092258219
 30
0.0
 10
772.3157840077655
 20
920.4027118227058
 30
0.0
 10
772.310826273364
 20
920.4811898116931
 30
0.0
 10
772.3063601802969
 20
920.5618802892022
 30
0.0
 10
772.3018978129475
 20
920.6425034528475
 30
0.0
 10
772.2979262669978
 20
920.7253354151326
 30
0.0
 10
772.29461235505
 20
920.8096746725786
 30
0.0
 10
772.2913013232883
 20
920.8939406291719
 30
0.0
 10
772.2886467828994
 20
920.9797112620234
 30
0.0
 10
772.2868145445645
 20
921.0662364696672
 30
0.0
 10
772.2849836487021
 20
921.152698280599
 30
0.0
 10
772.2839738503371
 20
921.2399135609775
 30
0.0
 10
772.2839568372055
 20
921.3271650751593
 30
0.0
  0
SPLINE
  5
288
330
70
100
AcDbEntity
  8
Front$1
 62
    18
420
        0
370
    35
100
AcDbSpline
210
0.0
220
0.0
230
1.0
 70
     8
 71
     3
 72
   149
 73
   145
 74
     0
 42
0.0000000001
 43
0.0000000001
 40
0.0
 40
0.0
 40
0.0
 40
0.0
 40
1.0
 40
1.0
 40
1.0
 40
2.0
 40
2.0
 40
2.0
 40
3.0
 40
3.0
 40
3.0
 40
4.0
 40
4.0
 40
4.0
 40
5.0
 40
5.0
 40
5.0
 40
6.0
 40
6.0
 40
6.0
 40
7.0
 40
7.0
 40
7.0
 40
8.0
 40
8.0
 40
8.0
 40
9.0
 40
9.0
 40
9.0
 40
10.0
 40
10.0
 40
10.0
 40
11.0
 40
11.0
 40
11.0
 40
12.0
 40
12.0
 40
12.0
 40
13.0
 40
13.0
 40
13.0
 40
14.0
 40
14.0
 40
14.0
 40
15.0
 40
15.0
 40
15.0
 40
16.0
 40
16.0
 40
16.0
 40
17.0
 40
17.0
 40
17.0
 40
18.0
 40
18.0
 40
18.0
 40
19.0
 40
19.0
 40
19.0
 40
20.0
 40
20.0
 40
20.0
 40
21.0
 40
21.0
 40
21.0
 40
22.0
 40
22.0
 40
22.0
 40
23.0
 40
23.0
 40
23.0
 40
24.0
 40
24.0
 40
24.0
 40
25.0
 40
25.0
 40
25.0
 40
26.0
 40
26.0
 40
26.0
 40
27.0
 40
27.0
 40
27.0
 40
28.0
 40
28.0
 40
28.0
 40
29.0
 40
29.0
 40
29.0
 40
30.0
 40
30.0
 40
30.0
 40
31.0
 40
31.0
 40
31.0
 40
32.0
 40
32.0
 40
32.0
 40
33.0
 40
33.0
 40
33.0
 40
34.0
 40
34.0
 40
34.0
 40
35.0
 40
35.0
 40
35.0
 40
36.0
 40
36.0
 40
36.0
 40
37.0
 40
37.0
 40
37.0
 40
38.0
 40
38.0
 40
38.0
 40
39.0
 40
39.0
 40
39.0
 40
40.0
 40
40.0
 40
40.0
 40
41.0
 40
41.0
 40
41.0
 40
42.0
 40
42.0
 40
42.0
 40
43.0
 40
43.0
 40
43.0
 40
44.0
 40
44.0
 40
44.0
 40
45.0
 40
45.0
 40
45.0
 40
46.0
 40
46.0
 40
46.0
 40
47.0
 40
47.0
 40
47.0
 40
48.0
 40
48.0
 40
48.0
 40
48.0
 10
716.4938748952717
 20
872.2984917305074
 30
0.0
 10
716.4938810764452
 20
872.2984935447056
 30
0.0
 10
716.5006492798911
 20
872.3004799311892
 30
0.0
 10
716.5139397640778
 20
872.3043549701687
 30
0.0
 10
716.5272302482645
 20
872.3082300091482
 30
0.0
 10
716.5470406874192
 20
872.3139920028861
 30
0.0
 10
716.5733138225187
 20
872.3215497289547
 30
0.0
 10
716.5995869576181
 20
872.3291074550234
 30
0.0
 10
716.6323227886605
 20
872.3384609134246
 30
0.0
 10
716.6716567563744
 20
872.3495212433062
 30
0.0
 10
716.6814902483038
 20
872.3522863257768
 30
0.0
 10
716.6917370925493
 20
872.3551580889271
 30
0.0
 10
716.7024014019152
 20
872.3581351353351
 30
0.0
 10
716.7130657112811
 20
872.361112181743
 30
0.0
 10
716.7241513582411
 20
872.3641955392031
 30
0.0
 10
716.7355911881641
 20
872.3673639556674
 30
0.0
 10
716.7584708480116
 20
872.3737007885993
 30
0.0
 10
716.7828254914366
 20
872.3803943061993
 30
0.0
 10
716.8086240209777
 20
872.3874144904675
 30
0.0
 10
716.86022108006
 20
872.4014548590057
 30
0.0
 10
716.9175827768504
 20
872.4168013979543
 30
0.0
 10
716.9805998165538
 20
872.4332247838175
 30
0.0
 10
717.0436168562574
 20
872.4496481696805
 30
0.0
 10
717.1122894265863
 20
872.467149276219
 30
0.0
 10
717.1866829144273
 20
872.4855016482033
 30
0.0
 10
717.2238796583497
 20
872.4946778341946
 30
0.0
 10
717.2625093248425
 20
872.5040668013699
 30
0.0
 10
717.3025970566814
 20
872.5136394591864
 30
0.0
 10
717.3226409226008
 20
872.5184257880956
 30
0.0
 10
717.3430775288907
 20
872.5232645722572
 30
0.0
 10
717.3638035768071
 20
872.5281269964415
 30
0.0
 10
717.3845296247236
 20
872.5329894206261
 30
0.0
 10
717.405540036405
 20
872.5378741897385
 30
0.0
 10
717.4268302282562
 20
872.5427767290566
 30
0.0
 10
717.5119909956574
 20
872.5623868863259
 30
0.0
 10
717.6016282457458
 20
872.5822813668782
 30
0.0
 10
717.6956529025901
 20
872.6021821295034
 30
0.0
 10
717.7896775594327
 20
872.6220828921286
 30
0.0
 10
717.8880900026943
 20
872.6419909368342
 30
0.0
 10
717.990938928373
 20
872.6616285309773
 30
0.0
 10
718.0937878540516
 20
872.6812661251205
 30
0.0
 10
718.2010722568011
 20
872.7006343045069
 30
0.0
 10
718.312983211339
 20
872.7194405778046
 30
0.0
 10
718.340960949974
 20
872.7241421461295
 30
0.0
 10
718.3692377828956
 20
872.7288096769353
 30
0.0
 10
718.3976487343953
 20
872.7334117457175
 30
0.0
 10
718.4260596858966
 20
872.7380138144981
 30
0.0
 10
718.4546432671577
 20
872.7425569726747
 30
0.0
 10
718.48339805063
 20
872.747037571211
 30
0.0
 10
718.5409076175711
 20
872.7559987682871
 30
0.0
 10
718.5991019933517
 20
872.7647097268091
 30
0.0
 10
718.6579752155612
 20
872.7731418951698
 30
0.0
 10
718.7757216599802
 20
872.7900062318877
 30
0.0
 10
718.8961795581763
 20
872.8057536550913
 30
0.0
 10
719.0193610614751
 20
872.8201566722654
 30
0.0
 10
719.1425425647739
 20
872.8345596894396
 30
0.0
 10
719.2684476731756
 20
872.8476183005842
 30
0.0
 10
719.3971691581173
 20
872.8590962507915
 30
0.0
 10
719.461529900589
 20
872.8648352258952
 30
0.0
 10
719.5265960026699
 20
872.8701788673753
 30
0.0
 10
719.5923872934727
 20
872.8750961637215
 30
0.0
 10
719.6252829388758
 20
872.8775548118937
 30
0.0
 10
719.6583640094377
 20
872.8799066516076
 30
0.0
 10
719.6914282848211
 20
872.8821352640206
 30
0.0
 10
719.7244925602044
 20
872.8843638764319
 30
0.0
 10
719.7575895504633
 20
872.8864730923087
 30
0.0
 10
719.7907189827837
 20
872.8884620222853
 30
0.0
 10
719.9232367120639
 20
872.8964177421968
 30
0.0
 10
720.0562722621398
 20
872.9024478770515
 30
0.0
 10
720.1898169397955
 20
872.9064985950044
 30
0.0
 10
720.3233616174511
 20
872.9105493129573
 30
0.0
 10
720.4574154226884
 20
872.9126206140064
 30
0.0
 10
720.5919831934261
 20
872.9126637377758
 30
0.0
 10
720.6592670787941
 20
872.9126852996614
 30
0.0
 10
720.7266796640833
 20
872.9121998915633
 30
0.0
 10
720.7942228567881
 20
872.9112017939279
 30
0.0
 10
720.8617660494929
 20
872.9102036962922
 30
0.0
 10
720.929474679955
 20
872.908691862529
 30
0.0
 10
720.9972454544331
 20
872.9066639516132
 30
0.0
 10
721.1327870033856
 20
872.9026081297833
 30
0.0
 10
721.266432485063
 20
872.8965552196241
 30
0.0
 10
721.3982618735463
 20
872.8886756570355
 30
0.0
 10
721.5300912620295
 20
872.880796094445
 30
0.0
 10
721.6601039640136
 20
872.8710902546918
 30
0.0
 10
721.788327819022
 20
872.8597234073822
 30
0.0
 10
721.9165516740304
 20
872.8483565600727
 30
0.0
 10
722.0429866820632
 20
872.8353287052049
 30
0.0
 10
722.1676104496146
 20
872.8208079070137
 30
0.0
 10
722.2299223333884
 20
872.8135475079179
 30
0.0
 10
722.2919175410079
 20
872.8058946235723
 30
0.0
 10
722.3528386077978
 20
872.7979729425424
 30
0.0
 10
722.4137596745877
 20
872.7900512615123
 30
0.0
 10
722.4737245023243
 20
872.7818489961245
 30
0.0
 10
722.532755951881
 20
872.773402172128
 30
0.0
 10
722.6508188509924
 20
872.756508524133
 30
0.0
 10
722.7651551772505
 20
872.7386373751633
 30
0.0
 10
722.8758590187553
 20
872.7200633190223
 30
0.0
 10
722.9865628602602
 20
872.7014892628831
 30
0.0
 10
723.0936340782045
 20
872.6822114239203
 30
0.0
 10
723.1970557437744
 20
872.6624977508581
 30
0.0
 10
723.2487665765602
 20
872.652640914328
 30
0.0
 10
723.2995633115497
 20
872.6426750953105
 30
0.0
 10
723.3494330724933
 20
872.6326342286084
 30
0.0
 10
723.3743679529652
 20
872.6276137952572
 30
0.0
 10
723.3990720857709
 20
872.6225741627677
 30
0.0
 10
723.4234131447173
 20
872.6175472649265
 30
0.0
 10
723.4477542036638
 20
872.6125203670836
 30
0.0
 10
723.4717643889489
 20
872.6074993159199
 30
0.0
 10
723.4954495208021
 20
872.6024886372469
 30
0.0
 10
723.5901900482131
 20
872.5824459225568
 30
0.0
 10
723.679729720694
 20
872.5625691677251
 30
0.0
 10
723.7642045625889
 20
872.5431257720684
 30
0.0
 10
723.8486794044838
 20
872.5236823764117
 30
0.0
 10
723.9280889384899
 20
872.5046713485662
 30
0.0
 10
724.0024100457103
 20
872.4863542969851
 30
0.0
 10
724.0767311529307
 20
872.468037245404
 30
0.0
 10
724.1459649595526
 20
872.4504131247103
 30
0.0
 10
724.2099244522924
 20
872.4337528276155
 30
0.0
 10
724.2259143254759
 20
872.4295877533405
 30
0.0
 10
724.2415452913592
 20
872.4254903575966
 30
0.0
 10
724.2567628760716
 20
872.4214786487827
 30
0.0
 10
724.271980460784
 20
872.417466939969
 30
0.0
 10
724.2868019361122
 20
872.4135363174355
 30
0.0
 10
724.3012314422303
 20
872.4096893932509
 30
0.0
 10
724.3300904544685
 20
872.4019955448802
 30
0.0
 10
724.3573815898708
 20
872.3946364898965
 30
0.0
 10
724.3831250821131
 20
872.3876324995671
 30
0.0
 10
724.4346120665941
 20
872.3736245189083
 30
0.0
 10
724.4799179297788
 20
872.3610385241354
 30
0.0
 10
724.5190640176624
 20
872.3500357517023
 30
0.0
 10
724.5582101055461
 20
872.3390329792691
 30
0.0
 10
724.5911964181268
 20
872.3296134291777
 30
0.0
 10
724.617856332552
 20
872.3219468566785
 30
0.0
 10
724.6311862897637
 20
872.318113570429
 30
0.0
 10
724.642931701177
 20
872.3147186927054
 30
0.0
 10
724.6530526153419
 20
872.3117848885559
 30
0.0
 10
724.663173529505
 20
872.3088510844045
 30
0.0
 10
724.6716132295441
 20
872.3063948433736
 30
0.0
 10
724.6783654161463
 20
872.3044263727425
 30
0.0
 10
724.6918697893506
 20
872.3004894314764
 30
0.0
 10
724.6986595399903
 20
872.2984965587748
 30
0.0
 10
724.698673543804
 20
872.2984924576577
 30
0.0
 10
724.6986735578084
 20
872.2984924535577
 30
0.0
 10
724.6986745181565
 20
872.2984921723091
 30
0.0
 10
724.6986754800546
 20
872.2984918964103
 30
0.0
  0
MTEXT
  5
289
330
70
100
AcDbEntity
  8
Front$1
100
AcDbMText
 10
476.9208679199218
 20
1080.053028106689
 30
0.0
 40
0.2
 41
0.0
 46
0.0
 71
     7
 72
     1
  1
\C18;\c0;\FTramontina Cond Titulos|b0|i0|c1;\H17.700000;\W1.000000;623
 73
     1
 44
1.0
  0
MTEXT
  5
28A
330
70
100
AcDbEntity
  8
Front$1
100
AcDbMText
 10
152.1318359375009
 20
917.9296875
 30
0.0
 40
0.2
 41
0.0
 46
0.0
 71
     7
 72
     1
  1
\C18;\c0;\FTramontina Cond Titulos|b0|i0|c1;\H17.700000;\W1.000000;90
 11
0.0000000000000001
 21
1.0
 31
0.0
 73
     1
 44
1.0
  0
MTEXT
  5
28B
330
70
100
AcDbEntity
  8
Front$1
100
AcDbMText
 10
107.2425842285165
 20
924.7431640625
 30
0.0
 40
0.2
 41
0.0
 46
0.0
 71
     7
 72
     1
  1
\C18;\c0;\FTramontina Cond Titulos|b0|i0|c1;\H17.700000;\W1.000000;194
 11
0.0000000000000001
 21
1.0
 31
0.0
 73
     1
 44
1.0
  0
MTEXT
  5
28C
330
70
100
AcDbEntity
  8
Front$1
100
AcDbMText
 10
777.9054565429687
 20
806.9790344238281
 30
0.0
 40
0.2
 41
0.0
 46
0.0
 71
     7
 72
     1
  1
\C18;\c0;\FTramontina Cond Titulos|b0|i0|c1;\H17.700000;\W1.000000;12
 73
     1
 44
1.0
  0
MTEXT
  5
28D
330
70
100
AcDbEntity
  8
Front$1
100
AcDbMText
 10
874.8720703125
 20
932.8339843749999
 30
0.0
 40
0.2
 41
0.0
 46
0.0
 71
     7
 72
     1
  1
\C18;\c0;\FTramontina Cond Titulos|b0|i0|c1;\H17.700000;\W1.000000;1/2”
 11
0.0000000000000001
 21
1.0
 31
0.0
 73
     1
 44
1.0
  0
ENDSEC
  0
SECTION
  2
OBJECTS
  0
DICTIONARY
  5
C
330
0
100
AcDbDictionary
281
     1
  3
ACAD_COLOR
350
63
  3
ACAD_DETAILVIEWSTYLE
350
6A
  3
ACAD_GROUP
350
D
  3
ACAD_LAYOUT
350
62
  3
ACAD_MATERIAL
350
10
  3
ACAD_MLEADERSTYLE
350
66
  3
ACAD_MLINESTYLE
350
5F
  3
ACAD_PLOTSETTINGS
350
61
  3
ACAD_PLOTSTYLENAME
350
E
  3
ACAD_SCALELIST
350
42
  3
ACAD_SECTIONVIEWSTYLE
350
68
  3
ACAD_TABLESTYLE
350
64
  3
ACAD_VISUALSTYLE
350
29
  3
ACDB_RECOMPOSE_DATA
350
296
  3
AcDbVariableDictionary
350
28E
  0
DICTIONARY
  5
63
102
{ACAD_REACTORS
330
C
102
}
330
C
100
AcDbDictionary
281
     1
  0
DICTIONARY
  5
6A
102
{ACAD_REACTORS
330
C
102
}
330
C
100
AcDbDictionary
281
     1
  3
Imperial24
350
6B
  0
DICTIONARY
  5
D
102
{ACAD_REACTORS
330
C
102
}
330
C
100
AcDbDictionary
281
     1
  0
DICTIONARY
  5
62
102
{ACAD_REACTORS
330
C
102
}
330
C
100
AcDbDictionary
281
     1
  3
Layout1
350
6F
  3
Layout2
350
77
  3
Model
350
73
  0
DICTIONARY
  5
10
102
{ACAD_REACTORS
330
C
102
}
330
C
100
AcDbDictionary
281
     1
  3
ByBlock
350
19
  3
ByLayer
350
11
  3
Global
350
21
  0
DICTIONARY
  5
66
102
{ACAD_REACTORS
330
C
102
}
330
C
100
AcDbDictionary
281
     1
  3
Standard
350
67
  0
DICTIONARY
  5
5F
102
{ACAD_REACTORS
330
C
102
}
330
C
100
AcDbDictionary
281
     1
  3
Standard
350
60
  0
DICTIONARY
  5
61
102
{ACAD_REACTORS
330
C
102
}
330
C
100
AcDbDictionary
281
     1
  0
ACDBDICTIONARYWDFLT
  5
E
102
{ACAD_REACTORS
330
C
102
}
330
C
100
AcDbDictionary
281
     1
  3
Normal
350
F
100
AcDbDictionaryWithDefault
340
F
  0
DICTIONARY
  5
42
102
{ACAD_REACTORS
330
C
102
}
330
C
100
AcDbDictionary
281
     1
  3
A0
350
43
  3
A1
350
44
  3
A2
350
45
  3
A3
350
46
  3
A4
350
47
  3
A5
350
48
  3
A6
350
49
  3
A7
350
4A
  3
A8
350
4B
  3
A9
350
4C
  3
B0
350
4D
  3
B1
350
4E
  3
B2
350
4F
  3
B3
350
50
  3
B4
350
51
  3
B5
350
52
  3
B6
350
53
  0
DICTIONARY
  5
68
102
{ACAD_REACTORS
330
C
102
}
330
C
100
AcDbDictionary
281
     1
  3
Imperial24
350
69
  0
DICTIONARY
  5
64
102
{ACAD_REACTORS
330
C
102
}
330
C
100
AcDbDictionary
281
     1
  3
Standard
350
65
  0
DICTIONARY
  5
29
102
{ACAD_REACTORS
330
C
102
}
330
C
100
AcDbDictionary
281
     1
  3
2dWireframe
350
2F
  3
Basic
350
2E
  3
Brighten
350
35
  3
ColorChange
350
39
  3
Conceptual
350
32
  3
Dim
350
34
  3
EdgeColorOff
350
41
  3
Facepattern
350
38
  3
Flat
350
2A
  3
FlatWithEdges
350
2B
  3
Gouraud
350
2C
  3
GouraudWithEdges
350
2D
  3
Hidden
350
31
  3
JitterOff
350
3F
  3
Linepattern
350
37
  3
OverhangOff
350
40
  3
Realistic
350
33
  3
Shaded
350
3E
  3
Shaded with edges
350
3D
  3
Shades of Gray
350
3A
  3
Sketchy
350
3B
  3
Thicken
350
36
  3
Wireframe
350
30
  3
X-Ray
350
3C
  0
XRECORD
  5
296
102
{ACAD_REACTORS
330
C
102
}
330
C
100
AcDbXrecord
280
     1
 90
        1
330
65
  0
DICTIONARY
  5
28E
102
{ACAD_REACTORS
330
C
102
}
330
C
100
AcDbDictionary
281
     1
  3
CANNOSCALE
350
293
  3
CMLEADERSTYLE
350
290
  3
CTABLESTYLE
350
28F
  3
CVIEWDETAILSTYLE
350
291
  3
CVIEWSECTIONSTYLE
350
292
  0
ACDBDETAILVIEWSTYLE
  5
6B
102
{ACAD_REACTORS
330
6A
102
}
330
6A
100
AcDbModelDocViewStyle
 70
     0
  3
Imperial24
290
     1
300
Imperial24
 90
        0
100
AcDbDetailViewStyle
 70
     0
 71
     0
 90
        3
 71
     1
340
55
 62
   256
 40
0.24
340
0
 62
   256
 40
0.24
300

 40
0.36
280
     3
 71
     2
340
5D
 90
       25
 62
   256
 71
     3
340
55
 62
   256
 40
0.24
 90
        1
 40
0.75
 90
        1
300
%<\AcVar ViewType \f "%tc1">% %<\AcVar ViewDetailId>%\PSCALE %<\AcVar ViewScale \f "%sn">%
 71
     4
340
5D
 90
       25
 62
   256
340
5D
 90
       25
 62
   256
280
     0
  0
LAYOUT
  5
6F
102
{ACAD_REACTORS
330
62
102
}
330
62
100
AcDbPlotSettings
  1

  2

  4

  6

 40
0.0
 41
0.0
 42
0.0
 43
0.0
 44
0.0
 45
0.0
 46
0.0
 47
0.0
 48
0.0
 49
0.0
140
0.0
141
0.0
142
1.0
143
1.0
 70
   688
 72
     0
 73
     0
 74
     5
  7

 75
    16
147
1.0
 76
     0
 77
     2
 78
   300
148
0.0
149
0.0
100
AcDbLayout
  1
Layout1
 70
     1
 71
     1
 10
0.0
 20
0.0
 11
12.0
 21
9.0
 12
0.0
 22
0.0
 32
0.0
 14
0.0
 24
0.0
 34
0.0
 15
0.0
 25
0.0
 35
0.0
146
0.0
 13
0.0
 23
0.0
 33
0.0
 16
1.0
 26
0.0
 36
0.0
 17
0.0
 27
1.0
 37
0.0
 76
     0
330
6C
  0
LAYOUT
  5
77
102
{ACAD_REACTORS
330
62
102
}
330
62
100
AcDbPlotSettings
  1

  2

  4

  6

 40
0.0
 41
0.0
 42
0.0
 43
0.0
 44
0.0
 45
0.0
 46
0.0
 47
0.0
 48
0.0
 49
0.0
140
0.0
141
0.0
142
1.0
143
1.0
 70
   688
 72
     0
 73
     0
 74
     5
  7

 75
    16
147
1.0
 76
     0
 77
     2
 78
   300
148
0.0
149
0.0
100
AcDbLayout
  1
Layout2
 70
     1
 71
     2
 10
0.0
 20
0.0
 11
12.0
 21
9.0
 12
0.0
 22
0.0
 32
0.0
 14
0.0
 24
0.0
 34
0.0
 15
0.0
 25
0.0
 35
0.0
146
0.0
 13
0.0
 23
0.0
 33
0.0
 16
1.0
 26
0.0
 36
0.0
 17
0.0
 27
1.0
 37
0.0
 76
     0
330
74
  0
LAYOUT
  5
73
102
{ACAD_REACTORS
330
62
102
}
330
62
100
AcDbPlotSettings
  1

  2

  4

  6

 40
0.0
 41
0.0
 42
0.0
 43
0.0
 44
0.0
 45
0.0
 46
0.0
 47
0.0
 48
0.0
 49
0.0
140
0.0
141
0.0
142
1.0
143
1.0
 70
  1712
 72
     0
 73
     0
 74
     0
  7

 75
     0
147
1.0
 76
     0
 77
     2
 78
   300
148
0.0
149
0.0
100
AcDbLayout
  1
Model
 70
     1
 71
     0
 10
0.0
 20
0.0
 11
12.0
 21
9.0
 12
0.0
 22
0.0
 32
0.0
 14
0.0
 24
0.0
 34
0.0
 15
0.0
 25
0.0
 35
0.0
146
0.0
 13
0.0
 23
0.0
 33
0.0
 16
1.0
 26
0.0
 36
0.0
 17
0.0
 27
1.0
 37
0.0
 76
     0
330
70
  0
MATERIAL
  5
19
102
{ACAD_XDICTIONARY
360
1A
102
}
102
{ACAD_REACTORS
330
10
102
}
330
10
100
AcDbMaterial
  1
ByBlock
 72
     0
 43
0.0208333333333333
 43
0.0
 43
0.0
 43
0.0
 43
0.0
 43
0.0208333333333333
 43
0.0
 43
0.0
 43
0.0
 43
0.0
 43
1.0
 43
0.0
 43
0.0
 43
0.0
 43
0.0
 43
1.0
 77
     0
 47
0.0208333333333333
 47
0.0
 47
0.0
 47
0.0
 47
0.0
 47
0.0208333333333333
 47
0.0
 47
0.0
 47
0.0
 47
0.0
 47
1.0
 47
0.0
 47
0.0
 47
0.0
 47
0.0
 47
1.0
171
     0
 49
0.0208333333333333
 49
0.0
 49
0.0
 49
0.0
 49
0.0
 49
0.0208333333333333
 49
0.0
 49
0.0
 49
0.0
 49
0.0
 49
1.0
 49
0.0
 49
0.0
 49
0.0
 49
0.0
 49
1.0
175
     0
142
0.0208333333333333
142
0.0
142
0.0
142
0.0
142
0.0
142
0.0208333333333333
142
0.0
142
0.0
142
0.0
142
0.0
142
1.0
142
0.0
142
0.0
142
0.0
142
0.0
142
1.0
179
     0
144
0.0208333333333333
144
0.0
144
0.0
144
0.0
144
0.0
144
0.0208333333333333
144
0.0
144
0.0
144
0.0
144
0.0
144
1.0
144
0.0
144
0.0
144
0.0
144
0.0
144
1.0
147
0.0208333333333333
147
0.0
147
0.0
147
0.0
147
0.0
147
0.0208333333333333
147
0.0
147
0.0
147
0.0
147
0.0
147
1.0
147
0.0
147
0.0
147
0.0
147
0.0
147
1.0
  0
MATERIAL
  5
11
102
{ACAD_XDICTIONARY
360
12
102
}
102
{ACAD_REACTORS
330
10
102
}
330
10
100
AcDbMaterial
  1
ByLayer
 72
     0
 43
0.0208333333333333
 43
0.0
 43
0.0
 43
0.0
 43
0.0
 43
0.0208333333333333
 43
0.0
 43
0.0
 43
0.0
 43
0.0
 43
1.0
 43
0.0
 43
0.0
 43
0.0
 43
0.0
 43
1.0
 77
     0
 47
0.0208333333333333
 47
0.0
 47
0.0
 47
0.0
 47
0.0
 47
0.0208333333333333
 47
0.0
 47
0.0
 47
0.0
 47
0.0
 47
1.0
 47
0.0
 47
0.0
 47
0.0
 47
0.0
 47
1.0
171
     0
 49
0.0208333333333333
 49
0.0
 49
0.0
 49
0.0
 49
0.0
 49
0.0208333333333333
 49
0.0
 49
0.0
 49
0.0
 49
0.0
 49
1.0
 49
0.0
 49
0.0
 49
0.0
 49
0.0
 49
1.0
175
     0
142
0.0208333333333333
142
0.0
142
0.0
142
0.0
142
0.0
142
0.0208333333333333
142
0.0
142
0.0
142
0.0
142
0.0
142
1.0
142
0.0
142
0.0
142
0.0
142
0.0
142
1.0
179
     0
144
0.0208333333333333
144
0.0
144
0.0
144
0.0
144
0.0
144
0.0208333333333333
144
0.0
144
0.0
144
0.0
144
0.0
144
1.0
144
0.0
144
0.0
144
0.0
144
0.0
144
1.0
147
0.0208333333333333
147
0.0
147
0.0
147
0.0
147
0.0
147
0.0208333333333333
147
0.0
147
0.0
147
0.0
147
0.0
147
1.0
147
0.0
147
0.0
147
0.0
147
0.0
147
1.0
  0
MATERIAL
  5
21
102
{ACAD_XDICTIONARY
360
22
102
}
102
{ACAD_REACTORS
330
10
102
}
330
10
100
AcDbMaterial
  1
Global
 72
     0
 43
0.0208333333333333
 43
0.0
 43
0.0
 43
0.0
 43
0.0
 43
0.0208333333333333
 43
0.0
 43
0.0
 43
0.0
 43
0.0
 43
1.0
 43
0.0
 43
0.0
 43
0.0
 43
0.0
 43
1.0
 77
     0
 47
0.0208333333333333
 47
0.0
 47
0.0
 47
0.0
 47
0.0
 47
0.0208333333333333
 47
0.0
 47
0.0
 47
0.0
 47
0.0
 47
1.0
 47
0.0
 47
0.0
 47
0.0
 47
0.0
 47
1.0
171
     0
 49
0.0208333333333333
 49
0.0
 49
0.0
 49
0.0
 49
0.0
 49
0.0208333333333333
 49
0.0
 49
0.0
 49
0.0
 49
0.0
 49
1.0
 49
0.0
 49
0.0
 49
0.0
 49
0.0
 49
1.0
175
     0
142
0.0208333333333333
142
0.0
142
0.0
142
0.0
142
0.0
142
0.0208333333333333
142
0.0
142
0.0
142
0.0
142
0.0
142
1.0
142
0.0
142
0.0
142
0.0
142
0.0
142
1.0
179
     0
144
0.0208333333333333
144
0.0
144
0.0
144
0.0
144
0.0
144
0.0208333333333333
144
0.0
144
0.0
144
0.0
144
0.0
144
1.0
144
0.0
144
0.0
144
0.0
144
0.0
144
1.0
147
0.0208333333333333
147
0.0
147
0.0
147
0.0
147
0.0
147
0.0208333333333333
147
0.0
147
0.0
147
0.0
147
0.0
147
1.0
147
0.0
147
0.0
147
0.0
147
0.0
147
1.0
  0
MLEADERSTYLE
  5
67
102
{ACAD_REACTORS
330
66
102
}
330
66
100
AcDbMLeaderStyle
179
     2
170
     2
171
     1
172
     0
 90
        2
 40
0.0
 41
0.0
173
     1
 91
-1056964608
340
5B
 92
       -2
290
     1
 42
0.09
291
     1
 43
0.36
  3
Standard
 44
0.18
300

342
55
174
     1
178
     6
175
     1
176
     0
 93
-1056964608
 45
0.18
292
     0
297
     0
 46
0.18
 94
-1056964608
 47
1.0
 49
1.0
140
1.0
293
     1
141
0.0
294
     1
177
     0
142
1.0
295
     1
296
     0
143
0.125
271
     0
272
     9
273
     9
298
     1
  0
MLINESTYLE
  5
60
102
{ACAD_REACTORS
330
5F
102
}
330
5F
100
AcDbMlineStyle
  2
STANDARD
 70
     0
  3

 62
   256
 51
90.0
 52
90.0
 71
     2
 49
0.5
 62
   256
  6
BYLAYER
 49
-0.5
 62
   256
  6
BYLAYER
  0
ACDBPLACEHOLDER
  5
F
102
{ACAD_REACTORS
330
E
102
}
330
E
  0
SCALE
  5
43
102
{ACAD_REACTORS
330
42
102
}
330
42
100
AcDbScale
 70
     0
300
1:1
140
1.0
141
1.0
290
     1
  0
SCALE
  5
44
102
{ACAD_REACTORS
330
42
102
}
330
42
100
AcDbScale
 70
     0
300
1/128" = 1'-0"
140
0.0078125
141
12.0
290
     0
  0
SCALE
  5
45
102
{ACAD_REACTORS
330
42
102
}
330
42
100
AcDbScale
 70
     0
300
1/64" = 1'-0"
140
0.015625
141
12.0
290
     0
  0
SCALE
  5
46
102
{ACAD_REACTORS
330
42
102
}
330
42
100
AcDbScale
 70
     0
300
1/32" = 1'-0"
140
0.03125
141
12.0
290
     0
  0
SCALE
  5
47
102
{ACAD_REACTORS
330
42
102
}
330
42
100
AcDbScale
 70
     0
300
1/16" = 1'-0"
140
0.0625
141
12.0
290
     0
  0
SCALE
  5
48
102
{ACAD_REACTORS
330
42
102
}
330
42
100
AcDbScale
 70
     0
300
3/32" = 1'-0"
140
0.09375
141
12.0
290
     0
  0
SCALE
  5
49
102
{ACAD_REACTORS
330
42
102
}
330
42
100
AcDbScale
 70
     0
300
1/8" = 1'-0"
140
0.125
141
12.0
290
     0
  0
SCALE
  5
4A
102
{ACAD_REACTORS
330
42
102
}
330
42
100
AcDbScale
 70
     0
300
3/16" = 1'-0"
140
0.1875
141
12.0
290
     0
  0
SCALE
  5
4B
102
{ACAD_REACTORS
330
42
102
}
330
42
100
AcDbScale
 70
     0
300
1/4" = 1'-0"
140
0.25
141
12.0
290
     0
  0
SCALE
  5
4C
102
{ACAD_REACTORS
330
42
102
}
330
42
100
AcDbScale
 70
     0
300
3/8" = 1'-0"
140
0.375
141
12.0
290
     0
  0
SCALE
  5
4D
102
{ACAD_REACTORS
330
42
102
}
330
42
100
AcDbScale
 70
     0
300
1/2" = 1'-0"
140
0.5
141
12.0
290
     0
  0
SCALE
  5
4E
102
{ACAD_REACTORS
330
42
102
}
330
42
100
AcDbScale
 70
     0
300
3/4" = 1'-0"
140
0.75
141
12.0
290
     0
  0
SCALE
  5
4F
102
{ACAD_REACTORS
330
42
102
}
330
42
100
AcDbScale
 70
     0
300
1" = 1'-0"
140
1.0
141
12.0
290
     0
  0
SCALE
  5
50
102
{ACAD_REACTORS
330
42
102
}
330
42
100
AcDbScale
 70
     0
300
1-1/2" = 1'-0"
140
1.5
141
12.0
290
     0
  0
SCALE
  5
51
102
{ACAD_REACTORS
330
42
102
}
330
42
100
AcDbScale
 70
     0
300
3" = 1'-0"
140
3.0
141
12.0
290
     0
  0
SCALE
  5
52
102
{ACAD_REACTORS
330
42
102
}
330
42
100
AcDbScale
 70
     0
300
6" = 1'-0"
140
6.0
141
12.0
290
     0
  0
SCALE
  5
53
102
{ACAD_REACTORS
330
42
102
}
330
42
100
AcDbScale
 70
     0
300
1'-0" = 1'-0"
140
12.0
141
12.0
290
     0
  0
ACDBSECTIONVIEWSTYLE
  5
69
102
{ACAD_REACTORS
330
68
102
}
330
68
100
AcDbModelDocViewStyle
 70
     0
  3
Imperial24
290
     1
300
Imperial24
 90
        0
100
AcDbSectionViewStyle
 70
     0
 71
     0
 90
       78
 71
     1
340
55
 62
   256
 40
0.24
340
0
340
0
 62
   256
 40
0.24
300
I, O, Q, S, X, Z
 40
0.48
 90
        3
 40
0.18
 90
        1
 71
     2
340
5D
 90
       25
 62
   256
340
5D
 90
       50
 62
   256
 40
0.24
 40
0.0
 40
0.24
 71
     3
340
55
 62
   256
 40
0.24
 90
        1
 40
0.75
 90
        1
300
%<\AcVar ViewType \f "%tc1">% %<\AcVar ViewSectionStartId>%-%<\AcVar ViewSectionEndId>%\PSCALE %<\AcVar ViewScale \f "%sn">%
 71
     4
 62
   256
 62
   257
300
ANSI31
 40
1.0
 90
        0
290
     0
290
     0
 90
        6
 40
0.0
 40
1.570796326794896
 40
0.2617993877991494
 40
1.308996938995747
 40
-0.2617993877991494
 40
1.832595714594046
  0
TABLESTYLE
  5
65
102
{ACAD_XDICTIONARY
360
294
102
}
102
{ACAD_REACTORS
330
64
102
}
330
64
100
AcDbTableStyle
280
     0
  3
Standard
 70
     0
 71
     0
 40
0.06
 41
0.06
280
     0
281
     0
  7
Standard
140
0.18
170
     2
 62
     0
 63
     7
283
     0
 90
      512
 91
        0
  1

274
    -2
284
     1
 64
     0
275
    -2
285
     1
 65
     0
276
    -2
286
     1
 66
     0
277
    -2
287
     1
 67
     0
278
    -2
288
     1
 68
     0
279
    -2
289
     1
 69
     0
  7
Standard
140
0.25
170
     5
 62
     0
 63
     7
283
     0
 90
      512
 91
        0
  1

274
    -2
284
     1
 64
     0
275
    -2
285
     1
 65
     0
276
    -2
286
     1
 66
     0
277
    -2
287
     1
 67
     0
278
    -2
288
     1
 68
     0
279
    -2
289
     1
 69
     0
  7
Standard
140
0.18
170
     5
 62
     0
 63
     7
283
     0
 90
      512
 91
        0
  1

274
    -2
284
     1
 64
     0
275
    -2
285
     1
 65
     0
276
    -2
286
     1
 66
     0
277
    -2
287
     1
 67
     0
278
    -2
288
     1
 68
     0
279
    -2
289
     1
 69
     0
  0
VISUALSTYLE
  5
2F
102
{ACAD_REACTORS
330
29
102
}
330
29
100
AcDbVisualStyle
  2
2dWireframe
 70
     4
177
     3
291
     0
 70
    58
 90
        0
176
     1
 90
        2
176
     1
 90
        0
176
     1
 90
        0
176
     1
 40
0.6
176
     1
 40
30.0
176
     1
 62
     7
420
 16777215
176
     1
 90
        1
176
     1
 90
        4
176
     1
 62
     7
176
     1
 62
   257
176
     1
 90
        1
176
     1
 90
        1
176
     1
 40
1.0
176
     1
 90
        0
176
     1
 62
   257
176
     1
 40
1.0
176
     1
 90
        1
176
     1
 90
        6
176
     1
 90
        2
176
     1
 62
     7
176
     1
 90
        5
176
     1
 90
        0
176
     1
 90
        0
176
     1
290
     0
176
     1
 90
        1
176
     1
 40
0.0
176
     1
 90
        0
176
     1
290
     1
176
     1
290
     1
176
     1
290
     0
176
     1
290
     0
176
     1
290
     0
176
     1
290
     0
176
     1
290
     0
176
     1
290
     0
176
     1
290
     0
176
     1
 90
       50
176
     1
 40
0.0
176
     1
 40
1.0
176
     1
 90
        0
176
     1
 62
    18
420
        0
176
     1
 90
       50
176
     1
 90
        3
176
     1
 62
     5
420
      255
176
     1
290
     0
176
     1
 90
       50
176
     1
 90
       50
176
     1
 90
       50
176
     1
290
     0
176
     1
 90
       50
176
     1
 62
   256
176
     0
 40
1.0
176
     0
 90
        2
176
     1
  1
strokes_ogs.tif
176
     1
290
     0
176
     1
 40
1.0
176
     1
 40
1.0
176
     1
  0
VISUALSTYLE
  5
2E
102
{ACAD_REACTORS
330
29
102
}
330
29
100
AcDbVisualStyle
  2
Basic
 70
     7
177
     3
291
     1
 70
    58
 90
        1
176
     1
 90
        0
176
     1
 90
        1
176
     1
 90
        0
176
     1
 40
0.6
176
     1
 40
30.0
176
     1
 62
     7
420
 16777215
176
     1
 90
        0
176
     1
 90
        4
176
     1
 62
     7
176
     1
 62
   257
176
     1
 90
        1
176
     1
 90
        1
176
     1
 40
1.0
176
     1
 90
        8
176
     1
 62
     7
176
     1
 40
1.0
176
     1
 90
        1
176
     1
 90
        6
176
     1
 90
        2
176
     1
 62
     7
176
     1
 90
        5
176
     1
 90
        0
176
     1
 90
        0
176
     1
290
     0
176
     1
 90
        1
176
     1
 40
0.0
176
     1
 90
        0
176
     1
290
     0
176
     1
290
     1
176
     1
290
     1
176
     1
290
     0
176
     1
290
     0
176
     1
290
     0
176
     1
290
     0
176
     1
290
     0
176
     1
290
     0
176
     1
 90
       50
176
     1
 40
0.0
176
     1
 40
1.0
176
     1
 90
        0
176
     1
 62
    18
420
        0
176
     1
 90
       50
176
     1
 90
        3
176
     1
 62
     5
420
      255
176
     1
290
     0
176
     1
 90
       50
176
     1
 90
       50
176
     1
 90
       50
176
     1
290
     0
176
     1
 90
       50
176
     1
 62
   256
176
     0
 40
1.0
176
     0
 90
        2
176
     1
  1
strokes_ogs.tif
176
     1
290
     0
176
     1
 40
1.0
176
     1
 40
1.0
176
     1
  0
VISUALSTYLE
  5
35
102
{ACAD_REACTORS
330
29
102
}
330
29
100
AcDbVisualStyle
  2
Brighten
 70
    12
177
     3
291
     1
 70
    58
 90
        2
176
     1
 90
        2
176
     1
 90
        0
176
     1
 90
        0
176
     1
 40
0.6
176
     1
 40
30.0
176
     1
 62
     7
420
 16777215
176
     1
 90
        1
176
     1
 90
        4
176
     1
 62
     7
176
     1
 62
   257
176
     1
 90
        1
176
     1
 90
        1
176
     1
 40
1.0
176
     1
 90
        8
176
     1
 62
     7
176
     1
 40
1.0
176
     1
 90
        1
176
     1
 90
        6
176
     1
 90
        2
176
     1
 62
     7
176
     1
 90
        5
176
     1
 90
        0
176
     1
 90
        0
176
     1
290
     0
176
     1
 90
        1
176
     1
 40
50.0
176
     1
 90
        0
176
     1
290
     0
176
     1
290
     1
176
     1
290
     1
176
     1
290
     0
176
     1
290
     0
176
     1
290
     0
176
     1
290
     0
176
     1
290
     0
176
     1
290
     0
176
     1
 90
       50
176
     1
 40
0.0
176
     1
 40
1.0
176
     1
 90
        0
176
     1
 62
    18
420
        0
176
     1
 90
       50
176
     1
 90
        3
176
     1
 62
     5
420
      255
176
     1
290
     0
176
     1
 90
       50
176
     1
 90
       50
176
     1
 90
       50
176
     1
290
     0
176
     1
 90
       50
176
     1
 62
   256
176
     0
 40
1.0
176
     0
 90
        2
176
     1
  1
strokes_ogs.tif
176
     1
290
     0
176
     1
 40
1.0
176
     1
 40
1.0
176
     1
  0
VISUALSTYLE
  5
39
102
{ACAD_REACTORS
330
29
102
}
330
29
100
AcDbVisualStyle
  2
ColorChange
 70
    16
177
     3
291
     1
 70
    58
 90
        2
176
     1
 90
        2
176
     1
 90
        3
176
     1
 90
        0
176
     1
 40
0.6
176
     1
 40
30.0
176
     1
 62
     8
420
  8421504
176
     1
 90
        1
176
     1
 90
        4
176
     1
 62
     7
176
     1
 62
   257
176
     1
 90
        1
176
     1
 90
        1
176
     1
 40
1.0
176
     1
 90
        8
176
     1
 62
     8
420
  8421504
176
     1
 40
1.0
176
     1
 90
        1
176
     1
 90
        6
176
     1
 90
        2
176
     1
 62
     7
176
     1
 90
        5
176
     1
 90
        0
176
     1
 90
        0
176
     1
290
     0
176
     1
 90
        1
176
     1
 40
0.0
176
     1
 90
        0
176
     1
290
     0
176
     1
290
     1
176
     1
290
     1
176
     1
290
     0
176
     1
290
     0
176
     1
290
     0
176
     1
290
     0
176
     1
290
     0
176
     1
290
     0
176
     1
 90
       50
176
     1
 40
0.0
176
     1
 40
1.0
176
     1
 90
        0
176
     1
 62
    18
420
        0
176
     1
 90
       50
176
     1
 90
        3
176
     1
 62
     5
420
      255
176
     1
290
     0
176
     1
 90
       50
176
     1
 90
       50
176
     1
 90
       50
176
     1
290
     0
176
     1
 90
       50
176
     1
 62
   256
176
     0
 40
1.0
176
     0
 90
        2
176
     1
  1
strokes_ogs.tif
176
     1
290
     0
176
     1
 40
1.0
176
     1
 40
1.0
176
     1
  0
VISUALSTYLE
  5
32
102
{ACAD_REACTORS
330
29
102
}
330
29
100
AcDbVisualStyle
  2
Conceptual
 70
     9
177
     3
291
     0
 70
    58
 90
        3
176
     1
 90
        2
176
     1
 90
        0
176
     1
 90
        0
176
     1
 40
0.6
176
     1
 40
30.0
176
     1
 62
     7
420
 16777215
176
     1
 90
        2
176
     1
 90
        2
176
     1
 62
     7
176
     1
 62
   257
176
     1
 90
        1
176
     1
 90
        1
176
     1
 40
179.0
176
     1
 90
        8
176
     1
 62
     7
176
     1
 40
1.0
176
     1
 90
        1
176
     1
 90
        6
176
     1
 90
        2
176
     1
 62
     7
176
     1
 90
        3
176
     1
 90
        0
176
     1
 90
        0
176
     1
290
     0
176
     1
 90
        1
176
     1
 40
0.0
176
     1
 90
        0
176
     1
290
     0
176
     1
290
     1
176
     1
290
     1
176
     1
290
     0
176
     1
290
     0
176
     1
290
     0
176
     1
290
     0
176
     1
290
     0
176
     1
290
     0
176
     1
 90
       50
176
     1
 40
0.0
176
     1
 40
1.0
176
     1
 90
        0
176
     1
 62
    18
420
        0
176
     1
 90
       50
176
     1
 90
        3
176
     1
 62
     5
420
      255
176
     1
290
     0
176
     1
 90
       50
176
     1
 90
       50
176
     1
 90
       50
176
     1
290
     0
176
     1
 90
       50
176
     1
 62
   256
176
     0
 40
1.0
176
     0
 90
        2
176
     1
  1
strokes_ogs.tif
176
     1
290
     0
176
     1
 40
1.0
176
     1
 40
1.0
176
     1
  0
VISUALSTYLE
  5
34
102
{ACAD_REACTORS
330
29
102
}
330
29
100
AcDbVisualStyle
  2
Dim
 70
    11
177
     3
291
     1
 70
    58
 90
        2
176
     1
 90
        2
176
     1
 90
        0
176
     1
 90
        0
176
     1
 40
0.6
176
     1
 40
30.0
176
     1
 62
     7
420
 16777215
176
     1
 90
        1
176
     1
 90
        4
176
     1
 62
     7
176
     1
 62
   257
176
     1
 90
        1
176
     1
 90
        1
176
     1
 40
1.0
176
     1
 90
        8
176
     1
 62
     7
176
     1
 40
1.0
176
     1
 90
        1
176
     1
 90
        6
176
     1
 90
        2
176
     1
 62
     7
176
     1
 90
        5
176
     1
 90
        0
176
     1
 90
        0
176
     1
290
     0
176
     1
 90
        1
176
     1
 40
-50.0
176
     1
 90
        0
176
     1
290
     0
176
     1
290
     1
176
     1
290
     1
176
     1
290
     0
176
     1
290
     0
176
     1
290
     0
176
     1
290
     0
176
     1
290
     0
176
     1
290
     0
176
     1
 90
       50
176
     1
 40
0.0
176
     1
 40
1.0
176
     1
 90
        0
176
     1
 62
    18
420
        0
176
     1
 90
       50
176
     1
 90
        3
176
     1
 62
     5
420
      255
176
     1
290
     0
176
     1
 90
       50
176
     1
 90
       50
176
     1
 90
       50
176
     1
290
     0
176
     1
 90
       50
176
     1
 62
   256
176
     0
 40
1.0
176
     0
 90
        2
176
     1
  1
strokes_ogs.tif
176
     1
290
     0
176
     1
 40
1.0
176
     1
 40
1.0
176
     1
  0
VISUALSTYLE
  5
41
102
{ACAD_REACTORS
330
29
102
}
330
29
100
AcDbVisualStyle
  2
EdgeColorOff
 70
    22
177
     3
291
     1
 70
    58
 90
        2
176
     0
 90
        2
176
     0
 90
        0
176
     0
 90
        0
176
     0
 40
0.6
176
     0
 40
30.0
176
     0
 62
     7
420
 16777215
176
     0
 90
        1
176
     0
 90
        4
176
     0
 62
     7
176
     0
 62
   257
176
     0
 90
        1
176
     0
 90
        1
176
     0
 40
1.0
176
     0
 90
        8
176
     2
 62
     7
176
     0
 40
1.0
176
     0
 90
        1
176
     0
 90
        6
176
     0
 90
        2
176
     0
 62
     7
176
     0
 90
        5
176
     0
 90
        0
176
     0
 90
        0
176
     0
290
     0
176
     0
 90
        1
176
     0
 40
0.0
176
     0
 90
        0
176
     0
290
     0
176
     0
290
     1
176
     0
290
     1
176
     0
290
     0
176
     0
290
     0
176
     0
290
     0
176
     0
290
     0
176
     0
290
     0
176
     0
290
     0
176
     0
 90
       50
176
     0
 40
0.0
176
     0
 40
1.0
176
     0
 90
        0
176
     0
 62
    18
420
        0
176
     0
 90
       50
176
     0
 90
        3
176
     0
 62
     5
420
      255
176
     0
290
     0
176
     0
 90
       50
176
     0
 90
       50
176
     0
 90
       50
176
     0
290
     0
176
     0
 90
       50
176
     0
 62
   256
176
     0
 40
1.0
176
     0
 90
        2
176
     0
  1
strokes_ogs.tif
176
     0
290
     0
176
     0
 40
1.0
176
     0
 40
1.0
176
     0
  0
VISUALSTYLE
  5
38
102
{ACAD_REACTORS
330
29
102
}
330
29
100
AcDbVisualStyle
  2
Facepattern
 70
    15
177
     3
291
     1
 70
    58
 90
        2
176
     1
 90
        2
176
     1
 90
        0
176
     1
 90
        0
176
     1
 40
0.6
176
     1
 40
30.0
176
     1
 62
     7
420
 16777215
176
     1
 90
        1
176
     1
 90
        4
176
     1
 62
     7
176
     1
 62
   257
176
     1
 90
        1
176
     1
 90
        1
176
     1
 40
1.0
176
     1
 90
        8
176
     1
 62
     7
176
     1
 40
1.0
176
     1
 90
        1
176
     1
 90
        6
176
     1
 90
        2
176
     1
 62
     7
176
     1
 90
        5
176
     1
 90
        0
176
     1
 90
        0
176
     1
290
     0
176
     1
 90
        1
176
     1
 40
0.0
176
     1
 90
        0
176
     1
290
     0
176
     1
290
     1
176
     1
290
     1
176
     1
290
     0
176
     1
290
     0
176
     1
290
     0
176
     1
290
     0
176
     1
290
     0
176
     1
290
     0
176
     1
 90
       50
176
     1
 40
0.0
176
     1
 40
1.0
176
     1
 90
        0
176
     1
 62
    18
420
        0
176
     1
 90
       50
176
     1
 90
        3
176
     1
 62
     5
420
      255
176
     1
290
     0
176
     1
 90
       50
176
     1
 90
       50
176
     1
 90
       50
176
     1
290
     0
176
     1
 90
       50
176
     1
 62
   256
176
     0
 40
1.0
176
     0
 90
        2
176
     1
  1
strokes_ogs.tif
176
     1
290
     0
176
     1
 40
1.0
176
     1
 40
1.0
176
     1
  0
VISUALSTYLE
  5
2A
102
{ACAD_REACTORS
330
29
102
}
330
29
100
AcDbVisualStyle
  2
Flat
 70
     0
177
     3
291
     1
 70
    58
 90
        2
176
     1
 90
        1
176
     1
 90
        1
176
     1
 90
        2
176
     1
 40
0.6
176
     1
 40
30.0
176
     1
 62
     7
420
 16777215
176
     1
 90
        0
176
     1
 90
        0
176
     1
 62
     7
176
     1
 62
   257
176
     1
 90
        1
176
     1
 90
        1
176
     1
 40
1.0
176
     1
 90
        8
176
     1
 62
     7
176
     1
 40
1.0
176
     1
 90
        1
176
     1
 90
        6
176
     1
 90
        2
176
     1
 62
     7
176
     1
 90
        5
176
     1
 90
        0
176
     1
 90
        0
176
     1
290
     0
176
     1
 90
       13
176
     1
 40
0.0
176
     1
 90
        0
176
     1
290
     0
176
     1
290
     1
176
     1
290
     1
176
     1
290
     0
176
     1
290
     0
176
     1
290
     0
176
     1
290
     0
176
     1
290
     0
176
     1
290
     0
176
     1
 90
       50
176
     1
 40
0.0
176
     1
 40
1.0
176
     1
 90
        0
176
     1
 62
    18
420
        0
176
     1
 90
       50
176
     1
 90
        3
176
     1
 62
     5
420
      255
176
     1
290
     0
176
     1
 90
       50
176
     1
 90
       50
176
     1
 90
       50
176
     1
290
     0
176
     1
 90
       50
176
     1
 62
   256
176
     0
 40
1.0
176
     0
 90
        2
176
     1
  1
strokes_ogs.tif
176
     1
290
     0
176
     1
 40
1.0
176
     1
 40
1.0
176
     1
  0
VISUALSTYLE
  5
2B
102
{ACAD_REACTORS
330
29
102
}
330
29
100
AcDbVisualStyle
  2
FlatWithEdges
 70
     1
177
     3
291
     1
 70
    58
 90
        2
176
     1
 90
        1
176
     1
 90
        1
176
     1
 90
        2
176
     1
 40
0.6
176
     1
 40
30.0
176
     1
 62
     7
420
 16777215
176
     1
 90
        1
176
     1
 90
        0
176
     1
 62
     7
176
     1
 62
   257
176
     1
 90
        1
176
     1
 90
        1
176
     1
 40
1.0
176
     1
 90
        0
176
     1
 62
   257
176
     1
 40
1.0
176
     1
 90
        1
176
     1
 90
        6
176
     1
 90
        2
176
     1
 62
     7
176
     1
 90
        5
176
     1
 90
        0
176
     1
 90
        0
176
     1
290
     0
176
     1
 90
       13
176
     1
 40
0.0
176
     1
 90
        0
176
     1
290
     0
176
     1
290
     1
176
     1
290
     1
176
     1
290
     0
176
     1
290
     0
176
     1
290
     0
176
     1
290
     0
176
     1
290
     0
176
     1
290
     0
176
     1
 90
       50
176
     1
 40
0.0
176
     1
 40
1.0
176
     1
 90
        0
176
     1
 62
    18
420
        0
176
     1
 90
       50
176
     1
 90
        3
176
     1
 62
     5
420
      255
176
     1
290
     0
176
     1
 90
       50
176
     1
 90
       50
176
     1
 90
       50
176
     1
290
     0
176
     1
 90
       50
176
     1
 62
   256
176
     0
 40
1.0
176
     0
 90
        2
176
     1
  1
strokes_ogs.tif
176
     1
290
     0
176
     1
 40
1.0
176
     1
 40
1.0
176
     1
  0
VISUALSTYLE
  5
2C
102
{ACAD_REACTORS
330
29
102
}
330
29
100
AcDbVisualStyle
  2
Gouraud
 70
     2
177
     3
291
     1
 70
    58
 90
        2
176
     1
 90
        2
176
     1
 90
        1
176
     1
 90
        2
176
     1
 40
0.6
176
     1
 40
30.0
176
     1
 62
     7
420
 16777215
176
     1
 90
        0
176
     1
 90
        0
176
     1
 62
     7
176
     1
 62
   257
176
     1
 90
        1
176
     1
 90
        1
176
     1
 40
1.0
176
     1
 90
        0
176
     1
 62
     7
176
     1
 40
1.0
176
     1
 90
        1
176
     1
 90
        6
176
     1
 90
        2
176
     1
 62
     7
176
     1
 90
        5
176
     1
 90
        0
176
     1
 90
        0
176
     1
290
     0
176
     1
 90
       13
176
     1
 40
0.0
176
     1
 90
        0
176
     1
290
     0
176
     1
290
     1
176
     1
290
     1
176
     1
290
     0
176
     1
290
     0
176
     1
290
     0
176
     1
290
     0
176
     1
290
     0
176
     1
290
     0
176
     1
 90
       50
176
     1
 40
0.0
176
     1
 40
1.0
176
     1
 90
        0
176
     1
 62
    18
420
        0
176
     1
 90
       50
176
     1
 90
        3
176
     1
 62
     5
420
      255
176
     1
290
     0
176
     1
 90
       50
176
     1
 90
       50
176
     1
 90
       50
176
     1
290
     0
176
     1
 90
       50
176
     1
 62
   256
176
     0
 40
1.0
176
     0
 90
        2
176
     1
  1
strokes_ogs.tif
176
     1
290
     0
176
     1
 40
1.0
176
     1
 40
1.0
176
     1
  0
VISUALSTYLE
  5
2D
102
{ACAD_REACTORS
330
29
102
}
330
29
100
AcDbVisualStyle
  2
GouraudWithEdges
 70
     3
177
     3
291
     1
 70
    58
 90
        2
176
     1
 90
        2
176
     1
 90
        1
176
     1
 90
        2
176
     1
 40
0.6
176
     1
 40
30.0
176
     1
 62
     7
420
 16777215
176
     1
 90
        1
176
     1
 90
        0
176
     1
 62
     7
176
     1
 62
   257
176
     1
 90
        1
176
     1
 90
        1
176
     1
 40
1.0
176
     1
 90
        0
176
     1
 62
   257
176
     1
 40
1.0
176
     1
 90
        1
176
     1
 90
        6
176
     1
 90
        2
176
     1
 62
     7
176
     1
 90
        5
176
     1
 90
        0
176
     1
 90
        0
176
     1
290
     0
176
     1
 90
       13
176
     1
 40
0.0
176
     1
 90
        0
176
     1
290
     0
176
     1
290
     1
176
     1
290
     1
176
     1
290
     0
176
     1
290
     0
176
     1
290
     0
176
     1
290
     0
176
     1
290
     0
176
     1
290
     0
176
     1
 90
       50
176
     1
 40
0.0
176
     1
 40
1.0
176
     1
 90
        0
176
     1
 62
    18
420
        0
176
     1
 90
       50
176
     1
 90
        3
176
     1
 62
     5
420
      255
176
     1
290
     0
176
     1
 90
       50
176
     1
 90
       50
176
     1
 90
       50
176
     1
290
     0
176
     1
 90
       50
176
     1
 62
   256
176
     0
 40
1.0
176
     0
 90
        2
176
     1
  1
strokes_ogs.tif
176
     1
290
     0
176
     1
 40
1.0
176
     1
 40
1.0
176
     1
  0
VISUALSTYLE
  5
31
102
{ACAD_REACTORS
330
29
102
}
330
29
100
AcDbVisualStyle
  2
Hidden
 70
     6
177
     3
291
     0
 70
    58
 90
        1
176
     1
 90
        2
176
     1
 90
        2
176
     1
 90
        0
176
     1
 40
0.6
176
     1
 40
30.0
176
     1
 62
     7
420
 16777215
176
     1
 90
        2
176
     1
 90
        2
176
     1
 62
     7
176
     1
 62
   257
176
     1
 90
        2
176
     1
 90
        1
176
     1
 40
40.0
176
     1
 90
        0
176
     1
 62
   257
176
     1
 40
1.0
176
     1
 90
        1
176
     1
 90
        6
176
     1
 90
        2
176
     1
 62
     7
176
     1
 90
        3
176
     1
 90
        0
176
     1
 90
        0
176
     1
290
     0
176
     1
 90
        1
176
     1
 40
0.0
176
     1
 90
        0
176
     1
290
     0
176
     1
290
     1
176
     1
290
     1
176
     1
290
     0
176
     1
290
     0
176
     1
290
     0
176
     1
290
     0
176
     1
290
     0
176
     1
290
     0
176
     1
 90
       50
176
     1
 40
0.0
176
     1
 40
1.0
176
     1
 90
        0
176
     1
 62
    18
420
        0
176
     1
 90
       50
176
     1
 90
        3
176
     1
 62
     5
420
      255
176
     1
290
     0
176
     1
 90
       50
176
     1
 90
       50
176
     1
 90
       50
176
     1
290
     0
176
     1
 90
       50
176
     1
 62
   256
176
     0
 40
1.0
176
     0
 90
        2
176
     1
  1
strokes_ogs.tif
176
     1
290
     0
176
     1
 40
1.0
176
     1
 40
1.0
176
     1
  0
VISUALSTYLE
  5
3F
102
{ACAD_REACTORS
330
29
102
}
330
29
100
AcDbVisualStyle
  2
JitterOff
 70
    20
177
     3
291
     1
 70
    58
 90
        2
176
     0
 90
        2
176
     0
 90
        0
176
     0
 90
        0
176
     0
 40
0.6
176
     0
 40
30.0
176
     0
 62
     7
420
 16777215
176
     0
 90
        1
176
     0
 90
        4
176
     0
 62
     7
176
     0
 62
   257
176
     0
 90
        1
176
     0
 90
        1
176
     0
 40
1.0
176
     0
 90
       10
176
     2
 62
     7
176
     0
 40
1.0
176
     0
 90
        1
176
     0
 90
        6
176
     0
 90
        2
176
     0
 62
     7
176
     0
 90
        5
176
     0
 90
        0
176
     0
 90
        0
176
     0
290
     0
176
     0
 90
        1
176
     0
 40
0.0
176
     0
 90
        0
176
     0
290
     0
176
     0
290
     1
176
     0
290
     1
176
     0
290
     0
176
     0
290
     0
176
     0
290
     0
176
     0
290
     0
176
     0
290
     0
176
     0
290
     0
176
     0
 90
       50
176
     0
 40
0.0
176
     0
 40
1.0
176
     0
 90
        0
176
     0
 62
    18
420
        0
176
     0
 90
       50
176
     0
 90
        3
176
     0
 62
     5
420
      255
176
     0
290
     0
176
     0
 90
       50
176
     0
 90
       50
176
     0
 90
       50
176
     0
290
     0
176
     0
 90
       50
176
     0
 62
   256
176
     0
 40
1.0
176
     0
 90
        2
176
     0
  1
strokes_ogs.tif
176
     0
290
     0
176
     0
 40
1.0
176
     0
 40
1.0
176
     0
  0
VISUALSTYLE
  5
37
102
{ACAD_REACTORS
330
29
102
}
330
29
100
AcDbVisualStyle
  2
Linepattern
 70
    14
177
     3
291
     1
 70
    58
 90
        2
176
     1
 90
        2
176
     1
 90
        0
176
     1
 90
        0
176
     1
 40
0.6
176
     1
 40
30.0
176
     1
 62
     7
420
 16777215
176
     1
 90
        1
176
     1
 90
        4
176
     1
 62
     7
176
     1
 62
   257
176
     1
 90
        7
176
     1
 90
        7
176
     1
 40
1.0
176
     1
 90
        8
176
     1
 62
     7
176
     1
 40
1.0
176
     1
 90
        1
176
     1
 90
        6
176
     1
 90
        2
176
     1
 62
     7
176
     1
 90
        5
176
     1
 90
        0
176
     1
 90
        0
176
     1
290
     0
176
     1
 90
        1
176
     1
 40
0.0
176
     1
 90
        0
176
     1
290
     0
176
     1
290
     1
176
     1
290
     1
176
     1
290
     0
176
     1
290
     0
176
     1
290
     0
176
     1
290
     0
176
     1
290
     0
176
     1
290
     0
176
     1
 90
       50
176
     1
 40
0.0
176
     1
 40
1.0
176
     1
 90
        0
176
     1
 62
    18
420
        0
176
     1
 90
       50
176
     1
 90
        3
176
     1
 62
     5
420
      255
176
     1
290
     0
176
     1
 90
       50
176
     1
 90
       50
176
     1
 90
       50
176
     1
290
     0
176
     1
 90
       50
176
     1
 62
   256
176
     0
 40
1.0
176
     0
 90
        2
176
     1
  1
strokes_ogs.tif
176
     1
290
     0
176
     1
 40
1.0
176
     1
 40
1.0
176
     1
  0
VISUALSTYLE
  5
40
102
{ACAD_REACTORS
330
29
102
}
330
29
100
AcDbVisualStyle
  2
OverhangOff
 70
    21
177
     3
291
     1
 70
    58
 90
        2
176
     0
 90
        2
176
     0
 90
        0
176
     0
 90
        0
176
     0
 40
0.6
176
     0
 40
30.0
176
     0
 62
     7
420
 16777215
176
     0
 90
        1
176
     0
 90
        4
176
     0
 62
     7
176
     0
 62
   257
176
     0
 90
        1
176
     0
 90
        1
176
     0
 40
1.0
176
     0
 90
        9
176
     2
 62
     7
176
     0
 40
1.0
176
     0
 90
        1
176
     0
 90
        6
176
     0
 90
        2
176
     0
 62
     7
176
     0
 90
        5
176
     0
 90
        0
176
     0
 90
        0
176
     0
290
     0
176
     0
 90
        1
176
     0
 40
0.0
176
     0
 90
        0
176
     0
290
     0
176
     0
290
     1
176
     0
290
     1
176
     0
290
     0
176
     0
290
     0
176
     0
290
     0
176
     0
290
     0
176
     0
290
     0
176
     0
290
     0
176
     0
 90
       50
176
     0
 40
0.0
176
     0
 40
1.0
176
     0
 90
        0
176
     0
 62
    18
420
        0
176
     0
 90
       50
176
     0
 90
        3
176
     0
 62
     5
420
      255
176
     0
290
     0
176
     0
 90
       50
176
     0
 90
       50
176
     0
 90
       50
176
     0
290
     0
176
     0
 90
       50
176
     0
 62
   256
176
     0
 40
1.0
176
     0
 90
        2
176
     0
  1
strokes_ogs.tif
176
     0
290
     0
176
     0
 40
1.0
176
     0
 40
1.0
176
     0
  0
VISUALSTYLE
  5
33
102
{ACAD_REACTORS
330
29
102
}
330
29
100
AcDbVisualStyle
  2
Realistic
 70
     8
177
     3
291
     0
 70
    58
 90
        2
176
     1
 90
        3
176
     1
 90
        0
176
     1
 90
        2
176
     1
 40
0.6
176
     1
 40
30.0
176
     1
 62
     7
420
 16777215
176
     1
 90
        0
176
     1
 90
        0
176
     1
 62
     7
176
     1
 62
   257
176
     1
 90
        1
176
     1
 90
        1
176
     1
 40
1.0
176
     1
 90
        8
176
     1
 62
   257
176
     1
 40
1.0
176
     1
 90
        1
176
     1
 90
        6
176
     1
 90
        2
176
     1
 62
     7
176
     1
 90
        3
176
     1
 90
        0
176
     1
 90
        0
176
     1
290
     0
176
     1
 90
       13
176
     1
 40
0.0
176
     1
 90
        0
176
     1
290
     0
176
     1
290
     1
176
     1
290
     1
176
     1
290
     0
176
     1
290
     0
176
     1
290
     0
176
     1
290
     0
176
     1
290
     0
176
     1
290
     0
176
     1
 90
       50
176
     1
 40
0.0
176
     1
 40
1.0
176
     1
 90
        0
176
     1
 62
    18
420
        0
176
     1
 90
       50
176
     1
 90
        3
176
     1
 62
     5
420
      255
176
     1
290
     0
176
     1
 90
       50
176
     1
 90
       50
176
     1
 90
       50
176
     1
290
     0
176
     1
 90
       50
176
     1
 62
   256
176
     0
 40
1.0
176
     0
 90
        2
176
     1
  1
strokes_ogs.tif
176
     1
290
     0
176
     1
 40
1.0
176
     1
 40
1.0
176
     1
  0
VISUALSTYLE
  5
3E
102
{ACAD_REACTORS
330
29
102
}
330
29
100
AcDbVisualStyle
  2
Shaded
 70
    27
177
     3
291
     0
 70
    58
 90
        2
176
     1
 90
        2
176
     1
 90
        1
176
     1
 90
        2
176
     1
 40
0.6
176
     1
 40
30.0
176
     1
 62
     7
420
 16777215
176
     1
 90
        0
176
     1
 90
        4
176
     1
 62
     7
176
     1
 62
   257
176
     1
 90
        1
176
     1
 90
        1
176
     1
 40
1.0
176
     1
 90
        8
176
     1
 62
   257
176
     1
 40
1.0
176
     1
 90
        1
176
     1
 90
        6
176
     1
 90
        2
176
     1
 62
     8
420
  7895160
176
     1
 90
        3
176
     1
 90
        0
176
     1
 90
        0
176
     1
290
     0
176
     1
 90
        5
176
     1
 40
0.0
176
     1
 90
        0
176
     1
290
     0
176
     1
290
     1
176
     1
290
     1
176
     1
290
     0
176
     1
290
     0
176
     1
290
     0
176
     1
290
     0
176
     1
290
     0
176
     1
290
     0
176
     1
 90
       50
176
     1
 40
0.0
176
     1
 40
1.0
176
     1
 90
        0
176
     1
 62
    18
420
        0
176
     1
 90
       50
176
     1
 90
        3
176
     1
 62
     5
420
      255
176
     1
290
     0
176
     1
 90
       50
176
     1
 90
       50
176
     1
 90
       50
176
     1
290
     0
176
     1
 90
       50
176
     1
 62
   256
176
     0
 40
1.0
176
     0
 90
        2
176
     1
  1
strokes_ogs.tif
176
     1
290
     0
176
     1
 40
1.0
176
     1
 40
1.0
176
     1
  0
VISUALSTYLE
  5
3D
102
{ACAD_REACTORS
330
29
102
}
330
29
100
AcDbVisualStyle
  2
Shaded with edges
 70
    26
177
     3
291
     0
 70
    58
 90
        2
176
     1
 90
        2
176
     1
 90
        1
176
     1
 90
        2
176
     1
 40
0.6
176
     1
 40
30.0
176
     1
 62
     7
420
 16777215
176
     1
 90
        1
176
     1
 90
        2
176
     1
 62
     7
176
     1
 62
   257
176
     1
 90
        2
176
     1
 90
        1
176
     1
 40
1.0
176
     1
 90
        8
176
     1
 62
   257
176
     1
 40
1.0
176
     1
 90
        1
176
     1
 90
        6
176
     1
 90
        2
176
     1
 62
     7
176
     1
 90
        3
176
     1
 90
        0
176
     1
 90
        0
176
     1
290
     0
176
     1
 90
        5
176
     1
 40
0.0
176
     1
 90
        0
176
     1
290
     0
176
     1
290
     1
176
     1
290
     1
176
     1
290
     0
176
     1
290
     0
176
     1
290
     0
176
     1
290
     0
176
     1
290
     0
176
     1
290
     0
176
     1
 90
       50
176
     1
 40
0.0
176
     1
 40
1.0
176
     1
 90
        0
176
     1
 62
    18
420
        0
176
     1
 90
       50
176
     1
 90
        3
176
     1
 62
     5
420
      255
176
     1
290
     0
176
     1
 90
       50
176
     1
 90
       50
176
     1
 90
       50
176
     1
290
     0
176
     1
 90
       50
176
     1
 62
   256
176
     0
 40
1.0
176
     0
 90
        2
176
     1
  1
strokes_ogs.tif
176
     1
290
     0
176
     1
 40
1.0
176
     1
 40
1.0
176
     1
  0
VISUALSTYLE
  5
3A
102
{ACAD_REACTORS
330
29
102
}
330
29
100
AcDbVisualStyle
  2
Shades of Gray
 70
    23
177
     3
291
     0
 70
    58
 90
        2
176
     1
 90
        2
176
     1
 90
        3
176
     1
 90
        0
176
     1
 40
0.6
176
     1
 40
30.0
176
     1
 62
     7
420
 16777215
176
     1
 90
        2
176
     1
 90
        2
176
     1
 62
     7
176
     1
 62
     7
176
     1
 90
        1
176
     1
 90
        1
176
     1
 40
40.0
176
     1
 90
        8
176
     1
 62
     7
176
     1
 40
1.0
176
     1
 90
        1
176
     1
 90
        6
176
     1
 90
        2
176
     1
 62
     7
176
     1
 90
        3
176
     1
 90
        0
176
     1
 90
        0
176
     1
290
     0
176
     1
 90
        1
176
     1
 40
0.0
176
     1
 90
        0
176
     1
290
     0
176
     1
290
     1
176
     1
290
     1
176
     1
290
     0
176
     1
290
     0
176
     1
290
     0
176
     1
290
     0
176
     1
290
     0
176
     1
290
     0
176
     1
 90
       50
176
     1
 40
0.0
176
     1
 40
1.0
176
     1
 90
        0
176
     1
 62
    18
420
        0
176
     1
 90
       50
176
     1
 90
        3
176
     1
 62
     5
420
      255
176
     1
290
     0
176
     1
 90
       50
176
     1
 90
       50
176
     1
 90
       50
176
     1
290
     0
176
     1
 90
       50
176
     1
 62
   256
176
     0
 40
1.0
176
     0
 90
        2
176
     1
  1
strokes_ogs.tif
176
     1
290
     0
176
     1
 40
1.0
176
     1
 40
1.0
176
     1
  0
VISUALSTYLE
  5
3B
102
{ACAD_REACTORS
330
29
102
}
330
29
100
AcDbVisualStyle
  2
Sketchy
 70
    24
177
     3
291
     0
 70
    58
 90
        1
176
     1
 90
        2
176
     1
 90
        2
176
     1
 90
        0
176
     1
 40
0.6
176
     1
 40
30.0
176
     1
 62
     7
420
 16777215
176
     1
 90
        2
176
     1
 90
        2
176
     1
 62
     7
176
     1
 62
     7
176
     1
 90
        1
176
     1
 90
        1
176
     1
 40
40.0
176
     1
 90
       11
176
     1
 62
     7
176
     1
 40
1.0
176
     1
 90
        1
176
     1
 90
        6
176
     1
 90
        2
176
     1
 62
     7
176
     1
 90
        6
176
     1
 90
        0
176
     1
 90
        0
176
     1
290
     0
176
     1
 90
        1
176
     1
 40
0.0
176
     1
 90
        0
176
     1
290
     0
176
     1
290
     1
176
     1
290
     1
176
     1
290
     0
176
     1
290
     0
176
     1
290
     0
176
     1
290
     0
176
     1
290
     0
176
     1
290
     0
176
     1
 90
       50
176
     1
 40
0.0
176
     1
 40
1.0
176
     1
 90
        0
176
     1
 62
    18
420
        0
176
     1
 90
       50
176
     1
 90
        3
176
     1
 62
     5
420
      255
176
     1
290
     0
176
     1
 90
       50
176
     1
 90
       50
176
     1
 90
       50
176
     1
290
     0
176
     1
 90
       50
176
     1
 62
   256
176
     0
 40
1.0
176
     0
 90
        2
176
     1
  1
strokes_ogs.tif
176
     1
290
     0
176
     1
 40
1.0
176
     1
 40
1.0
176
     1
  0
VISUALSTYLE
  5
36
102
{ACAD_REACTORS
330
29
102
}
330
29
100
AcDbVisualStyle
  2
Thicken
 70
    13
177
     3
291
     1
 70
    58
 90
        2
176
     1
 90
        2
176
     1
 90
        0
176
     1
 90
        0
176
     1
 40
0.6
176
     1
 40
30.0
176
     1
 62
     7
420
 16777215
176
     1
 90
        1
176
     1
 90
        4
176
     1
 62
     7
176
     1
 62
   257
176
     1
 90
        1
176
     1
 90
        1
176
     1
 40
1.0
176
     1
 90
       12
176
     1
 62
     7
176
     1
 40
1.0
176
     1
 90
        1
176
     1
 90
        6
176
     1
 90
        2
176
     1
 62
     7
176
     1
 90
        5
176
     1
 90
        0
176
     1
 90
        0
176
     1
290
     0
176
     1
 90
        1
176
     1
 40
0.0
176
     1
 90
        0
176
     1
290
     0
176
     1
290
     1
176
     1
290
     1
176
     1
290
     0
176
     1
290
     0
176
     1
290
     0
176
     1
290
     0
176
     1
290
     0
176
     1
290
     0
176
     1
 90
       50
176
     1
 40
0.0
176
     1
 40
1.0
176
     1
 90
        0
176
     1
 62
    18
420
        0
176
     1
 90
       50
176
     1
 90
        3
176
     1
 62
     5
420
      255
176
     1
290
     0
176
     1
 90
       50
176
     1
 90
       50
176
     1
 90
       50
176
     1
290
     0
176
     1
 90
       50
176
     1
 62
   256
176
     0
 40
1.0
176
     0
 90
        2
176
     1
  1
strokes_ogs.tif
176
     1
290
     0
176
     1
 40
1.0
176
     1
 40
1.0
176
     1
  0
VISUALSTYLE
  5
30
102
{ACAD_REACTORS
330
29
102
}
330
29
100
AcDbVisualStyle
  2
Wireframe
 70
     5
177
     3
291
     0
 70
    58
 90
        0
176
     1
 90
        2
176
     1
 90
        0
176
     1
 90
        0
176
     1
 40
0.6
176
     1
 40
30.0
176
     1
 62
     7
420
 16777215
176
     1
 90
        1
176
     1
 90
        4
176
     1
 62
     7
176
     1
 62
   257
176
     1
 90
        1
176
     1
 90
        1
176
     1
 40
1.0
176
     1
 90
        0
176
     1
 62
   257
176
     1
 40
1.0
176
     1
 90
        1
176
     1
 90
        6
176
     1
 90
        2
176
     1
 62
     7
176
     1
 90
        3
176
     1
 90
        0
176
     1
 90
        0
176
     1
290
     0
176
     1
 90
        1
176
     1
 40
0.0
176
     1
 90
        0
176
     1
290
     0
176
     1
290
     1
176
     1
290
     1
176
     1
290
     0
176
     1
290
     0
176
     1
290
     0
176
     1
290
     0
176
     1
290
     0
176
     1
290
     0
176
     1
 90
       50
176
     1
 40
0.0
176
     1
 40
1.0
176
     1
 90
        0
176
     1
 62
    18
420
        0
176
     1
 90
       50
176
     1
 90
        3
176
     1
 62
     5
420
      255
176
     1
290
     0
176
     1
 90
       50
176
     1
 90
       50
176
     1
 90
       50
176
     1
290
     0
176
     1
 90
       50
176
     1
 62
   256
176
     0
 40
1.0
176
     0
 90
        2
176
     1
  1
strokes_ogs.tif
176
     1
290
     0
176
     1
 40
1.0
176
     1
 40
1.0
176
     1
  0
VISUALSTYLE
  5
3C
102
{ACAD_REACTORS
330
29
102
}
330
29
100
AcDbVisualStyle
  2
X-Ray
 70
    25
177
     3
291
     0
 70
    58
 90
        2
176
     1
 90
        2
176
     1
 90
        1
176
     1
 90
        1
176
     1
 40
0.5
176
     1
 40
30.0
176
     1
 62
     7
420
 16777215
176
     1
 90
        1
176
     1
 90
        0
176
     1
 62
     7
176
     1
 62
   257
176
     1
 90
        1
176
     1
 90
        1
176
     1
 40
1.0
176
     1
 90
        8
176
     1
 62
     7
176
     1
 40
1.0
176
     1
 90
        1
176
     1
 90
        6
176
     1
 90
        2
176
     1
 62
     7
176
     1
 90
        3
176
     1
 90
        0
176
     1
 90
        0
176
     1
290
     0
176
     1
 90
       13
176
     1
 40
0.0
176
     1
 90
        0
176
     1
290
     0
176
     1
290
     1
176
     1
290
     1
176
     1
290
     0
176
     1
290
     0
176
     1
290
     0
176
     1
290
     0
176
     1
290
     0
176
     1
290
     0
176
     1
 90
       50
176
     1
 40
0.0
176
     1
 40
1.0
176
     1
 90
        0
176
     1
 62
    18
420
        0
176
     1
 90
       50
176
     1
 90
        3
176
     1
 62
     5
420
      255
176
     1
290
     0
176
     1
 90
       50
176
     1
 90
       50
176
     1
 90
       50
176
     1
290
     0
176
     1
 90
       50
176
     1
 62
   256
176
     0
 40
1.0
176
     0
 90
        2
176
     1
  1
strokes_ogs.tif
176
     1
290
     0
176
     1
 40
1.0
176
     1
 40
1.0
176
     1
  0
DICTIONARYVAR
  5
293
102
{ACAD_REACTORS
330
28E
102
}
330
28E
100
DictionaryVariables
280
     0
  1
1:1
  0
DICTIONARYVAR
  5
290
102
{ACAD_REACTORS
330
28E
102
}
330
28E
100
DictionaryVariables
280
     0
  1
STANDARD
  0
DICTIONARYVAR
  5
28F
102
{ACAD_REACTORS
330
28E
102
}
330
28E
100
DictionaryVariables
280
     0
  1
STANDARD
  0
DICTIONARYVAR
  5
291
102
{ACAD_REACTORS
330
28E
102
}
330
28E
100
DictionaryVariables
280
     0
  1
Imperial24
  0
DICTIONARYVAR
  5
292
102
{ACAD_REACTORS
330
28E
102
}
330
28E
100
DictionaryVariables
280
     0
  1
Imperial24
  0
DICTIONARY
  5
1A
330
19
100
AcDbDictionary
280
     1
281
     1
  3
BUMPTILE
360
1C
  3
DIFFUSETILE
360
1B
  3
OPACITYTILE
360
1F
  3
REFLECTIONTILE
360
1E
  3
REFRACTIONTILE
360
20
  3
SPECULARTILE
360
1D
  0
DICTIONARY
  5
12
330
11
100
AcDbDictionary
280
     1
281
     1
  3
BUMPTILE
360
14
  3
DIFFUSETILE
360
13
  3
OPACITYTILE
360
17
  3
REFLECTIONTILE
360
16
  3
REFRACTIONTILE
360
18
  3
SPECULARTILE
360
15
  0
DICTIONARY
  5
22
330
21
100
AcDbDictionary
280
     1
281
     1
  3
BUMPTILE
360
24
  3
DIFFUSETILE
360
23
  3
OPACITYTILE
360
27
  3
REFLECTIONTILE
360
26
  3
REFRACTIONTILE
360
28
  3
SPECULARTILE
360
25
  0
DICTIONARY
  5
294
330
65
100
AcDbDictionary
280
     1
281
     1
  3
ACAD_ROUNDTRIP_2008_TABLESTYLE_CELLSTYLEMAP
360
295
  0
XRECORD
  5
1C
102
{ACAD_REACTORS
330
1A
102
}
330
1A
100
AcDbXrecord
280
     1
270
     1
271
     1
  0
XRECORD
  5
1B
102
{ACAD_REACTORS
330
1A
102
}
330
1A
100
AcDbXrecord
280
     1
270
     1
271
     1
  0
XRECORD
  5
1F
102
{ACAD_REACTORS
330
1A
102
}
330
1A
100
AcDbXrecord
280
     1
270
     1
271
     1
  0
XRECORD
  5
1E
102
{ACAD_REACTORS
330
1A
102
}
330
1A
100
AcDbXrecord
280
     1
270
     1
271
     1
  0
XRECORD
  5
20
102
{ACAD_REACTORS
330
1A
102
}
330
1A
100
AcDbXrecord
280
     1
270
     1
271
     1
  0
XRECORD
  5
1D
102
{ACAD_REACTORS
330
1A
102
}
330
1A
100
AcDbXrecord
280
     1
270
     1
271
     1
  0
XRECORD
  5
14
102
{ACAD_REACTORS
330
12
102
}
330
12
100
AcDbXrecord
280
     1
270
     1
271
     1
  0
XRECORD
  5
13
102
{ACAD_REACTORS
330
12
102
}
330
12
100
AcDbXrecord
280
     1
270
     1
271
     1
  0
XRECORD
  5
17
102
{ACAD_REACTORS
330
12
102
}
330
12
100
AcDbXrecord
280
     1
270
     1
271
     1
  0
XRECORD
  5
16
102
{ACAD_REACTORS
330
12
102
}
330
12
100
AcDbXrecord
280
     1
270
     1
271
     1
  0
XRECORD
  5
18
102
{ACAD_REACTORS
330
12
102
}
330
12
100
AcDbXrecord
280
     1
270
     1
271
     1
  0
XRECORD
  5
15
102
{ACAD_REACTORS
330
12
102
}
330
12
100
AcDbXrecord
280
     1
270
     1
271
     1
  0
XRECORD
  5
24
102
{ACAD_REACTORS
330
22
102
}
330
22
100
AcDbXrecord
280
     1
270
     1
271
     1
  0
XRECORD
  5
23
102
{ACAD_REACTORS
330
22
102
}
330
22
100
AcDbXrecord
280
     1
270
     1
271
     1
  0
XRECORD
  5
27
102
{ACAD_REACTORS
330
22
102
}
330
22
100
AcDbXrecord
280
     1
270
     1
271
     1
  0
XRECORD
  5
26
102
{ACAD_REACTORS
330
22
102
}
330
22
100
AcDbXrecord
280
     1
270
     1
271
     1
  0
XRECORD
  5
28
102
{ACAD_REACTORS
330
22
102
}
330
22
100
AcDbXrecord
280
     1
270
     1
271
     1
  0
XRECORD
  5
25
102
{ACAD_REACTORS
330
22
102
}
330
22
100
AcDbXrecord
280
     1
270
     1
271
     1
  0
CELLSTYLEMAP
  5
295
102
{ACAD_REACTORS
330
294
102
}
330
294
100
AcDbCellStyleMap
 90
        3
300
CELLSTYLE
  1
TABLEFORMAT_BEGIN
 90
        5
170
     1
 91
        0
 92
    32768
 62
   257
 93
        1
300
CONTENTFORMAT
  1
CONTENTFORMAT_BEGIN
 90
        0
 91
        0
 92
      512
 93
        0
300

 40
0.0
140
1.0
 94
        5
 62
     0
340
55
144
0.25
309
CONTENTFORMAT_END
171
     0
 94
        0
309
TABLEFORMAT_END
  1
CELLSTYLE_BEGIN
 90
        1
 91
        1
300
_TITLE
309
CELLSTYLE_END
300
CELLSTYLE
  1
TABLEFORMAT_BEGIN
 90
        5
170
     1
 91
        0
 92
        0
 62
   257
 93
        1
300
CONTENTFORMAT
  1
CONTENTFORMAT_BEGIN
 90
        0
 91
        0
 92
      512
 93
        0
300

 40
0.0
140
1.0
 94
        5
 62
     0
340
55
144
0.18
309
CONTENTFORMAT_END
171
     0
 94
        0
309
TABLEFORMAT_END
  1
CELLSTYLE_BEGIN
 90
        2
 91
        1
300
_HEADER
309
CELLSTYLE_END
300
CELLSTYLE
  1
TABLEFORMAT_BEGIN
 90
        5
170
     1
 91
        0
 92
        0
 62
   257
 93
        1
300
CONTENTFORMAT
  1
CONTENTFORMAT_BEGIN
 90
        0
 91
        0
 92
      512
 93
        0
300

 40
0.0
140
1.0
 94
        2
 62
     0
340
55
144
0.18
309
CONTENTFORMAT_END
171
     0
 94
        0
309
TABLEFORMAT_END
  1
CELLSTYLE_BEGIN
 90
        3
 91
        2
300
_DATA
309
CELLSTYLE_END
  0
ENDSEC
  0
EOF
